Oops, an error
Loading. Please wait.

Aha Shake Heartbreak Tab

74,261 views 48 this week
11 commentsread comments
1 2 3 4 5
excellent!
x 57
Autoscroll
+/-
esc
set tempo
stop
Hey! There's an official Ultimate Guitar app which is ideal
for learning songs when you're away from computer. Get the app
WARNING: You are trying to view
                                    content from Ultimate-Guitar.com
                                    in an unauthorized application,
                                    which is prohibited.

                                    Please use an official Ultimate
                                    Guitar Tabs application for iPhone,
                                    iPad or Android to access legitimate
                                    chords, guitar, bass, and drum tabs
                                    from Ultimate-Guitar.com database.

                                    Type "ultimate guitar tabs" in Apple
                                    App Store's or Android Market's
                                    search to find the application.
#-----------------------------------PLEASE NOTE------------------------------------#
#   This file is all my own work and represents MY interpretation of the songs.    #
#   You may use this file, without my permission, for whatever purpose you like.   #
#----------------------------------------------------------------------------------#

DATE:                   Thursday, 2nd December 2004.

FILE DESCRIPTION:       A Chord and TAB book for the album:
                        "Aha Shake Heartbreak" by Kings Of Leon.

WRITER'S NOTES:         So, here we are again, huh! Another album, another TAB.
                        It's been made SLIGHTLY easier this time, due to the fact
                        that the lyrics have been printed on the inlay, THANK YOU KOL!
                        I've tabbed all of Caleb's parts. On "YAYM" I only tabbed some
                        bits, but I've excelled myself this time. (FOOL!) There's an
                        extra 2330 lines this time. Hmmm, it's like being back at
                        school...which was a long time ago, if I remember right.
                        
                        Like last time, I used various videos and live performances to
                        help me tab the album. T In The Park: "RAZZ"; Jools Holland: "THE
                        BUCKET", "PISTOL OF FIRE". Plus others that don't come to mind just
                        now...a few German TV performances I think.

                        I received a good few emails from people thanking me for the
                        "YAYM" album TAB I did. I've not replied to as many as I'd would
                        have liked to, but I'd like to say thank you to each and every one
                        of them, so my thanks go to...(in no particular order) - 
                        Alex Lane, Liz Renner, Stu, Katy, Dan Lee, Michael Tetlow,
                        Jsmok, Mikael Antoniades, Dustin M, Rick Nadolski, Jim, Stu F,
                        Tom Newman, Paul Boyce, Jamie, Jeramy, Helen Kirwan, James Fownes,
                        David Simpson, Woody Fresh, Jo Ford, Tim O'Brien, Mike, Harry,
                        Kilian Knuchel, Phil Daley, Marcus Hawkins, Rusty, Frosty, Dan and
                        last (but by no means least), all those who sadly never left a name.
                        I'd also like to say a BIG thank you to Sarah Thomas for putting the
                        TAB up on (the recently revamped) happyalone.com. It is available
                        elsewhere, but go visit the site anyway! (",)

                        I hope this will be of use to you!
                        You can use this as and when/where you like. Please don't use
                        it for profit; It wasn't created for that! Webmasters can use this
                        file without my permission, just as long as it remains unchanged and
                        that I am credited as the author.

                        Thanks again, and HAVE FUN!
                        Deano.

CONTACT INFORMATION:    If you wish to get in touch for whatever reason, you can contact
                        me at - the.scotsman@blueyonder.co.uk

OTHER INFORMATION:      WEY HEY!!! I FINISHED IT!...and it took but 24 days.
                        
                        "Velvet Snow" is my favourite track. It makes me smile and want to
                        jump around for 2mins and 11secs.
                        





****************************************************************************************
****************************************************************************************
****************************************************************************************






                                    KINGS OF LEON
                                "AHA SHAKE HEARTBREAK"


                                      TRACK LIST


TRACK 01 - SLOW NIGHT, SO LONG
TRACK 02 - KING OF THE RODEO
TRACK 03 - TAPER JEAN GIRL
TRACK 04 - PISTOL OF FIRE
TRACK 05 - MILK
TRACK 06 - THE BUCKET
TRACK 07 - SOFT
TRACK 08 - RAZZ
TRACK 09 - DAY OLD BLUES
TRACK 10 - FOUR KICKS
TRACK 11 - VELVET SNOW
TRACK 12 - REMEMO
TRACK 13 - WHERE NOBODY KNOWS (UK BONUS TRACK)






****************************************************************************************
****************************************************************************************
****************************************************************************************






Group/Singer Name:      Kings Of Leon
Song:                   "Slow Night, So Long"
Additional Info:        Aha Shake Heartbreak - Track 01
Tuning:                 Standard - [EADGBe]
Tabbed By:              Dean Hill - Comments, Suggestions? the.scotsman@blueyonder.co.uk


[Chords Used]   A9(X0545X); A6(X0767X); Dmaj/A(X00232); A(577655); D([10][12][12][11][10][10])
                Am(X0755X); Asus4(5577XX); G(355433) + SEE TAB


[Intro] | 1 & 2 & 3 & 4 & | 1 & 2 & 3 & 4  &  | 1    & 2 & 3 & 4 & | 1    & 2 & 3 & 4 & |
        |-----------------|-------------------|--------------------|--------------------|
        | A9              | A9          A6 A9 | Dmaj/A             | Dmaj/A             |

        | 1 & 2 & 3 & 4 & | 1 & 2 & 3 & 4  &  | 1    & 2 & 3 & 4 & | 1    & 2 & 3 & 4 & |
        |-----------------|-------------------|--------------------|--------------------|
        | A9              | A9          A6 A9 | Dmaj/A             | Dmaj/A             |
        
        | 1 & 2 & 3 & 4 & | 1 & 2 & 3 & 4  &  | 1    & 2 & 3 & 4 & | 1    & 2 & 3 & 4 & |
        |-----------------|-------------------|--------------------|--------------------|
        | A9              | A9          A6 A9 | Dmaj/A             | Dmaj/A             |


[Verse 1]       A9
                Slow night so long, she's frenching out the flavour,
                                                         Dmaj/A
                She's 17 but I done went and plum forgot.
                
                No tears are gone, they're pooling on the table,
                
                No tears are gone, they're leaving their mark behind.


[Link 1] | 1 & 2 & 3 & 4 & | 1 & 2 & 3 & 4  &  | 1    & 2 & 3 & 4 & | 1    & 2 & 3 & 4 & |
         |-----------------|-------------------|--------------------|--------------------|
         | A9              | A9          A6 A9 | Dmaj/A             | Dmaj/A             |


[Verse 2]       A9
                So far so good, she's absolutley wasted,
                                                             Dmaj/A
                She's hanging up, and changing her story around.
                
                I just don't know where leading ladies come from,
                
                I just don't know where they can be found.


[Bridge]        |A              |A              |D              |D              |
                |A              |A              |D              |D              |


[Link 2] | 1 & 2 & 3 & 4 & | 1 & 2 & 3 & 4  &  | 1    & 2 & 3 & 4 & | 1    & 2 & 3 & 4 & |
         |-----------------|-------------------|--------------------|--------------------|
         | A9              | A9          A6 A9 | Dmaj/A             | Dmaj/A             |


[Verse 3]       A9
                She's opened up just like she really knows me,
                                                      Dmaj/A
                I hate her face, but enjoy the company.
                
                I'll take you home, or back to Oklahoma,
                
                You're not so nice, but sex sells so cheap.


[Bridge]        |A              |A              |D              |D              |
                |A              |A              |D              |D              |
                |D              |
                
                
[Coda]          |Am             |Asus4          |G              |G              |
                |Am             |Asus4          |G              |G              |
                |Am             |Asus4          |G              |G              |
                |Am             |Asus4          |G              |G              |
                
                Am                      Asus4
                Rise and shine all you,      gold-digging mothers,
                    G
                Are you too good to tango with the poor poor boys?
                Am                      Asus4
                Rise and shine all you,      gold-digging mothers,
                    G
                Are you too good to tango with the poor poor boys?
                Am                      Asus4
                Rise and shine all you,      gold-digging mothers,
                    G
                Are you too good to tango with the poor poor boys?
                Am                      Asus4                        G
                Rise and shine all you,      gold-digging mother-er-ers.
                
                |Am             |Asus4          |G              |G              |
                |Am             |Asus4          |G              |






            *******************************************
            *KINGS OF LEON - SLOW NIGHT, SO LONG - TAB*
            *******************************************



b  -  Bend
sb -  Slow Bend
() -  Bracketed numbers are the note you bend up to
h  -  Hammer On
p  -  Pull Off
r  -  Return
/  -  Slide Up
\  -  Slide Down
d  -  Strum Down
u  -  Strum Up
PM -  Palm Mute
<> -  Natural Harmonics
^  -  Vibrato






[INTRO] - [CALEB] x3 [This is the main INTRO and LINK part Caleb Plays]

    A9               A9           A6 A9 Dmaj/A           Dmaj/A
e |-------------------------------------2----------------2-----------------------------|
B |-5----------------5------------7--5--3----------------3-----------------------------|
G |-4----------------4------------6--4--2----------------2-----------------------------|
D |-5----------------5------------7--5--0----------------0-----------------------------|
A |-0---00--00--00--00---00--00--00--0--0---00--00--00--00---00--00--00--0-------------|
E |------------------------------------------------------------------------------------|


        - [MATTHEW] @ 00:28
    A9
e |------------------------------------------------------------------------------------|
B |-5----------------------------------------------------------------------------------|
G |-4----------------------------------------------------------------------------------|
D |-5----------------------------------------------------------------------------------|
A |-0---00--00--00---0---00--00--00-----0---00--00--00---0---00--00--00----------------|
E |------------------------------------------------------------------------------------|



[VERSE 1] - [CALEB] [Just a variation of his INTRO and LINK part]

    A9               A9                 Dmaj/A           Dmaj/A
e |-------------------------------------2----------------2-----------------------------|
B |-5----------------5------------------3----------------3-----------------------------|
G |-4----------------4------------------2----------------2-----------------------------|
D |-5----------------5------------------0----------------0-----------------------------|
A |-0---00---0--00---0---00---0--00-----0---00---0--00--00---00---0--00-0--------------|
E |------------------------------------------------------------------------------------|


          - [MATTHEW]

e |-----------------0--------------------0---------------------0---------------------0-|
B |------------14--17---------------14--17----10-/12--14--17--15----10-/12--14--17--15-|
G |-9--11-/16------------9--11-/16-----------------------------------------------------|
D |------------------------------------------------------------------------------------|
A |------------------------------------------------------------------------------------|
E |------------------------------------------------------------------------------------|



[LINK 1] - [CALEB]

    A9               A9           A6 A9 Dmaj/A           Dmaj/A
e |-------------------------------------2----------------2-----------------------------|
B |-5----------------5------------7--5--3----------------3-----------------------------|
G |-4----------------4------------6--4--2----------------2-----------------------------|
D |-5----------------5------------7--5--0----------------0-----------------------------|
A |-0---00--00--00--00---00--00--00--0--0---00--00--00--00---00--00--00--0-------------|
E |------------------------------------------------------------------------------------|


        - [MATTHEW]
    A9
e |------------------------------------------------------------------------------------|
B |-5----------------------------------------------------------------------------------|
G |-4----------------------------------------------------------------------------------|
D |-5----------------------------------------------------------------------------------|
A |-0---00--00--00---0---00--00--00-----0---00--00--00---0---00--00--00----------------|
E |------------------------------------------------------------------------------------|



[VERSE 2] - [CALEB]

    A9               A9                 Dmaj/A           Dmaj/A
e |-------------------------------------2----------------2-----------------------------|
B |-5----------------5------------------3----------------3-----------------------------|
G |-4----------------4------------------2----------------2-----------------------------|
D |-5----------------5------------------0----------------0-----------------------------|
A |-0---00---0--00---0---00---0--00-----0---00---0--00--00---00---0--00-0--------------|
E |------------------------------------------------------------------------------------|


          - [MATTHEW]

e |-----------------0--------------------0---------------------0---------------------0-|
B |------------14--17---------------14--17----10-/12--14--17--15----10-/12--14--17--15-|
G |-9--11-/16------------9--11-/16-----------------------------------------------------|
D |------------------------------------------------------------------------------------|
A |------------------------------------------------------------------------------------|
E |------------------------------------------------------------------------------------|

  |--0------|
  |-15b(16)-|
  |---------|
  |---------|
  |---------|
  |---------|



[BRIDGE] - [CALEB]

    A                                                          D
e |-5-5--5-5-5--5-5-5--5-5-5-------5-5--5-5-5--5-5-5--5-5-5----10101010-1010-1010-1010-
B |-5-5--5-5-5--5-5-5--5-5-5-------5-5--5-5-5--5-5-5--5-5-5----10101010-1010-1010-1010-
G |-6-6--6-6-6--6-6-6--6-6-6-------6-6--6-6-6--6-6-6--6-6-6----11111111-1111-1111-1111-
D |-7-7--7-7-7--7-7-7--7-7-7-------7-7--7-7-7--7-7-7--7-7-7----12121212-1212-1212-1212-
A |-7-7--7-7-7--7-7-7--7-7-7-------7-7--7-7-7--7-7-7--7-7-7----12121212-1212-1212-1212-
E |-5-5--5-5-5--5-5-5--5-5-5-------5-5--5-5-5--5-5-5--5-5-5----10101010-1010-1010-1010-
                                    
   -10101010-1010-1010-1010--------10101010-1010-1010-1010-----10101010-1010-1010-1010-
   -10101010-1010-1010-1010--------10101010-1010-1010-1010-----10101010-1010-1010-1010-
   -11111111-1111-1111-1111--------11111111-1111-1111-1111-----11111111-1111-1111-1111-
   -12121212-1212-1212-1212--------12121212-1212-1212-1212-----12121212-1212-1212-1212-
   -12121212-1212-1212-1212--------12121212-1212-1212-1212-----12121212-1212-1212-1212-
   -10101010-1010-1010-1010--------10101010-1010-1010-1010-----10101010-1010-1010-1010-

    A                                                          D
   -55-5-5--5-5-5--5-5-5--5-5-5----5-5--5-5-5--5-5-5--5-5-5----10101010-1010-1010-1010-
   -55-5-5--5-5-5--5-5-5--5-5-5----5-5--5-5-5--5-5-5--5-5-5----10101010-1010-1010-1010-
   -66-6-6--6-6-6--6-6-6--6-6-6----6-6--6-6-6--6-6-6--6-6-6----11111111-1111-1111-1111-
   -77-7-7--7-7-7--7-7-7--7-7-7----7-7--7-7-7--7-7-7--7-7-7----12121212-1212-1212-1212-
   -77-7-7--7-7-7--7-7-7--7-7-7----7-7--7-7-7--7-7-7--7-7-7----12121212-1212-1212-1212-
   -55-5-5--5-5-5--5-5-5--5-5-5----5-5--5-5-5--5-5-5--5-5-5----10101010-1010-1010-1010-
                                    
   -10101010-1010-1010-1010--------10101010-1010-1010-1010-----10101010-1010-1010-1010-|
   -10101010-1010-1010-1010--------10101010-1010-1010-1010-----10101010-1010-1010-1010-|
   -11111111-1111-1111-1111--------11111111-1111-1111-1111-----11111111-1111-1111-1111-|
   -12121212-1212-1212-1212--------12121212-1212-1212-1212-----12121212-1212-1212-1212-|
   -12121212-1212-1212-1212--------12121212-1212-1212-1212-----12121212-1212-1212-1212-|
   -10101010-1010-1010-1010--------10101010-1010-1010-1010-----10101010-1010-1010-1010-|


        - [MATTHEW] [Watch your timing on the "A" part, it looks easy, but it's quite tricky]
    A                                 D
e |-5--5--5--5--5--5--5--5-5--5-5-5---1010--1010-1010-1010---X--1010--1010-1010-1010-X-
B |-5--5--5--5--5--5--5--5-5--5-5-5---1010--1010-1010-1010---X--1010--1010-1010-1010-X-
G |-6--6--6--6--6--6--6--6-6--6-6-6---1111--1111-1111-1111---X--1111--1111-1111-1111-X-
D |-7--7--7--7--7--7--7--7-7--7-7-7---1212--1212-1212-1212---X--1212--1212-1212-1212-X-
A |-7--7--7--7--7--7--7--7-7--7-7-7---1212--1212-1212-1212---X--1212--1212-1212-1212-X-
E |-5--5--5--5--5--5--5--5-5--5-5-5---1010--1010-1010-1010---X--1010--1010-1010-1010-X-

                                                       A
   -1010--1010-1010-1010---X--1010--1010-1010-1010--X--5--5--5--5--5--5--5--5-5--5-5-5-
   -1010--1010-1010-1010---X--1010--1010-1010-1010--X--5--5--5--5--5--5--5--5-5--5-5-5-
   -1111--1111-1111-1111---X--1111--1111-1111-1111--X--6--6--6--6--6--6--6--6-6--6-6-6-
   -1212--1212-1212-1212---X--1212--1212-1212-1212--X--7--7--7--7--7--7--7--7-7--7-7-7-
   -1212--1212-1212-1212---X--1212--1212-1212-1212--X--7--7--7--7--7--7--7--7-7--7-7-7-
   -1010--1010-1010-1010---X--1010--1010-1010-1010--X--5--5--5--5--5--5--5--5-5--5-5-5-

    D
   -1010--1010-1010-1010---X--1010--1010-1010-1010---X--1010--1010-1010-1010-X---------
   -1010--1010-1010-1010---X--1010--1010-1010-1010---X--1010--1010-1010-1010-X---------
   -1111--1111-1111-1111---X--1111--1111-1111-1111---X--1111--1111-1111-1111-X---------
   -1212--1212-1212-1212---X--1212--1212-1212-1212---X--1212--1212-1212-1212-X---------
   -1212--1212-1212-1212---X--1212--1212-1212-1212---X--1212--1212-1212-1212-X---------
   -1010--1010-1010-1010---X--1010--1010-1010-1010---X--1010--1010-1010-1010-X---------
   
   -1010--1010-1010-1010---X-----------------------------------------------------------|
   -1010--1010-1010-1010---X-----------------------------------------------------------|
   -1111--1111-1111-1111---X-----------------------------------------------------------|
   -1212--1212-1212-1212---X-----------------------------------------------------------|
   -1212--1212-1212-1212---X-----------------------------------------------------------|
   -1010--1010-1010-1010---X-----------------------------------------------------------|



[LINK 2] - [CALEB]

    A9               A9           A6 A9 Dmaj/A           Dmaj/A
e |-------------------------------------2----------------2-----------------------------|
B |-5----------------5------------7--5--3----------------3-----------------------------|
G |-4----------------4------------6--4--2----------------2-----------------------------|
D |-5----------------5------------7--5--0----------------0-----------------------------|
A |-0---00--00--00--00---00--00--00--0--0---00--00--00--00---00--00--00--0-------------|
E |------------------------------------------------------------------------------------|


        - [MATTHEW]
    A9
e |------------------------------------------------------------------------------------|
B |-5----------------------------------------------------------------------------------|
G |-4----------------------------------------------------------------------------------|
D |-5----------------------------------------------------------------------------------|
A |-0---00--00--00---0---00--00--00-----0---00--00--00---0---00--00--00----------------|
E |------------------------------------------------------------------------------------|



[VERSE 3] - [CALEB]

    A9               A9       A9        Dmaj/A   Dmaj/A  Dmaj/A
e |-------------------------------------2--------2-------2-----------------------------|
B |-5----------------5--------5---------3--------3-------3-----------------------------|
G |-4----------------4--------4---------2--------2-------2-----------------------------|
D |-5----------------5--------5---------0--------0-------0-----------------------------|
A |-0---00---0--00---0---00---0--00-0---0---00---0--00--00---00---0--00-0--------------|
E |------------------------------------------------------------------------------------|


          - [MATTHEW]

e |-----------------0--------------------0---------------------0---------------------0-|
B |------------14--17---------------14--17----10-/12--14--17--15----10-/12--14--17--15-|
G |-9--11-/16------------9--11-/16-----------------------------------------------------|
D |------------------------------------------------------------------------------------|
A |------------------------------------------------------------------------------------|
E |------------------------------------------------------------------------------------|

  |--0------|
  |-15b(16)-|
  |---------|
  |---------|
  |---------|
  |---------|



[BRIDGE] - [CALEB]

    A                                                          D
e |-5-5--5-5-5--5-5-5--5-5-5-------5-5--5-5-5--5-5-5--5-5-5----10101010-1010-1010-1010-
B |-5-5--5-5-5--5-5-5--5-5-5-------5-5--5-5-5--5-5-5--5-5-5----10101010-1010-1010-1010-
G |-6-6--6-6-6--6-6-6--6-6-6-------6-6--6-6-6--6-6-6--6-6-6----11111111-1111-1111-1111-
D |-7-7--7-7-7--7-7-7--7-7-7-------7-7--7-7-7--7-7-7--7-7-7----12121212-1212-1212-1212-
A |-7-7--7-7-7--7-7-7--7-7-7-------7-7--7-7-7--7-7-7--7-7-7----12121212-1212-1212-1212-
E |-5-5--5-5-5--5-5-5--5-5-5-------5-5--5-5-5--5-5-5--5-5-5----10101010-1010-1010-1010-
                                    
   -10101010-1010-1010-1010--------10101010-1010-1010-1010-----10101010-1010-1010-1010-
   -10101010-1010-1010-1010--------10101010-1010-1010-1010-----10101010-1010-1010-1010-
   -11111111-1111-1111-1111--------11111111-1111-1111-1111-----11111111-1111-1111-1111-
   -12121212-1212-1212-1212--------12121212-1212-1212-1212-----12121212-1212-1212-1212-
   -12121212-1212-1212-1212--------12121212-1212-1212-1212-----12121212-1212-1212-1212-
   -10101010-1010-1010-1010--------10101010-1010-1010-1010-----10101010-1010-1010-1010-

    A                                                          D
   -55-5-5--5-5-5--5-5-5--5-5-5----5-5--5-5-5--5-5-5--5-5-5----10101010-1010-1010-1010-
   -55-5-5--5-5-5--5-5-5--5-5-5----5-5--5-5-5--5-5-5--5-5-5----10101010-1010-1010-1010-
   -66-6-6--6-6-6--6-6-6--6-6-6----6-6--6-6-6--6-6-6--6-6-6----11111111-1111-1111-1111-
   -77-7-7--7-7-7--7-7-7--7-7-7----7-7--7-7-7--7-7-7--7-7-7----12121212-1212-1212-1212-
   -77-7-7--7-7-7--7-7-7--7-7-7----7-7--7-7-7--7-7-7--7-7-7----12121212-1212-1212-1212-
   -55-5-5--5-5-5--5-5-5--5-5-5----5-5--5-5-5--5-5-5--5-5-5----10101010-1010-1010-1010-
                                    
   -10101010-1010-1010-1010--------10101010-1010-1010-1010-----10101010-1010-1010-1010-
   -10101010-1010-1010-1010--------10101010-1010-1010-1010-----10101010-1010-1010-1010-
   -11111111-1111-1111-1111--------11111111-1111-1111-1111-----11111111-1111-1111-1111-
   -12121212-1212-1212-1212--------12121212-1212-1212-1212-----12121212-1212-1212-1212-
   -12121212-1212-1212-1212--------12121212-1212-1212-1212-----12121212-1212-1212-1212-
   -10101010-1010-1010-1010--------10101010-1010-1010-1010-----10101010-1010-1010-1010-
   
   -1010101010-----------------------------|
   -1010101010-----------------------------|
   -1111111111--[LET THE FINAL CHORD RING]-|
   -1212121212-----------------------------|
   -1212121212-----------------------------|
   -1010101010-----------------------------|


        - [MATTHEW]
    A                                 D
e |-5--5--5--5--5--5--5--5-5--5-5-5---1010--1010-1010-1010---X--1010--1010-1010-1010-X-
B |-5--5--5--5--5--5--5--5-5--5-5-5---1010--1010-1010-1010---X--1010--1010-1010-1010-X-
G |-6--6--6--6--6--6--6--6-6--6-6-6---1111--1111-1111-1111---X--1111--1111-1111-1111-X-
D |-7--7--7--7--7--7--7--7-7--7-7-7---1212--1212-1212-1212---X--1212--1212-1212-1212-X-
A |-7--7--7--7--7--7--7--7-7--7-7-7---1212--1212-1212-1212---X--1212--1212-1212-1212-X-
E |-5--5--5--5--5--5--5--5-5--5-5-5---1010--1010-1010-1010---X--1010--1010-1010-1010-X-

                                                       A
   -1010--1010-1010-1010---X--1010--1010-1010-1010--X--5--5--5--5--5--5--5--5-5--5-5-5-
   -1010--1010-1010-1010---X--1010--1010-1010-1010--X--5--5--5--5--5--5--5--5-5--5-5-5-
   -1111--1111-1111-1111---X--1111--1111-1111-1111--X--6--6--6--6--6--6--6--6-6--6-6-6-
   -1212--1212-1212-1212---X--1212--1212-1212-1212--X--7--7--7--7--7--7--7--7-7--7-7-7-
   -1212--1212-1212-1212---X--1212--1212-1212-1212--X--7--7--7--7--7--7--7--7-7--7-7-7-
   -1010--1010-1010-1010---X--1010--1010-1010-1010--X--5--5--5--5--5--5--5--5-5--5-5-5-

    D
   -1010--1010-1010-1010---X--1010--1010-1010-1010---X--1010--1010-1010-1010---X-------
   -1010--1010-1010-1010---X--1010--1010-1010-1010---X--1010--1010-1010-1010---X-------
   -1111--1111-1111-1111---X--1111--1111-1111-1111---X--1111--1111-1111-1111---X-------
   -1212--1212-1212-1212---X--1212--1212-1212-1212---X--1212--1212-1212-1212---X-------
   -1212--1212-1212-1212---X--1212--1212-1212-1212---X--1212--1212-1212-1212---X-------
   -1010--1010-1010-1010---X--1010--1010-1010-1010---X--1010--1010-1010-1010---X-------
   
   -1010--1010-1010-1010---X--1010101010-----------------------------------------------|
   -1010--1010-1010-1010---X--10101010XX-----------------------------------------------|
   -1111--1111-1111-1111---X--1111111111-[LET THE FINAL CHORD RING]--------------------|
   -1212--1212-1212-1212---X--1212121212-----------------------------------------------|
   -1212--1212-1212-1212---X--1212121212-----------------------------------------------|
   -1010--1010-1010-1010---X--1010101010-----------------------------------------------|



[CODA] - [CALEB]

    Am        Asus4    G                       Am        Asus4    G
e |------------------------------------------------------------------------------------
B |-5------------------------------------------5---------------------------------------
G |-5----5----7----7---4---------4-----4-------5----5----7----7---4---------4-----4----
D |-7-----7---7-----7--5------5--5-------------7-----7---7-----7--5------5--5----------
A |-0---------5--5---0-5--5------5---5--0------0---------5--5---0-5--5------5---5--0---
E |-----------5--------3-----3---3-----------------------5--------3-----3---3----------

    Am        Asus4    G                       Am        Asus4    G
   ------------------------------------------------------------------------------------
   -5------------------------------------------5---------------------------------------
   -5----5----7----7---4---------4-----4-------5----5----7----7---4---------4-----4----
   -7-----7---7-----7--5------5--5-------------7-----7---7-----7--5------5--5----------
   -0---------5--5---0-5--5------5---5--0------0---------5--5---0-5--5------5---5--0---
   -----------5--------3-----3---3-----------------------5--------3-----3---3----------

    Am        Asus4    G                       Am        Asus4    G
   ------------------------------------------------------------------------------------
   -5------------------------------------------5---------------------------------------
   -5---------7--------4---------4-------------5---------7--------4---------4----------
   -7---------7--------5---------5-------------7---------7--------5---------5----------
   -0---------5--------5---------5-------------0---------5--------5---------5----------
   -----------5--------3---------3-----------------------5--------3---------3----------

    Am        Asus4    G                       Am        Asus4    G
   ------------------------------------------------------------------------------------
   -5------------------------------------------5---------------------------------------
   -5---------7--------4---------4-------------5---------7--------4---------4----------
   -7---------7--------5---------5-------------7---------7--------5---------5----------
   -0---------5--------5---------5-------------0---------5--------5---------5----------
   -----------5--------3---------3-----------------------5--------3---------3----------

    Am        Asus4    G                       Am        Asus4    G [LET CHORD RING]
   ------------------------------------------------------------------------------------
   -5------------------------------------------5---------------------------------------
   -5---------7--------4---------4-------------5---------7--------4--------------------
   -7---------7--------5---------5-------------7---------7--------5--------------------
   -0---------5--------5---------5-------------0---------5--------5--------------------
   -----------5--------3---------3-----------------------5--------3--------------------


       - [MATTHEW] @ 03:01

  [THIS PART x7]                           [THEN THIS FINAL PART]
e |----------------------------------------|-------------------------------------------|
B |-------12----------10-------------10----|-------------------------------------------|
G |----12-----------9-------------------12-|-------------------------------------------|
D |-12----------10----------10/12\10-------|-12------10--\9----------------------------|
A |----------------------------------------|-------------------------------------------|
E |----------------------------------------|-------------------------------------------|






****************************************************************************************
****************************************************************************************
****************************************************************************************






Group/Singer Name:      Kings Of Leon
Song:                   "King Of The Rodeo"
Additional Info:        Aha Shake Heartbreak - Track 02
Tuning:                 Standard - [EADGBe]
Tabbed By:              Dean Hill - Comments, Suggestions? the.scotsman@blueyonder.co.uk


[Chords Used]   E5/B(XXX[16][17]0); Emaj/B(XXX[16][17][16]) + SEE TAB


[Intro]         | 1   & 2 & 3     & 4   & | 1   & 2 & 3     & 4   & |
                |-------------------------|-------------------------|
                | E5/B      Emaj/B  E5/B  | E5/B      Emaj/B  E5/B  |
                | E5/B      Emaj/B  E5/B  | E5/B      Emaj/B  E5/B  |
                | E5/B      Emaj/B  E5/B  | E5/B      Emaj/B  E5/B  |
                | E5/B      Emaj/B  E5/B  | E5/B      Emaj/B  E5/B  |


[Verse 1]       [KEEP PLAYING RHYTHM PART OVER VERSE]

                He's so the purity, a shaven and a mourning,
                And standing on a pigeon toe, in his disarray.
                Straight in the picture pose, he's coming around to meet you.
                And screaming like a battle cry, it's more if I stay.


[Chorus]        [IMPLIED CHORDS IN BRACKETS]

               (C#m)
                Me and your cold, driving in the snow,
                       (D)                                 (A)
                Let the good times roll, let the good times   roll.
               (C#m)                              (D)
                Cowgirl king of the rodeo, let the good times roll,
                                  (A)
                Let the good times   roll.


[Link]          | E5/B      Emaj/B  E5/B  | E5/B      Emaj/B  E5/B  |
                | E5/B      Emaj/B  E5/B  | E5/B      Emaj/B  E5/B  |


[Verse 2]       [KEEP PLAYING RHYTHM PART OVER VERSE]

                How dare you come to me like Withnail for a favour,
                A hold on not my fary tale, you're trying to start.
                Take off your overcoat, you're staying for the weekend,
                And swaying like a smokey grey, a drink in the park.


[Chorus]        [IMPLIED CHORDS IN BRACKETS]

               (C#m)
                Me and your cold, driving in the snow,
                       (D)                                 (A)
                Let the good times roll, let the good times   roll.
               (C#m)                              (D)
                Cowgirl king of the rodeo, let the good times roll,
                                  (A)
                Let the good times   roll........Good time to roll on!


[Solo]          | E5/B      Emaj/B  E5/B  | E5/B      Emaj/B  E5/B  |
                | E5/B      Emaj/B  E5/B  | E5/B      Emaj/B  E5/B  |
                | E5/B      Emaj/B  E5/B  | E5/B      Emaj/B  E5/B  |
                | E5/B      Emaj/B  E5/B  | E5/B      Emaj/B  E5/B  |


[Outro]         [IMPLIED CHORDS IN BRACKETS]

               (C#m)
                     Good time to roll on!
               (D)
                     Good time to roll on!
               (A)
                     Good time to roll on!
                     
                     Good time to roll on!
                     
               (C#m)
                     Good time to roll on!
               (D)
                     Good time to roll on!
               (A)
                     Good time to roll on!
                     
                     Good time to roll on!
                     
               (C#m)
                     Good time to roll on!
               (D)
                     Good time to roll on!
               (A)
                     Good time to roll on!
                     
                     Good time to roll on!
                
               (C#m)
                     Good time to roll on!
               (D)
                     Good time to roll on!
               (A)
                     Good time to roll on!
                     
                     Good time to roll on!
                
                Good time to roll on!
                Good time to roll on!
                Good time to roll on!
                Good time to roll on!






            *****************************************
            *KINGS OF LEON - KING OF THE RODEO - TAB*
            *****************************************



b  -  Bend
sb -  Slow Bend
() -  Bracketed numbers are the note you bend up to
h  -  Hammer On
p  -  Pull Off
r  -  Return
/  -  Slide Up
\  -  Slide Down
d  -  Strum Down
u  -  Strum Up
PM -  Palm Mute
<> -  Natural Harmonics
^  -  Vibrato






[INTRO] - [CALEB] [CALEB HAS AN EASY TIME ON THIS TRACK.]
                  [THIS IS WHAT HE PLAYS ALL THE WAY THROUGH.]
                  [JUST REPEAT...THAT'S ALL...HONEST!]

     E5/B       Emaj/B E5/B             Emaj/B E5/B
e |--0--0--0--0-16-16--0--0--0--0--0--0-16-16--0--0------------------------------------|
B |-17-17-17-17-17-17-17-17-17-17-17-17-17-17-17-17------------------------------------|
G |-16-16-16-16-16-16-16-16-16-16-16-16-16-16-16-16------------------------------------|
D |------------------------------------------------------------------------------------|
A |------------------------------------------------------------------------------------|
E |------------------------------------------------------------------------------------|


        - [MATTHEW]

                                repick note¬
e |------------------------------------------------------------------------------------|
B |------------------------------------------------------------------------------------|
G |-6-6-6-6-6-6-6-6\4/6-6-6-6-6-6-6-6-b(9)-r6-6-6-6-6-6-6\4/6-6-6-6\4/6-6-6-6----------|
D |------------------------------------------------------------------------------------|
A |------------------------------------------------------------------------------------|
E |------------------------------------------------------------------------------------|



[VERSE 1] - [CALEB CONTINUES MAIN PART]

          - [MATTHEW] @ 00:16

e |------------------------------------------------------------------------------------|
B |-------------------------2--------------------------------------------------------2-|
G |-------------------------2--------------------------------------------------------2-|
D |-------------------------2--------------------------------------------------------2-|
A |-0------------0-------------------------------------------0------------0------------|
E |------0-2-0-2------0-2-0---------------------------------------0-2-0-2------0-2-0---|

   ------------------------------------------------------------------------------------|
   -------------------------2----------------------------------------------------------|
   -------------------------2----------------------------------------------------------|
   -------------------------2----------------------------------------------------------|
   -0------------0-----------------------------------------0------------0--------------|
   ------0-2-0-2------0-2-0-------------------------------------0-2-0-2------0-2-0-2-/-|



[CHORUS] - [CALEB CONTINUES MAIN PART]

         - [MATTHEW]

   C#m              D                       A
e |------------------------------------------------------------------------------------
B |------------------------------------------------------------------------------------
G |-----------------------------------------9-9-9-9-9-9-9-9-9-9-9-9-9-9-9-9------------
D |-----------------------------------------7-7-7-7-7-7-7-7-7-7-7-7-7-7-7-7------------
A |-----------------------------------------0-0-0-0-0-0-0-0-0-0-0-0-0-0-0-0------------
E |-9-9-9-9-9-9-9-9-10-10-10-10-10-10-10-10--------------------------------------------

   C#m              D                       A
   ------------------------------------------------------------------------------------|
   ------------------------------------------------------------------------------------|
   -----------------------------------------9-9-9-9-9-9-9-9-9-9-9-9-9-9-9-9------------|
   -----------------------------------------7-7-7-7-7-7-7-7-7-7-7-7-7-7-7-7------------|
   -----------------------------------------0-0-0-0-0-0-0-0-0-0-0-0-0-0-0-0------------|
   -9-9-9-9-9-9-9-9-10-10-10-10-10-10-10-10--------------------------------------------|



[LINK] - [CALEB CONTINUES MAIN PART]

       - [MATTHEW]

e |------------------------------------------------------------------------------------|
B |------------------------------------------------------------------------------------|
G |-6-6-6-6-6-6-6-6\4/6-6-6-6-6-6-b(9)-r6----------------------------------------------|
D |------------------------------------------------------------------------------------|
A |------------------------------------------------------------------------------------|
E |------------------------------------------------------------------------------------|



[VERSE 2] - [CALEB CONTINUES MAIN PART]

          - [MATTHEW] @ 00:57

e |------------------------------------------------------------------------------------
B |---------------------------------------------------2--------------------------------
G |---------------------------------------------------2--------------------------------
D |---------------------------------------------------2--------------------------------
A |-0------------0------------0------------0-------------------------------------------
E |------0-2-0-2------0-2-0-2------0-2-0-2------0-2-0----------------------------------

   ------------------------------------------------------------------------------------
   ---------------------------------------------------2--------------------------------
   ---------------------------------------------------2--------------------------------
   ---------------------------------------------------2--------------------------------
   -0------------0------------0------------0-------------------------------------------
   ------0-2-0-2------0-2-0-2------0-2-0-2------0-2-0----------------------------------

   ------------------------------------------------------------------------------------
   ---------------------------------------------------2--------------------------------
   ---------------------------------------------------2--------------------------------
   ---------------------------------------------------2--------------------------------
   -0------------0------------0------------0-------------------------------------------
   ------0-2-0-2------0-2-0-2------0-2-0-2------0-2-0----------------------------------

   ------------------------------------------------------------------------------------|
   ------------------------------------------------------------------------------------|
   ------------------------------------------------------------------------------------|
   ------------------------------------------------------------------------------------|
   -0------------0------------0------------0-------------------------------------------|
   ------0-2-0-2------0-2-0-2------0-2-0-2------0-2-0-2-/------------------------------|



[CHORUS] - [CALEB CONTINUES MAIN PART]

         - [MATTHEW]

   C#m              D                       A
e |------------------------------------------------------------------------------------
B |------------------------------------------------------------------------------------
G |-----------------------------------------9-9-9-9-9-9-9-9-9-9-9-9-9-9-9-9------------
D |-----------------------------------------7-7-7-7-7-7-7-7-7-7-7-7-7-7-7-7------------
A |-----------------------------------------0-0-0-0-0-0-0-0-0-0-0-0-0-0-0-0------------
E |-9-9-9-9-9-9-9-9-10-10-10-10-10-10-10-10--------------------------------------------

   C#m              D                       A
   ------------------------------------------------------------------------------------|
   ------------------------------------------------------------------------------------|
   -----------------------------------------9-9-9-9-9-9-9-9-9-9-9-9-9-9-9-9------------|
   -----------------------------------------7-7-7-7-7-7-7-7-7-7-7-7-7-7-7-7------------|
   -----------------------------------------0-0-0-0-0-0-0-0-0-0-0-0-0-0-0-0------------|
   -9-9-9-9-9-9-9-9-10-10-10-10-10-10-10-10--------------------------------------------|



[SOLO] - [CALEB CONTINUES MAIN PART]

       - [MATTHEW]

e |------------------------------------------------------------------------------------|
B |-12---------12-------12---------12-------12-------12------14-------14------12-------|
G |-14-b(16)--(16)-r14--14-b(16)--(16)-r14--14-b(16)(16)r14--16-b(18)(18)-r16-14-b(16)-|
D |------------------------------------------------------------------------------------|
A |------------------------------------------------------------------------------------|
E |------------------------------------------------------------------------------------|

   ------------------------------------------------------------------------------------
   --12--------------------------------------------------------------------------------
   -(16)-r14-------2-2222-2-2-2-2-4-4444-4-4-4-4-6-6666-6-6-6-6--9-9-9-9-9-9-9-9-9-9-9-
   ----------9-11--0-0000-0-0-0-0-0-0000-0-0-0-0-7-7777-7-7-7-7-1111111111111111111111-
   ----------0--0--0-0000-0-0-0-0-0-0000-0-0-0-0-0-0000-0-0-0-0--0-0-0-0-0-0-0-0-0-0-0-
   ------------------------------------------------------------------------------------

   ------------------------------------------------------------------------------------|
   ------------------------------------------------------------------------------------|
   -1111111111-------------------------------------------------------------------------|
   --0-0-0-0-0-------------------------------------------------------------------------|
   ------------------------------------------------------------------------------------|



[OUTRO] - [CALEB CONTINUES MAIN PART + 4 BARS AFTER MATTHEWS "A" CHORD RINGS OUT AND]
          [ENDS ON A FINAL "E5/B" WHICH HE LETS RING]

        - [MATTHEW]

   C#m              D                       A
e |------------------------------------------------------------------------------------
B |------------------------------------------------------------------------------------
G |-----------------------------------------9-9-9-9-9-9-9-9-9-9-9-9-9-9-9-9------------
D |-----------------------------------------7-7-7-7-7-7-7-7-7-7-7-7-7-7-7-7------------
A |-----------------------------------------0-0-0-0-0-0-0-0-0-0-0-0-0-0-0-0------------
E |-9-9-9-9-9-9-9-9-10-10-10-10-10-10-10-10--------------------------------------------

   C#m              D                       A
   ------------------------------------------------------------------------------------|
   ------------------------------------------------------------------------------------|
   -----------------------------------------9-9-9-9-9-9-9-9-9-9-9-9-9-9-9-9------------|
   -----------------------------------------7-7-7-7-7-7-7-7-7-7-7-7-7-7-7-7------------|
   -----------------------------------------0-0-0-0-0-0-0-0-0-0-0-0-0-0-0-0------------|
   -9-9-9-9-9-9-9-9-10-10-10-10-10-10-10-10--------------------------------------------|

   C#m              D                       A
   ------------------------------------------------------------------------------------|
   ------------------------------------------------------------------------------------|
   -----------------------------------------9-9-9-9-9-9-9-9-9-9-9-9-9-9-9-9------------|
   -----------------------------------------7-7-7-7-7-7-7-7-7-7-7-7-7-7-7-7------------|
   -----------------------------------------0-0-0-0-0-0-0-0-0-0-0-0-0-0-0-0------------|
   -9-9-9-9-9-9-9-9-10-10-10-10-10-10-10-10--------------------------------------------|

   C#m              D                       A
   ------------------------------------------------------------------------------------|
   ------------------------------------------------------------------------------------|
   -----------------------------------------9-9-9-9-9-9-9-9-9-9-9-9-9-9-9-9--LET LAST--|
   -----------------------------------------7-7-7-7-7-7-7-7-7-7-7-7-7-7-7-7----CHORD---|
   -----------------------------------------0-0-0-0-0-0-0-0-0-0-0-0-0-0-0-0----RING----|
   -9-9-9-9-9-9-9-9-10-10-10-10-10-10-10-10--------------------------------------------|






****************************************************************************************
****************************************************************************************
****************************************************************************************






Group/Singer Name:      Kings Of Leon
Song:                   "Taper Jean Girl"
Additional Info:        Aha Shake Heartbreak - Track 03
Tuning:                 Standard - [EADGBe]
Tabbed By:              Dean Hill - Comments, Suggestions? the.scotsman@blueyonder.co.uk


[Chords Used]   Emaj/B(XXX[16][17][16]; (E)(022100); (A)(577655); E11(000100) + SEE TAB


[Intro]         |DRUMS           |DRUMS           |DRUMS/BELLS     |DRUMS/BELLS     |
                |DRUMS/BELLS/BASS|DRUMS/BELLS/BASS|DRUMS/BELLS/BASS|DRUMS/BELLS/BASS|

                [THE NOTES IN BRACKETS REPRESENT THE IMPLIED NOTES TAKEN FROM THE BASS PART]
                [CALEB PLAYS THE "Emaj7/B" PARTS]

                (E)              (E)              (A)              (A)
                |Emaj7/B         |Emaj7/B         |Emaj7/B         |Emaj7/B         |
                (E)              (E)              (A)              (A)
                |Emaj7/B         |Emaj7/B         |Emaj7/B         |Emaj7/B         |


[Verse 1]       E          A                                    E
                Aha, Shake,  Taper jean girl, with a motel face,
                           A                                  E
                Aha, Shake,  Bury your eyes, in a secret place,
                           A
                Aha, Shake,  Black as night, on a Sunday.


[Bridge]        Cunts watch their bodies, no room for make up,
                I think he's tasted, tasted the wa-tcher.


[Link]          [THE NOTES IN BRACKETS REPRESENT THE IMPLIED NOTES TAKEN FROM THE BASS PART]
                [CALEB PLAYS THE "Emaj7/B" PARTS]
                
                (E)              (E)              (A)              (A)
                |Emaj7/B         |Emaj7/B         |Emaj7/B         |Emaj7/B         |


[Verse 2]       E                 A                                       E
                Har-hart, brea-eak,   knockin' 'em down like the 7th grade,
                                  A                                             E
                Har-hart, brea-eak,   cigarettes and songs, with a winters chafe,
                                  A
                Har-hart, brea-eak,   keep like my daugh-ter, and a run away.


[Bridge]        Cunts watch their bodies, no room for make up,
                I think he's tasted, tasted the wa-tcher.
                
                
[Link]          [THE NOTES IN BRACKETS REPRESENT THE IMPLIED NOTES TAKEN FROM THE BASS PART]
                [CALEB PLAYS THE "Emaj7/B" PARTS]
                
                (E)              (E)              (A)              (A)
                |Emaj7/B         |Emaj7/B         |Emaj7/B         |Emaj7/B         |
                (E)              (E)              (A)              (A)
                |Emaj7/B         |Emaj7/B         |Emaj7/B         |Emaj7/B         |


[Verse 3]      (E)       (A)
                Aha, Shake,   Tapered jean girl kills me.


[Bridge]        Cunts watch their bodies, no room for make up,
                I think he's tasted, tasted the wa-tcher.


[Link]          |E   E11 E    E11|E   E11 E    E11|E   E11 E    E11|E   E11 E    E11|


[Outro]         [KEEP PLAYING THE..."E, E11" PART THROUGH OUTRO]
                
                An' then a shake, shake breakdown pumpin' her heart,
                An' then a people, people, people waving in the dark,
                An' then a people, people, people pumpin' her heart,
                An' then a shake, shake breakdown waving in the dark.






            ***************************************
            *KINGS OF LEON - TAPER JEAN GIRL - TAB*
            ***************************************



b  -  Bend
sb -  Slow Bend
() -  Bracketed numbers are the note you bend up to
h  -  Hammer On
p  -  Pull Off
r  -  Return
/  -  Slide Up
\  -  Slide Down
d  -  Strum Down
u  -  Strum Up
PM -  Palm Mute
<> -  Natural Harmonics
^  -  Vibrato






[INTRO] - [CALEB] @ 00:15


e |-16--1616--16--161616-|           |-16-|
B |-17--1717--17--171717-|           |-17-|
G |-16--1616--16--161616-|           |-16-|
D |----------------------|           |----|
A |--PLAY THIS PART x8---| THEN PLAY |----|
E |----------------------|           |----|


        - [MATHEW] @ 00:15

e |------------------------------------------------------------------------------------
B |------------------------------------------------------------------------------------
G |------------------------------------------------------------------------------------
D |------------------------------------------------------------------------------------
A |-7----9---11---111111-11--7----9---11---111111-11-----------------------------------
E |-0--0-0-0--0----0-0-0--0--0--0-0-0--0----0-0-0--0-----------------------------------

   ------------------------------------------------------------------------------------
   ------------------------------------------------------------------------------------
   ------------------------------------------------------------------------------------
   -11---9---11---111111-11--11---9---11---111111-11-----------------------------------
   --0-0-0-0--0----0-0-0--0---0-0-0-0--0----0-0-0--0-----------------------------------
   ------------------------------------------------------------------------------------

   ------------------------------------------------------------------------------------
   ------------------------------------------------------------------------------------
   ------------------------------------------------------------------------------------
   ------------------------------------------------------------------------------------
   -7----9---11---111111-11--7----9---11---111111-11-----------------------------------
   -0--0-0-0--0----0-0-0--0--0--0-0-0--0----0-0-0--0-----------------------------------

   ------------------------------------------------------------------------------------|
   ------------------------------------------------------------------------------------|
   ------------------------------------------------------------------------------------|
   -11---9---11---111111-11--11---9---11---111111-11-----------------------------------|
   --0-0-0-0--0----0-0-0--0---0-0-0-0--0----0-0-0--0-----------------------------------|
   ------------------------------------------------------------------------------------|



[VERSE 1] - [CALEB]

...with a motel face,                   ...in a secret place,
e |-----------------16--------------------------------------16--1616--16--161616-------
B |-----------------17--------------------------------------17--1717--17--171717-------
G |-----------------16--------------------------------------16--1616--16--161616-------
D |------------------------------------------------------------------------------------
A |------------------------------------------------------------------------------------
E |------------------------------------------------------------------------------------

   -16--1616--16--161616-16--1616--16--161616-16--1616--16--1616-----------------------|
   -17--1717--17--171717-17--1717--17--171717-17--1717--17--1717-----------------------|
   -16--1616--16--161616-16--1616--16--161616-16--1616--16--1616-----------------------|
   ------------------------------------------------------------------------------------|
   ------------------------------------------------------------------------------------|
   ------------------------------------------------------------------------------------|


        - [MATHEW]

e |------------------------------------------------------------------------------------
B |------------------------------------------------------------------------------------
G |------------------------------------------------------------------------------------
D |------------------------------------------------------------------------------------
A |-7----9---11---111111-11--7----9---11---111111-11-----------------------------------
E |-0--0-0-0--0----0-0-0--0--0--0-0-0--0----0-0-0--0-----------------------------------

   ------------------------------------------------------------------------------------
   ------------------------------------------------------------------------------------
   ------------------------------------------------------------------------------------
   -11---9---11---111111-11--11---9---11---111111-11-----------------------------------
   --0-0-0-0--0----0-0-0--0---0-0-0-0--0----0-0-0--0-----------------------------------
   ------------------------------------------------------------------------------------

   ------------------------------------------------------------------------------------
   ------------------------------------------------------------------------------------
   ------------------------------------------------------------------------------------
   ------------------------------------------------------------------------------------
   -7----9---11---111111-11--7----9---11---111111-11-----------------------------------
   -0--0-0-0--0----0-0-0--0--0--0-0-0--0----0-0-0--0-----------------------------------

   ------------------------------------------------------------------------------------
   ------------------------------------------------------------------------------------
   ------------------------------------------------------------------------------------
   -11---9---11---111111-11--11---9---11---111111-11-----------------------------------
   --0-0-0-0--0----0-0-0--0---0-0-0-0--0----0-0-0--0-----------------------------------
   ------------------------------------------------------------------------------------

   ------------------------------------------------------------------------------------
   ------------------------------------------------------------------------------------
   ------------------------------------------------------------------------------------
   ------------------------------------------------------------------------------------
   -7----9---11---111111-11--7----9---12---111111-11-----------------------------------
   -0--0-0-0--0----0-0-0--0--0--0-0-0--0----0-0-0--0-----------------------------------

   ------------------------------------------------------------------------------------|
   ------------------------------------------------------------------------------------|
   ------------------------------------------------------------------------------------|
   -11---9---11---111111-11---9h11-9h11-9----------------------------------------------|
   --0-0-0-0--0----0-0-0--0---0----0----0----------------------------------------------|
   ------------------------------------------------------------------------------------|



[BRIDGE] - [CALEB DOESN'T PLAY]

         - [MATTHEW]

e |------------------------------------------------------------------------------------|
B |------------------------------------------------------------------------------------|
G |------------------------------------------------------------------------------------|
D |-9-9-99-7---------------9-9-99-7----------------9-9-99-7-------------------9-9-99-7-|
A |-7-7-77-5---------------7-7-77-5----------------7-7-77-5-------------------7-7-77-5-|
E |-0-0-00-0---------------0-0-00-0----------------0-0-00-0-------------------0-0-00-0-|
           ^
LET THIS   |
RING EACH  |
TIME-------|



[LINK] - [CALEB] @ 01:09


e |-16--1616--16--161616-|           |-16----------|
B |-17--1717--17--171717-|           |-17-LET RING-|
G |-16--1616--16--161616-|           |-16----------|
D |----------------------|           |-------------|
A |--PLAY THIS PART x4---| THEN PLAY |-------------|
E |----------------------|           |-------------|


        - [MATHEW] @ 01:09

e |------------------------------------------------------------------------------------
B |------------------------------------------------------------------------------------
G |------------------------------------------------------------------------------------
D |------------------------------------------------------------------------------------
A |-7----9---11---111111-11--7----9---11---111111-11-----------------------------------
E |-0--0-0-0--0----0-0-0--0--0--0-0-0--0----0-0-0--0-----------------------------------

   ------------------------------------------------------------------------------------|
   ------------------------------------------------------------------------------------|
   ------------------------------------------------------------------------------------|
   -11---9---11---111111-11--11---9---11---111111-11-----------------------------------|
   --0-0-0-0--0----0-0-0--0---0-0-0-0--0----0-0-0--0-----------------------------------|
   ------------------------------------------------------------------------------------|



[VERSE 2] - [CALEB]

...Har-hart, brea-eak,                  ...like the seventh grade,
e |-----------------16------------------------------------------16---------------------
B |-----------------17------------------------------------------17---------------------
G |-----------------16------------------------------------------16---------------------
D |------------------------------------------------------------------------------------
A |------------------------------------------------------------------------------------
E |------------------------------------------------------------------------------------

...Har-hart, brea-eak,                  ...with a winters chafe,
e |-----------------16----------------------------------------16--1616--16--161616-----
B |-----------------17----------------------------------------17--1717--17--171717-----
G |-----------------16----------------------------------------16--1616--16--161616-----
D |------------------------------------------------------------------------------------
A |------------------------------------------------------------------------------------
E |------------------------------------------------------------------------------------

   -16--1616--16--161616-16--1616--16--161616-16--1616--16--1616-----------------------|
   -17--1717--17--171717-17--1717--17--171717-17--1717--17--1717-----------------------|
   -16--1616--16--161616-16--1616--16--161616-16--1616--16--1616-----------------------|
   ------------------------------------------------------------------------------------|
   ------------------------------------------------------------------------------------|
   ------------------------------------------------------------------------------------|


        - [MATHEW]

e |------------------------------------------------------------------------------------
B |------------------------------------------------------------------------------------
G |------------------------------------------------------------------------------------
D |------------------------------------------------------------------------------------
A |-7----9---11---111111-11--7----9---11---111111-11-----------------------------------
E |-0--0-0-0--0----0-0-0--0--0--0-0-0--0----0-0-0--0-----------------------------------

   ------------------------------------------------------------------------------------
   ------------------------------------------------------------------------------------
   ------------------------------------------------------------------------------------
   -11---9---11---111111-11--11---9---11---111111-11-----------------------------------
   --0-0-0-0--0----0-0-0--0---0-0-0-0--0----0-0-0--0-----------------------------------
   ------------------------------------------------------------------------------------

   ------------------------------------------------------------------------------------
   ------------------------------------------------------------------------------------
   ------------------------------------------------------------------------------------
   ------------------------------------------------------------------------------------
   -7----9---11---111111-11--7----9---11---111111-11-----------------------------------
   -0--0-0-0--0----0-0-0--0--0--0-0-0--0----0-0-0--0-----------------------------------

   ------------------------------------------------------------------------------------
   ------------------------------------------------------------------------------------
   ------------------------------------------------------------------------------------
   -11---9---11---111111-11--11---9---11---111111-11-----------------------------------
   --0-0-0-0--0----0-0-0--0---0-0-0-0--0----0-0-0--0-----------------------------------
   ------------------------------------------------------------------------------------

   ------------------------------------------------------------------------------------
   ------------------------------------------------------------------------------------
   ------------------------------------------------------------------------------------
   ------------------------------------------------------------------------------------
   -7----9---11---111111-11--7----9---12---111111-11-----------------------------------
   -0--0-0-0--0----0-0-0--0--0--0-0-0--0----0-0-0--0-----------------------------------

   ------------------------------------------------------------------------------------|
   ------------------------------------------------------------------------------------|
   ------------------------------------------------------------------------------------|
   -11---9---11---111111-11---9h11-9h11-9----------------------------------------------|
   --0-0-0-0--0----0-0-0--0---0----0----0----------------------------------------------|
   ------------------------------------------------------------------------------------|



[BRIDGE] - [CALEB DOESN'T PLAY]

         - [MATTHEW]

e |------------------------------------------------------------------------------------|
B |------------------------------------------------------------------------------------|
G |------------------------------------------------------------------------------------|
D |-9-9-9--7---------------9-9-9--7----------------9-9-9--7-------------------9-9-9--7-|
A |-7-7-7--5---------------7-7-7--5----------------7-7-7--5-------------------7-7-7--5-|
E |-0-0-0--0---------------0-0-0--0----------------0-0-0--0-------------------0-0-0--0-|
           ^
LET THIS   |
RING EACH  |
TIME-------|



[LINK] - [CALEB] @ 01:56

e |-16--1616--16--161616-|
B |-17--1717--17--171717-|
G |-16--1616--16--161616-|
D |----------------------|
A |--PLAY THIS PART x8---|
E |----------------------|


       - [MATTHEW]

e |-12----------------12----------------12-------------12------------------------------
B |----14----------------14----------------14-------------14---------------------------
G |--------13-\11--9---------13-\11--9---------13-\11---------13-\11--9----------------
D |------------------------------------------------------------------------------------
A |------------------------------------------------------------------------------------
E |------------------------------------------------------------------------------------

   -12----------------12----------------12-------------12------------------------------|
   ----14----------------14----------------14-------------14---------------------------|
   --------13-\11--9---------13-\11--9---------13-\11---------13-\11--9----------------|
   ------------------------------------------------------------------------------------|
   ------------------------------------------------------------------------------------|
   ------------------------------------------------------------------------------------|



[VERSE 3] - [CALEB]

e |-16--1616--16--161616-|
B |-17--1717--17--171717-|
G |-16--1616--16--161616-|
D |----------------------|
A |--PLAY THIS PART x4---|
E |----------------------|


          - [MATTHEW]

e |-12----------------12----------------12-------------12------------------------------|
B |----14----------------14----------------14-------------14---------------------------|
G |--------13-\11--9---------13-\11--9---------13-\11---------13-\11--9----------------|
D |------------------------------------------------------------------------------------|
A |------------------------------------------------------------------------------------|
E |------------------------------------------------------------------------------------|



[BRIDGE] - [CALEB DOESN'T PLAY]

         - [MATTHEW]

e |------------------------------------------------------------------------------------|
B |------------------------------------------------------------------------------------|
G |------------------------------------------------------------------------------------|
D |-9-9-99-7---------------9-9-99-7----------------9-9-9--7-------------------9-9-9--7-|
A |-7-7-77-5---------------7-7-77-5----------------7-7-7--5-------------------7-7-7--5-|
E |-0-0-00-0---------------0-0-00-0----------------0-0-0--0-------------------0-0-0--0-|
           ^
LET THIS   |
RING EACH  |
TIME-------|



[LINK] - [CALEB]

    E    E11 E     E11  E    E11 E     E11  E    E11 E     E11  E    E11 E     E11
e |-0-00-000-0--000000--0-00-000-0--000000--0-00-000-0--000000--0-00-000-0--000000-----|
B |-0-00-000-0--000000--0-00-000-0--000000--0-00-000-0--000000--0-00-000-0--000000-----|
G |-1-11-111-1--111111--1-11-111-1--111111--1-11-111-1--111111--1-11-111-1--111111-----|
D |-2-22-000-2--222000--2-22-000-2--222000--2-22-000-2--222000--2-22-000-2--222000-----|
A |-2-22-000-2--222000--2-22-000-2--222000--2-22-000-2--222000--2-22-000-2--222000-----|
E |-0-00-000-0--000000--0-00-000-0--000000--0-00-000-0--000000--0-00-000-0--000000-----|


       - [MATTHEW]

e |------------------------------------------------------------------------------------|
B |------------------------------------------------------------------------------------|
G |------------------------------------------------------------------------------------|
D |------------------------------------------------------------------------------------|
A |-7-75-55-7-77-5-555--7-75-55-7-77-5-555--7-75-55-7-77-5-555--7-75-55-7-77-5-555-----|
E |-0-00-00-0-00-0-000--0-00-00-0-00-0-000--0-00-00-0-00-0-000--0-00-00-0-00-0-000-----|



[OUTRO] - [CALEB]

    E    E11 E     E11  E    E11 E     E11  E    E11 E     E11  E    E11 E     E11
e |-0-00-000-0--000000--0-00-000-0--000000--0-00-000-0--000000--0-00-000-0--000000-----
B |-0-00-000-0--000000--0-00-000-0--000000--0-00-000-0--000000--0-00-000-0--000000-----
G |-1-11-111-1--111111--1-11-111-1--111111--1-11-111-1--111111--1-11-111-1--111111-----
D |-2-22-000-2--222000--2-22-000-2--222000--2-22-000-2--222000--2-22-000-2--222000-----
A |-2-22-000-2--222000--2-22-000-2--222000--2-22-000-2--222000--2-22-000-2--222000-----
E |-0-00-000-0--000000--0-00-000-0--000000--0-00-000-0--000000--0-00-000-0--000000-----

    E    E11 E     E11  E    E11 E     E11  E    E11 E     E11  E
   -0-00-000-0--000000--0-00-000-0--000000--0-00-000-0--000000--0----------------------|
   -0-00-000-0--000000--0-00-000-0--000000--0-00-000-0--000000--0----------------------|
   -1-11-111-1--111111--1-11-111-1--111111--1-11-111-1--111111--1--LET CHORD RING------|
   -2-22-000-2--222000--2-22-000-2--222000--2-22-000-2--222000--2----------------------|
   -2-22-000-2--222000--2-22-000-2--222000--2-22-000-2--222000--2----------------------|
   -0-00-000-0--000000--0-00-000-0--000000--0-00-000-0--000000--0----------------------|


        - [MATTHEW]

e |------------------------------------------------------------------------------------
B |------------------------------------------------------------------------------------
G |------------------------------------------------------------------------------------
D |------------------------------------------------------------------------------------
A |-7-75-55-7-77-5-555--7-75-55-7-77-5-555--7-75-55-7-77-5-555--7-75-55-7-77-5-555-----
E |-0-00-00-0-00-0-000--0-00-00-0-00-0-000--0-00-00-0-00-0-000--0-00-00-0-00-0-000-----

   ------------------------------------------------------------------------------------|
   ------------------------------------------------------------------------------------|
   ------------------------------------------------------------------------------------|
   ------------------------------------------------------------------------------------|
   -7-75-55-7-77-5-555--7-75-55-7-77-5-555--7-75-55-7-77-5-555--7--LET RING------------|
   -0-00-00-0-00-0-000--0-00-00-0-00-0-000--0-00-00-0-00-0-000--0----------------------|






****************************************************************************************
****************************************************************************************
****************************************************************************************






Group/Singer Name:      Kings Of Leon
Song:                   "Pistol Of Fire"
Additional Info:        Aha Shake Heartbreak - Track 04
Tuning:                 Standard - [EADGBe]
Tabbed By:              Dean Hill - Comments, Suggestions? the.scotsman@blueyonder.co.uk


[Chords Used]   E([12][14][14][13][12][12]); A(577655); G(355433); C#(9[11][11][10]99)
                F#(244322); E*(022100) + SEE TAB


[Intro]         |BASS/DRUMS       |BASS/DRUMS       |BASS/DRUMS       |DRUMS            |
                
                | 1 & 2 & 3 & 4 & | 1 & 2 & 3 & 4 & | 1 & 2 & 3 & 4 & | 1 & 2 & 3 & 4 & |
                |-----------------|-----------------|-----------------|-----------------|
                | E               |   A       G     | E               |   A       G     |
                | E               |   A       G     | E               |   A       G     |


[Verse 1]------(AS ABOVE CHORDS + RHYTHM)

                Pistol of fire, pistol of fire,
                Pistol of fire, shattered the frame.
                Go hug your sister, go love your sister,
                Go hug your sister, one in the same.


[Bridge]------(AS ABOVE CHORDS + RHYTHM)
        
                Aiyah, where is it you want to take me?
                Aiyah, where is it you want to go?
                Aiyah, wrapping up the morning's coming,
                Aiyah, home before the rooster crows.


[Link]          | 1 & 2 & 3 & 4 & | 1 & 2 & 3 & 4 & | 1 & 2 & 3 & 4 & | 1 & 2 & 3 & 4 & |
                |-----------------|-----------------|-----------------|-----------------|
                | E               |   A       G     | E               |   A       G     |
                | E               |   A       G     | E               |   A       G     |


[Verse 2]------(AS ABOVE CHORDS + RHYTHM)

                I feel the water, out in the cool grass,
                Down in the meadow, under the tree.
                It's gonna tickle, you're gonna giggle,
                It's gonna tickle, tickle for free.


[Bridge]------(AS ABOVE CHORDS + RHYTHM)
        
                Aiyah, where is it you want to take me?
                Aiyah, where is it you want to go?
                Aiyah, wrapping up the morning's coming,
                Aiyah, home before the rooster crows.


[Link]          | 1 & 2 & 3 & 4 & | 1 & 2 & 3 & 4 & | 1 & 2 & 3 & 4 & | 1 & 2 & 3 & 4 & |
                |-----------------|-----------------|-----------------|-----------------|
                | E               |   A       G     | E               |   A       G     |
                | E               |   A       G     | E               |   A       G     |


[Solo]          | C#              | F#      E*      | C#              | F#      E*      |
                | C#              | F#      E*      | C#              | F#      E*      |


[Outro]         | 1 & 2 & 3 & 4 & | 1 & 2 & 3 & 4 & | 1 & 2 & 3 & 4 & | 1 & 2 & 3 & 4 & |
                |-----------------|-----------------|-----------------|-----------------|
                | E               |   A       G     | E               |   A       G     |
                | E               |   A       G     | E               |   A       G     |
                | E               |






            **************************************
            *KINGS OF LEON - PISTOL OF FIRE - TAB*
            **************************************



b  -  Bend
sb -  Slow Bend
() -  Bracketed numbers are the note you bend up to
h  -  Hammer On
p  -  Pull Off
r  -  Return
/  -  Slide Up
\  -  Slide Down
d  -  Strum Down
u  -  Strum Up
PM -  Palm Mute
<> -  Natural Harmonics
^  -  Vibrato






[INTRO] - [CALEB]

      E                 A       G       E                 A       G
e |------------------------------------------------------------------------------------
B |------------------------------------------------------------------------------------
G |------------------------------------------------------------------------------------
D |---14--14--14--14----7--7----3--3----14--14--14--14----7--7----5--------------------
A |---14--14--14--14----7--7----3--3----14--14--14--14----7--7----5--------------------
E |-0-12--12--12--12--0-5--5--0-5--5--0-12--12--12--12--0-5--5--0-3--------------------

      E                 A       G       E                 A       G
   ------------------------------------------------------------------------------------|
   ------------------------------------------------------------------------------------|
   ------------------------------------------------------------------------------------|
   ---14--14--14--14----7--7----3--3----14--14--14--14----7--7----5--------------------|
   ---14--14--14--14----7--7----3--3----14--14--14--14----7--7----5--------------------|
   -0-12--12--12--12--0-5--5--0-5--5--0-12--12--12--12--0-5--5--0-3--------------------|


        - [MATTHEW] @ 00:15

PM----------------------------------------------------------------¬
      E                   A       G       E                   A       G
e |------------------------------------------------------------------------------------|
B |-------------------------------------------------------------------3----------------|
G |-------------------------------------------------------------------4----------------|
D |---14---14---14---14---7---7---3---3---14---14---14---14---7---7---5----------------|
A |---14---14---14---14---7---7---3---3---14---14---14---14---7---7---5----------------|
E |-0-12-0-12-0-12-0-12-0-5-0-5-0-5-0-5-0-12-0-12-0-12-0-12-0-5-0-5-0-3----------------|



[VERSE 1] - [CALEB]


      E                 A       G       E                 A       G
e |------------------------------------------------------------------------------------
B |------------------------------------------------------------------------------------
G |------------------------------------------------------------------------------------
D |---14--14--14--14----7--7----3--3----14--14--14--14----7--7----5--------------------
A |---14--14--14--14----7--7----3--3----14--14--14--14----7--7----5--------------------
E |-0-12--12--12--12--0-5--5--0-5--5--0-12--12--12--12--0-5--5--0-3--------------------

      E                 A       G       E                 A       G
   ------------------------------------------------------------------------------------|
   ------------------------------------------------------------------------------------|
   ------------------------------------------------------------------------------------|
   ---14--14--14--14----7--7----3--3----14--14--14--14----7--7----5--------------------|
   ---14--14--14--14----7--7----3--3----14--14--14--14----7--7----5--------------------|
   -0-12--12--12--12--0-5--5--0-5--5--0-12--12--12--12--0-5--5--0-3--------------------|


         - [MATTHEW]

PM------------------------------------------------------------------------¬
      E                   A       G       E                   A       G
e |------------------------------------------------------------------------------------
B |------------------------------------------------------------------------------------
G |------------------------------------------------------------------------------------
D |---14---14---14---14---7---7---3---3---14---14---14---14---7---7---5---5------------
A |---14---14---14---14---7---7---3---3---14---14---14---14---7---7---5---5------------
E |-0-12-0-12-0-12-0-12-0-5-0-5-0-5-0-5-0-12-0-12-0-12-0-12-0-5-0-5-0-3-0-3------------

PM----------------------------------------------------------------¬
      E                   A       G       E                   A       G
   ------------------------------------------------------------------------------------|
   -------------------------------------------------------------------3----------------|
   -------------------------------------------------------------------4----------------|
   ---14---14---14---14---7---7---3---3---14---14---14---14---7---7---5----------------|
   ---14---14---14---14---7---7---3---3---14---14---14---14---7---7---5----------------|
   -0-12-0-12-0-12-0-12-0-5-0-5-0-5-0-5-0-12-0-12-0-12-0-12-0-5-0-5-0-3----------------|



[BRIDGE] - [CALEB]

      E                 A       G       E                 A       G
e |------------------------------------------------------------------------------------
B |------------------------------------------------------------------------------------
G |------------------------------------------------------------------------------------
D |---14--14--14--14----7--7----3--3----14--14--14--14----7--7----5-5------------------
A |---14--14--14--14----7--7----3--3----14--14--14--14----7--7----5-5------------------
E |-0-12--12--12--12--0-5--5--0-5--5--0-12--12--12--12--0-5--5--0-3-3------------------

      E                 A       G       E                 A       G
   ------------------------------------------------------------------------------------|
   ------------------------------------------------------------------------------------|
   ------------------------------------------------------------------------------------|
   ---14--14--14--14----7--7----3--3----14--14--14--14----7--7----5-5------------------|
   ---14--14--14--14----7--7----3--3----14--14--14--14----7--7----5-5------------------|
   -0-12--12--12--12--0-5--5--0-5--5--0-12--12--12--12--0-5--5--0-3-3------------------|


         - [MATTHEW]

PM----------------------------------------------------------------¬
      E                   A       G       E                   A       G
e |-------------------------------------------------------------------3----------------
B |-------------------------------------------------------------------3----------------
G |-------------------------------------------------------------------4----------------
D |---14---14---14---14---7---7---3---3---14---14---14---14---7---7---5----------------
A |---14---14---14---14---7---7---3---3---14---14---14---14---7---7---5----------------
E |-0-12-0-12-0-12-0-12-0-5-0-5-0-5-0-5-0-12-0-12-0-12-0-12-0-5-0-5-0-3----------------

PM----------------------------------------------------------------¬
      E                   A       G       E                   A       G
   ------------------------------------------------------------------------------------|
   ------------------------------------------------------------------------------------|
   ------------------------------------------------------------------------------------|
   ---14---14---14---14---7---7---3---3---14---14---14---14---7---7--------------------|
   ---14---14---14---14---7---7---3---3---14---14---14---14---7---7--------------------|
   -0-12-0-12-0-12-0-12-0-5-0-5-0-5-0-5-0-12-0-12-0-12-0-12-0-5-0-5-0-10b(10.5)--------|



[LINK] - [CALEB]

      E                      A              G
e |------------------------------------------------------------------------------------
B |------------------------------------------------------------------------------------
G |---13---13---13---1313----6--6-6--6-6----4--4-4--4-4--------------------------------
D |---14---14---14---1414----7--7-7--7-7----5--5-5--5-5--------------------------------
A |---14---14---14---1414----7--7-7--7-7----5--5-5--5-5--------------------------------
E |-0-12---12---12---1212----5--5-5--5-5----3--3-3--3-3--------------------------------

      E                      A              G
   ------------------------------------------------------------------------------------
   ------------------------------------------------------------------------------------
   ---13---13---13---1313----6--6-6--6-6----4--4-4--4-4--------------------------------
   ---14---14---14---1414----7--7-7--7-7----5--5-5--5-5--------------------------------
   ---14---14---14---1414----7--7-7--7-7----5--5-5--5-5--------------------------------
   -0-12---12---12---1212----5--5-5--5-5----3--3-3--3-3--------------------------------

      E                      A              G
   ------------------------------------------------------------------------------------
   ------------------------------------------------------------------------------------
   ---13---13---13---1313----6--6-6--6-6----4--4-4--4-4--------------------------------
   ---14---14---14---1414----7--7-7--7-7----5--5-5--5-5--------------------------------
   ---14---14---14---1414----7--7-7--7-7----5--5-5--5-5--------------------------------
   -0-12---12---12---1212----5--5-5--5-5----3--3-3--3-3--------------------------------

      E                      A              G
   ------------------------------------------------------------------------------------|
   ------------------------------------------------------------------------------------|
   ---13---13---13---1313----6--6-6--6-6----4--4-4--4----------------------------------|
   ---14---14---14---1414----7--7-7--7-7----5--5-5--5----------------------------------|
   ---14---14---14---1414----7--7-7--7-7----5--5-5--5----------------------------------|
   -0-12---12---12---1212----5--5-5--5-5----3--3-3--3----------------------------------|


       - [MATTHEW]

e |------------------------------------------------------------------------------------
B |------------------------------------------------------------------------------------
G |------------------------------------------------------------------------------------
D |------------------------------------------------------------------------------------
A |-17-14-10b(11)-----17-14-10b(11)-----17-14-10b(11)----------------------------------
E |---------------12----------------12-------------------------------------------------

   ------------------------------------------------------------------------------------
   ------------------------------------------------------------------------------------
   ------------------------------------------------------------------------------------
   ------------------------------------------------------------------------------------
   -17-14-10b(11)-----17-14-10b(11)-----17-14-10b(11)----------------------------------
   ---------------12----------------12-------------------------------------------------

   ------------------------------------------------------------------------------------
   ------------------------------------------------------------------------------------
   ------------------------------------------------------------------------------------
   ------------------------------------------------------------------------------------
   -17-14-10b(11)-----17-14-10b(11)-----17-14-10b(11)----------------------------------
   ---------------12----------------12-------------------------------------------------

   ------------------------------------------------------------------------------------|
   ------------------------------------------------------------------------------------|
   ------------------------------------------------------------------------------------|
   ------------------------------------------------------------------------------------|
   -17-14-10b(11)-----17-14-10b(11)-----17-14-10b(11)----------------------------------|
   ---------------12----------------12-------------------------------------------------|



[VERSE 2] - [CALEB]


      E                 A       G       E                 A       G
e |------------------------------------------------------------------------------------
B |------------------------------------------------------------------------------------
G |------------------------------------------------------------------------------------
D |---14--14--14--14----7--7----3--3----14--14--14--14----7--7----5--------------------
A |---14--14--14--14----7--7----3--3----14--14--14--14----7--7----5--------------------
E |-0-12--12--12--12--0-5--5--0-5--5--0-12--12--12--12--0-5--5--0-3--------------------

      E                 A       G       E                 A       G
   ------------------------------------------------------------------------------------|
   ------------------------------------------------------------------------------------|
   ------------------------------------------------------------------------------------|
   ---14--14--14--14----7--7----3--3----14--14--14--14----7--7----5--------------------|
   ---14--14--14--14----7--7----3--3----14--14--14--14----7--7----5--------------------|
   -0-12--12--12--12--0-5--5--0-5--5--0-12--12--12--12--0-5--5--0-3--------------------|


         - [MATTHEW]

PM------------------------------------------------------------------------¬
      E                   A       G       E                   A       G
e |------------------------------------------------------------------------------------
B |------------------------------------------------------------------------------------
G |------------------------------------------------------------------------------------
D |---14---14---14---14---7---7---3---3---14---14---14---14---7---7---5---5------------
A |---14---14---14---14---7---7---3---3---14---14---14---14---7---7---5---5------------
E |-0-12-0-12-0-12-0-12-0-5-0-5-0-5-0-5-0-12-0-12-0-12-0-12-0-5-0-5-0-3-0-3------------

PM----------------------------------------------------------------¬
      E                   A       G       E                   A       G
   ------------------------------------------------------------------------------------|
   -------------------------------------------------------------------3----------------|
   -------------------------------------------------------------------4----------------|
   ---14---14---14---14---7---7---3---3---14---14---14---14---7---7---5----------------|
   ---14---14---14---14---7---7---3---3---14---14---14---14---7---7---5----------------|
   -0-12-0-12-0-12-0-12-0-5-0-5-0-5-0-5-0-12-0-12-0-12-0-12-0-5-0-5-0-3----------------|



[BRIDGE] - [CALEB]

      E                 A       G       E                 A       G
e |------------------------------------------------------------------------------------
B |------------------------------------------------------------------------------------
G |------------------------------------------------------------------------------------
D |---14--14--14--14----7--7----3--3----14--14--14--14----7--7----5-5------------------
A |---14--14--14--14----7--7----3--3----14--14--14--14----7--7----5-5------------------
E |-0-12--12--12--12--0-5--5--0-5--5--0-12--12--12--12--0-5--5--0-3-3------------------

      E                 A       G       E                 A       G
   ------------------------------------------------------------------------------------|
   ------------------------------------------------------------------------------------|
   ------------------------------------------------------------------------------------|
   ---14--14--14--14----7--7----3--3----14--14--14--14----7--7----5-5------------------|
   ---14--14--14--14----7--7----3--3----14--14--14--14----7--7----5-5------------------|
   -0-12--12--12--12--0-5--5--0-5--5--0-12--12--12--12--0-5--5--0-3-3------------------|


         - [MATTHEW]

PM----------------------------------------------------------------¬
      E                   A       G       E                   A       G
e |-------------------------------------------------------------------3----------------
B |-------------------------------------------------------------------3----------------
G |-------------------------------------------------------------------4----------------
D |---14---14---14---14---7---7---3---3---14---14---14---14---7---7---5----------------
A |---14---14---14---14---7---7---3---3---14---14---14---14---7---7---5----------------
E |-0-12-0-12-0-12-0-12-0-5-0-5-0-5-0-5-0-12-0-12-0-12-0-12-0-5-0-5-0-3----------------

PM----------------------------------------------------------------¬
      E                   A       G       E                   A       G
   ------------------------------------------------------------------------------------|
   ------------------------------------------------------------------------------------|
   ------------------------------------------------------------------------------------|
   ---14---14---14---14---7---7---3---3---14---14---14---14---7---7---5----------------|
   ---14---14---14---14---7---7---3---3---14---14---14---14---7---7---5----------------|
   -0-12-0-12-0-12-0-12-0-5-0-5-0-5-0-5-0-12-0-12-0-12-0-12-0-5-0-5-0-3----------------|



[LINK] - [CALEB]

      E                      A              G
e |------------------------------------------------------------------------------------
B |------------------------------------------------------------------------------------
G |---13---13---13---1313----6--6-6--6-6----4--4-4--4-4--------------------------------
D |---14---14---14---1414----7--7-7--7-7----5--5-5--5-5--------------------------------
A |---14---14---14---1414----7--7-7--7-7----5--5-5--5-5--------------------------------
E |-0-12---12---12---1212----5--5-5--5-5----3--3-3--3-3--------------------------------

      E                      A              G
   ------------------------------------------------------------------------------------
   ------------------------------------------------------------------------------------
   ---13---13---13---1313----6--6-6--6-6----4--4-4--4-4--------------------------------
   ---14---14---14---1414----7--7-7--7-7----5--5-5--5-5--------------------------------
   ---14---14---14---1414----7--7-7--7-7----5--5-5--5-5--------------------------------
   -0-12---12---12---1212----5--5-5--5-5----3--3-3--3-3--------------------------------

      E                      A              G
   ------------------------------------------------------------------------------------
   ------------------------------------------------------------------------------------
   ---13---13---13---1313----6--6-6--6-6----4--4-4--4-4--------------------------------
   ---14---14---14---1414----7--7-7--7-7----5--5-5--5-5--------------------------------
   ---14---14---14---1414----7--7-7--7-7----5--5-5--5-5--------------------------------
   -0-12---12---12---1212----5--5-5--5-5----3--3-3--3-3--------------------------------

      E                      A              G
   ------------------------------------------------------------------------------------|
   ------------------------------------------------------------------------------------|
   ---13---13---13---1313----6--6-6--6-6----4--4-4--4----------------------------------|
   ---14---14---14---1414----7--7-7--7-7----5--5-5--5----------------------------------|
   ---14---14---14---1414----7--7-7--7-7----5--5-5--5----------------------------------|
   -0-12---12---12---1212----5--5-5--5-5----3--3-3--3----------------------------------|


       - [MATTHEW]

e |------------------------------------------------------------------------------------
B |------------------------------------------------------------------------------------
G |------------------------------------------------------------------------------------
D |------------------------------------------------------------------------------------
A |-17-14-10b(11)-----17-14-10b(11)-----17-14-10b(11)----------------------------------
E |---------------12----------------12-------------------------------------------------

   ------------------------------------------------------------------------------------
   ------------------------------------------------------------------------------------
   ------------------------------------------------------------------------------------
   ------------------------------------------------------------------------------------
   -17-14-10b(11)-----17-14-10b(11)-----17-14-10b(11)----------------------------------
   ---------------12----------------12-------------------------------------------------

   ------------------------------------------------------------------------------------
   ------------------------------------------------------------------------------------
   ------------------------------------------------------------------------------------
   ------------------------------------------------------------------------------------
   -17-14-10b(11)-----17-14-10b(11)-----17-14-10b(11)----------------------------------
   ---------------12----------------12-------------------------------------------------

   ------------------------------------------------------------------------------------|
   ------------------------------------------------------------------------------------|
   ------------------------------------------------------------------------------------|
   ------------------------------------------------------------------------------------|
   -17-14-10b(11)-----17-14-10b(11)-----17-14-10b(11)----------------------------------|
   ---------------12----------------12-------------------------------------------------|



[SOLO] - [CALEB]

    C#                          F#       E*
e |--9--9----9-9--9---9-9--9-9--2-2---22-0--00-00--------------------------------------
B |--9--9----9-9--9---9-9--9-9--2-2---22-0--00-00--------------------------------------
G |-10-10---1010-10--1010-1010--3-3---33-1--11-11--------------------------------------
D |-11-11---1111-11--1111-1111--4-4---44-2--22-22--------------------------------------
A |-11-11---1111-11--1111-1111--4-4---44-2--22-22--------------------------------------
E |--9--9----9-9--9---9-9--9-9--2-2---22-0--00-00--------------------------------------

    C#                          F#       E*
   --9--9----9-9--9---9-9--9-9--2-2---22-0--00-00--------------------------------------
   --9--9----9-9--9---9-9--9-9--2-2---22-0--00-00--------------------------------------
   -10-10---1010-10--1010-1010--3-3---33-1--11-11--------------------------------------
   -11-11---1111-11--1111-1111--4-4---44-2--22-22--------------------------------------
   -11-11---1111-11--1111-1111--4-4---44-2--22-22--------------------------------------
   --9--9----9-9--9---9-9--9-9--2-2---22-0--00-00--------------------------------------

    C#                          F#       E*
   --9--9----9-9--9---9-9--9-9--2-2---22-0--00-00--------------------------------------
   --9--9----9-9--9---9-9--9-9--2-2---22-0--00-00--------------------------------------
   -10-10---1010-10--1010-1010--3-3---33-1--11-11--------------------------------------
   -11-11---1111-11--1111-1111--4-4---44-2--22-22--------------------------------------
   -11-11---1111-11--1111-1111--4-4---44-2--22-22--------------------------------------
   --9--9----9-9--9---9-9--9-9--2-2---22-0--00-00--------------------------------------

    C#                          F#       E*
   --9--9----9-9--9---9-9--9-9--2-2---22-0--00-00--------------------------------------|
   --9--9----9-9--9---9-9--9-9--2-2---22-0--00-00--------------------------------------|
   -10-10---1010-10--1010-1010--3-3---33-1--11-11--------------------------------------|
   -11-11---1111-11--1111-1111--4-4---44-2--22-22--------------------------------------|
   -11-11---1111-11--1111-1111--4-4---44-2--22-22--------------------------------------|
   --9--9----9-9--9---9-9--9-9--2-2---22-0--00-00--------------------------------------|


       - [MATTHEW]

e |-------------------------------------------------------12------12---12b(14)r12------
B |--------9-------9-------9-------9---------9---121212-------12------------------9----
G |-11b(13)-11b(13)-11b(13)-11b(13)-11b(13)-------------13--13--13--13-----------------
D |------------------------------------------------------------------------------------
A |------------------------------------------------------------------------------------
E |------------------------------------------------------------------------------------

   -----------9\-----------------------------------------------------------------------
   --12sb(14)-------9---9---12--9--9---------------------------------------------------
   --------------------11-9----11--9------9--9-11-9-11b(13)r11p9---9b(10.5)------------
   -----------------------------------9h11-11-------------------11---------------------
   ------------------------------------------------------------------------------------
   ------------------------------------------------------------------------------------

   --------------------------9-12--11-9--12sb(14)--------------------------------------|
   --------9--9--12b(14)-12------------------------------------------------------------|
   -11b(13)----------------------------------------------------------------------------|
   ------------------------------------------------------------------------------------|
   ------------------------------------------------------------------------------------|
   ------------------------------------------------------------------------------------|


[OUTRO] - [CALEB]


      E                 A       G       E                 A       G
e |------------------------------------------------------------------------------------
B |------------------------------------------------------------------------------------
G |------------------------------------------------------------------------------------
D |---14--14--14--14----7--7----3--3----14--14--14--14----7--7----5-5------------------
A |---14--14--14--14----7--7----3--3----14--14--14--14----7--7----5-5------------------
E |---12--12--12--12----5--5----5--5----12--12--12--12----5--5----3-3------------------

      E                 A       G       E
   ------------------------------------------------------------------------------------|
   ------------------------------------------------------------------------------------|
   -----------------------------4----/--13---------------------------------------------|
   ---14--14--14--14----7--7----3----/--14---------------------------------------------|
   ---14--14--14--14----7--7----3----/--14---------------------------------------------|
   ---12--12--12--12----5--5----5----/--12---------------------------------------------|


        - [MATTHEW] @ 02:10

      E                     A         G         E                     A        G    E
e |---------------------------------------------------------------------------------12-|
B |----------------------------------------------------------------------------3--/-12-|
G |----------------------------------------------------------------------------4--/-13-|
D |---14---14---14---14-----7---7-----3---3-----14---14---14---14-----7---7----5--/-14-|
A |---14---14---14---14-----7---7-----3---3-----14---14---14---14-----7---7----5--/-14-|
E |-0-12-0-12-0-12-0-12---0-5-0-5---0-5-0-5---0-12-0-12-0-12-0-12---0-5-0-5-0--3--/-12-|






****************************************************************************************
****************************************************************************************
****************************************************************************************






Group/Singer Name:      Kings Of Leon
Song:                   "Milk"
Additional Info:        Aha Shake Heartbreak - Track 05
Tuning:                 Standard - [EADGBe]
Tabbed By:              Dean Hill - Comments, Suggestions? the.scotsman@blueyonder.co.uk


[Chords Used]   (See TAB)


[Intro]         [KEYBOARD INTRO]
                [ACOUSTIC GUITAR ENTERS]


[Verse 1]       Salty leave, salty leave.
                Tell me the one about the friend you knew,
                And the last good night that we toasted too.
                Salty leave,
                

[Verse 2]       Stay for me, stay for me.
                We drank wine in the matinee,
                And the spotlight showed what I chased away.
                Stay for me.


[Chorus]        She saw my comb over, her hourglass body,
                She has problems with drinking milk and being school tardy,
                She'll loan you her toothbrush, She'll bartend your party.


[Link]          (See TAB)


[VERSE 3]       Kill me, kill me.
                I called and I called, but I can't get through,
                Said he's on his own, but his own is you.
                Kill me.


[Chorus]        She saw my comb over, her hourglass body,
                She has problems with drinking milk and being school tardy,
                She'll loan you her toothbrush, She'll bartend your party.
                
                She saw my comb over, her hourglass body,
                She has problems with drinking milk and being school tardy,
                She'll loan you her toothbrush, She'll bartend your party.
                
                
[Outro]         (See TAB)






            ****************************
            *KINGS OF LEON - MILK - TAB*
            ****************************



b  -  Bend
sb -  Slow Bend
() -  Bracketed numbers are the note you bend up to
h  -  Hammer On
p  -  Pull Off
r  -  Return
/  -  Slide Up
\  -  Slide Down
d  -  Strum Down
u  -  Strum Up
PM -  Palm Mute
<> -  Natural Harmonics
^  -  Vibrato






[INTRO] - @ 00:14 (Acoustic) (* Emphasise these notes)

e |------------------------------------------------------------------------------------
B |------------------------------------------------------------------------------------
G |------------------------------------------------------------------------------------
D |--------------------------------------------4----4----4----4----4----4----4----4----
A |---10---10---10---10---10---10---10---10--------------------------------------------
E |-7----7----7----7----9----9----9----9----5----5----5----5----5----5----5----5-------
    *                   *              *    *

   ------------------------------------------------------------------------------------|
   ------------------------------------------------------------------------------------|
   ------------------------------------------------------------------------------------|
   --------------------------------------------4----4----4----4----4----4----4----4----|
   ---10---10---10---10---10---10---10---10--------------------------------------------|
   -7----7----7----7----9----9----9----9----5----5----5----5----5----5----5----5-------|
    *                   *              *    *



[VERSE 1] - (Acoustic) (* Emphasise these notes)

e |------------------------------------------------------------------------------------
B |------------------------------------------------------------------------------------
G |------------------------------------------------------------------------------------
D |--------------------------------------------4----4----4----4----4----4----4----4----
A |---10---10---10---10---10---10---10---10--------------------------------------------
E |-7----7----7----7----9----9----9----9----5----5----5----5----5----5----5----5-------
    *                   *                   *                                  *

   ------------------------------------------------------------------------------------
   ------------------------------------------------------------------------------------
   ------------------------------------------------------------------------------------
   --------------------------------------------4----4----4----4----4----4----4----4----
   ---10---10---10---10---10---10---10---10--------------------------------------------
   -7----7----7----7----9----9----9----9----5----5----5----5----5----5----5----5-------
    *                   *                   *                                  *

   ------------------------------------------------------------------------------------
   ------------------------------------------------------------------------------------
   ------------------------------------------------------------------------------------
   --------------------------------------------4----4----4----4----4----4----4----4----
   ---10---10---10---10---10---10---10---10--------------------------------------------
   -7----7----7----7----9----9----9----9----5----5----5----5----5----5----5----5-------
    *                   *                   *                                  *

   ------------------------------------------------------------------------------------|
   ------------------------------------------------------------------------------------|
   ------------------------------------------------------------------------------------|
   --------------------------------------------4----4----4----4----4----4----4----4----|
   ---10---10---10---10---10---10---10---10--------------------------------------------|
   -7----7----7----7----9----9----9----9----5----5----5----5----5----5----5----5-------|
    *                   *                   *                                  *



[VERSE 2] - (Acoustic) (* Emphasise these notes)

e |------------------------------------------------------------------------------------
B |------------------------------------------------------------------------------------
G |------------------------------------------------------------------------------------
D |--------------------------------------------4----4----4----4----4----4----4----4----
A |---10---10---10---10---10---10---10---10--------------------------------------------
E |-7----7----7----7----9----9----9----9----5----5----5----5----5----5----5----5-------
    *                   *                   *                                  *

   ------------------------------------------------------------------------------------
   ------------------------------------------------------------------------------------
   ------------------------------------------------------------------------------------
   --------------------------------------------4----4----4----4----4----4----4----4----
   ---10---10---10---10---10---10---10---10--------------------------------------------
   -7----7----7----7----9----9----9----9----5----5----5----5----5----5----5----5-------
    *                   *                   *

   ------------------------------------------------------------------------------------
   ------------------------------------------------------------------------------------
   ------------------------------------------------------------------------------------
   --------------------------------------------4----4----4----4----4----4----4----4----
   ---10---10---10---10---10---10---10---10--------------------------------------------
   -7----7----7----7----9----9----9----9----5----5----5----5----5----5----5----5-------
    *                   *                   *                                  *

   ------------------------------------------------------------------------------------|
   ------------------------------------------------------------------------------------|
   ------------------------------------------------------------------------------------|
   --------------------------------------------4----4----4----4----4----4----4----4----|
   ---10---10---10---10---10---10---10---10--------------------------------------------|
   -7----7----7----7----9----9----9----9----5----5----5----5----5----5----5----5-------|
    *                   *                   *                                  *



[CHORUS] - (Electric) (Heavily Palm Muted)

    G               A                 D
e |------------------------------------------------------------------------------------
B |------------------------------------------------------------------------------------
G |------------------------------------------------------------------------------------
D |------------------------------------------------------------------------------------
A |-5-5-5-5-5-5-5-5-7-7-7-7-7-7-7-7-/-12-12-12-12-12-12-12-12-12-12-12-12-12-12-12-12--
E |-3-3-3-3-3-3-3-3-5-5-5-5-5-5-5-5-/-10-10-10-10-10-10-10-10-10-10-10-10-10-10-10-10--

    G               A
   ------------------------------------------------------------------------------------|
   ------------------------------------------------------------------------------------|
   ------------------------------------------------------------------------------------|
   ------------------------------------------------------------------------------------|
   -5-5-5-5-5-5-5-5/7-7-7-7-7-7-7-7----------------------------------------------------|
   -3-3-3-3-3-3-3-3/5-5-5-5-5-5-5-5----------------------------------------------------|


         - (Acoustic)

    G               A               D
e |------------------------------------------------------------------------------------
B |------------------------------------------------------------------------------------
G |------------------------------------------------------------------------------------
D |------------------------------------------------------------------------------------
A |-5-5-5-5-5-5-5-5-7-7-7-7-7-7-7-7-12-12-12-12-12-12-12-12-12-12-12-12-12-12-12-12----
E |-3-3-3-3-3-3-3-3-5-5-5-5-5-5-5-5-10-10-10-10-10-10-10-10-10-10-10-10-10-10-10-10----

    G               A               Bm
   ------------------------------------------------------------------------------------|
   ------------------------------------------------------------------------------------|
   ------------------------------------------------------------------------------------|
   ------------------------------------------------------------------------------------|
   -5-5-5-5-5-5-5-5-7-7-7-7-7-7-7-7---9---9-----10----9--------------------------------|
   -3-3-3-3-3-3-3-3-5-5-5-5-5-5-5-5-7---7-----7-----7----------------------------------|



[LINK] - (Acoustic) @ 01:48 (* Emphasise these notes)

e |------------------------------------------------------------------------------------
B |------------------------------------------------------------------------------------
G |------------------------------------------------------------------------------------
D |--------------------------------------------4----4----4----4----4----4----4----4----
A |---10---10---10---10---10---10---10---10--------------------------------------------
E |-7----7----7----7----9----9----9----9----5----5----5----5----5----5----5----5-------
    *                   *              *    *

   ------------------------------------------------------------------------------------|
   ------------------------------------------------------------------------------------|
   ------------------------------------------------------------------------------------|
   --------------------------------------------4----4----4----4----4----4----4----4----|
   ---10---10---10---10---10---10---10---10--------------------------------------------|
   -7----7----7----7----9----9----9----9----5----5----5----5----5----5----5----5-------|


       - (Electric) @ 01:48

e |------------------------------------------------------------------------------------|
B |------------------------------------------------------------------------------------|
G |------------------------------------------------------------------------------------|
D |-----------------4----4-------------------------------------------4----4------------|
A |-----5---7-----------------7-5---5--------------------5---7-----------------7-5---5-|
E |-5h7---7-----------------------7------------------5h7---7-----------------------7---|



[VERSE 3] - (Acoustic) (* Emphasise these notes)

e |------------------------------------------------------------------------------------
B |------------------------------------------------------------------------------------
G |------------------------------------------------------------------------------------
D |--------------------------------------------4----4----4----4----4----4----4----4----
A |---10---10---10---10---10---10---10---10--------------------------------------------
E |-7----7----7----7----9----9----9----9----5----5----5----5----5----5----5----5-------
    *                   *                   *                                  *

   ------------------------------------------------------------------------------------
   ------------------------------------------------------------------------------------
   ------------------------------------------------------------------------------------
   --------------------------------------------4----4----4----4----4----4----4----4----
   ---10---10---10---10---10---10---10---10--------------------------------------------
   -7----7----7----7----9----9----9----9----5----5----5----5----5----5----5----5-------
    *                   *                   *                                  *

   ------------------------------------------------------------------------------------
   ------------------------------------------------------------------------------------
   ------------------------------------------------------------------------------------
   --------------------------------------------4----4----4----4----4----4----4----4----
   ---10---10---10---10---10---10---10---10--------------------------------------------
   -7----7----7----7----9----9----9----9----5----5----5----5----5----5----5----5-------
    *                   *                   *                                  *

   ------------------------------------------------------------------------------------|
   ------------------------------------------------------------------------------------|
   ------------------------------------------------------------------------------------|
   --------------------------------------------4----4----4----4----4----4----4----4----|
   ---10---10---10---10---10---10---10---10--------------------------------------------|
   -7----7----7----7----9----9----9----9----5----5----5----5----5----5----5----5-------|
    *                   *                   *                                  *


          - (Electric) @ 02:20 (Palm Muted)

e |------------------------------------------------------------------------------------|
B |------------------------------------------------------------------------------------|
G |-77-7-4-4-7-7-4-7/9-----77-7-4-4-7-7-4-7/11-----------------------------------------|
D |------------------------------------------------------------------------------------|
A |------------------------------------------------------------------------------------|
E |------------------------------------------------------------------------------------|



[CHORUS] - (Electric) (Heavily Palm Muted)

    G               A                 D
e |------------------------------------------------------------------------------------
B |------------------------------------------------------------------------------------
G |------------------------------------------------------------------------------------
D |------------------------------------------------------------------------------------
A |-5-5-5-5-5-5-5-5-7-7-7-7-7-7-7-7-/-12-12-12-12-12-12-12-12-12-12-12-12-12-12-12-12--
E |-3-3-3-3-3-3-3-3-5-5-5-5-5-5-5-5-/-10-10-10-10-10-10-10-10-10-10-10-10-10-10-10-10--

    G               A                 D
   ------------------------------------------------------------------------------------
   ------------------------------------------------------------------------------------
   ------------------------------------------------------------------------------------
   ------------------------------------------------------------------------------------
   -5-5-5-5-5-5-5-5-7-7-7-7-7-7-7-7-/-12-12-12-12-12-12-12-12-12-12-12-12-12-12-12-12--
   -3-3-3-3-3-3-3-3-5-5-5-5-5-5-5-5-/-10-10-10-10-10-10-10-10-10-10-10-10-10-10-10-10--

    G               A                 D
   ------------------------------------------------------------------------------------
   ------------------------------------------------------------------------------------
   ------------------------------------------------------------------------------------
   ------------------------------------------------------------------------------------
   -5-5-5-5-5-5-5-5-7-7-7-7-7-7-7-7-/-12-12-12-12-12-12-12-12-12-12-12-12-12-12-12-12--
   -3-3-3-3-3-3-3-3-5-5-5-5-5-5-5-5-/-10-10-10-10-10-10-10-10-10-10-10-10-10-10-10-10--

    G               D                 D
   ------------------------------------------------------------------------------------|
   ------------------------------------------------------------------------------------|
   ------------------------------------------------------------------------------------|
   ------------------------------------------------------------------------------------|
   -5-5-5-5-5-5-5-5-7-7-7-7-7-7-7-7-/-12-----------------------------------------------|
   -3-3-3-3-3-3-3-3-5-5-5-5-5-5-5-5-/-10-----------------------------------------------|


         - (Acoustic)

    G               A               D
e |------------------------------------------------------------------------------------
B |------------------------------------------------------------------------------------
G |------------------------------------------------------------------------------------
D |------------------------------------------------------------------------------------
A |-5-5-5-5-5-5-5-5-7-7-7-7-7-7-7-7-12-12-12-12-12-12-12-12-12-12-12-12-12-12-12-12----
E |-3-3-3-3-3-3-3-3-5-5-5-5-5-5-5-5-10-10-10-10-10-10-10-10-10-10-10-10-10-10-10-10----

    G               A               D
   ------------------------------------------------------------------------------------
   ------------------------------------------------------------------------------------
   ------------------------------------------------------------------------------------
   ------------------------------------------------------------------------------------
   -5-5-5-5-5-5-5-5-7-7-7-7-7-7-7-7-12-12-12-12-12-12-12-12-12-12-12-12-12-12-12-12----
   -3-3-3-3-3-3-3-3-5-5-5-5-5-5-5-5-10-10-10-10-10-10-10-10-10-10-10-10-10-10-10-10----

    G               A               D
   ------------------------------------------------------------------------------------
   ------------------------------------------------------------------------------------
   ------------------------------------------------------------------------------------
   ------------------------------------------------------------------------------------
   -5-5-5-5-5-5-5-5-7-7-7-7-7-7-7-7-12-12-12-12-12-12-12-12-12-12-12-12-12-12-12-12----
   -3-3-3-3-3-3-3-3-5-5-5-5-5-5-5-5-10-10-10-10-10-10-10-10-10-10-10-10-10-10-10-10----

    G               A               Bm
   ------------------------------------------------------------------------------------|
   ------------------------------------------------------------------------------------|
   ------------------------------------------------------------------------------------|
   ------------------------------------------------------------------------------------|
   -5-5-5-5-5-5-5-5-7-7-7-7-7-7-7-7---9---9-----10----9--------------------------------|
   -3-3-3-3-3-3-3-3-5-5-5-5-5-5-5-5-7---7-----7-----7----------------------------------|



[OUTRO] - (Acoustic) (* Emphasise these notes)

e |------------------------------------------------------------------------------------
B |------------------------------------------------------------------------------------
G |------------------------------------------------------------------------------------
D |--------------------------------------------4----4----4----4----4----4----4----4----
A |---10---10---10---10---10---10---10---10--------------------------------------------
E |-7----7----7----7----9----9----9----9----5----5----5----5----5----5----5----5-------
    *                   *                   *

   ------------------------------------------------------------------------------------
   ------------------------------------------------------------------------------------
   ------------------------------------------------------------------------------------
   --------------------------------------------4----4----4----4----4----4----4----4----
   ---10---10---10---10---10---10---10---10--------------------------------------------
   -7----7----7----7----9----9----9----9----5----5----5----5----5----5----5----5-------
    *                   *                   *

   ------------------------------------------------------------------------------------
   ------------------------------------------------------------------------------------
   ------------------------------------------------------------------------------------
   --------------------------------------------4----4----4----4----4----4----4----4----
   ---10---10---10---10---10---10---10---10--------------------------------------------
   -7----7----7----7----9----9----9----9----5----5----5----5----5----5----5----5-------
    *                   *                   *

   ------------------------------------------------------------------------------------
   ------------------------------------------------------------------------------------
   ------------------------------------------------------------------------------------
   --------------------------------------------4----4----4----4----4----4----4----4----
   ---10---10---10---10---10---10---10---10--------------------------------------------
   -7----7----7----7----9----9----9----9----5----5----5----5----5----5----5----5-------
    *                   *                   *

   ------------------------------------------------------------------------------------
   ------------------------------------------------------------------------------------
   ------------------------------------------------------------------------------------
   --------------------------------------------4----4----4----4----4----4----4----4----
   ---10---10---10---10---10---10---10---10--------------------------------------------
   -7----7----7----7----9----9----9----9----5----5----5----5----5----5----5----5-------
    *                   *                   *

   ------------------------------------------------------------------------------------|
   ------------------------------------------------------------------------------------|
   ------------------------------------------------------------------------------------|
   --------------------------------------------4----4----4----4----4----4----4----4----|
   ---10---10---10---10---10---10---10---10--------------------------------------------|
   -7----7----7----7----9----9----9----9----5----5----5----5----5----5----5----5-------|
    *                   *              *    *


        - (Electric) (Palm Muted)

e |------------------------------------------------------------------------------------
B |------------------------------------------------------------------------------------
G |--7--4--7--4-7/9-----7--4--7--4-7/11-----7--4--7--4--7-----7--4--7--4---------------
D |-0--0--0--0---------0--0--0--0----------0--0--0--0--------0--0--0--0--7-------------
A |------------------------------------------------------------------------------------
E |------------------------------------------------------------------------------------

   ------------------------------------------------------------------------------------
   ------------------------------------------------------------------------------------
   --7--4--7--4-7/9-----7--4--7--4-7/11-----7--4--7--4--7-----7--4--7--4---------------
   -0--0--0--0---------0--0--0--0----------0--0--0--0--------0--0--0--0--7-------------
   ------------------------------------------------------------------------------------
   ------------------------------------------------------------------------------------

   ------------------------------------------------------------------------------------
   ------------------------------------------------------------------------------------
   --7--4--7--4-7/9-----7--4--7--4-7/11-----7--4--7--4--7-----7--4--7--4---------------
   -0--0--0--0---------0--0--0--0----------0--0--0--0--------0--0--0--0--7-------------
   ------------------------------------------------------------------------------------
   ------------------------------------------------------------------------------------

   ------------------------------------------------------------------------------------
   ------------------------------------------------------------------------------------
   --7--4--7--4-7/9-----7--4--7--4-7/11-----7--4--7--4--7-----7--4--7--4---------------
   -0--0--0--0---------0--0--0--0----------0--0--0--0--------0--0--0--0--7-------------
   ------------------------------------------------------------------------------------
   ------------------------------------------------------------------------------------

   ------------------------------------------------------------------------------------|
   ------------------------------------------------------------------------------------|
   --7--4--7--4-7/9-----7--4--7--4-7/11-----7--4--7--4--------7--4--7--4---------------|
   -0--0--0--0---------0--0--0--0----------0--0--0--0--7-----0--0--0--0--7-------------|
   ------------------------------------------------------------------------------------|
   -GUITAR PLAYS QUIETER HERE----------------------------------------------------------|






****************************************************************************************
****************************************************************************************
****************************************************************************************






Group/Singer Name:      Kings Of Leon
Song:                   "The Bucket"
Additional Info:        Aha Shake Heartbreak - Track 06
Tuning:                 Standard -   
Tabbed By:              Dean Hill - Comments, Suggestions? the.scotsman@blueyonder.co.uk


[Chords Used]   (Caleb):- D(XX0[14][15][14]); D5(XX0[14][15][17]); A(XX09[10]9);
                          A5(XX09[10][12]); G(XX0787); G7#11(XX0789); G*(320033)
                          D*(XX0232); A*(X02220) + SEE TAB
                
                (Matthew):- D([10][12][12][11][10][10]); A(577655); G(355433)
                            Em(X79987) + SEE TAB


[Intro]         | 1 & 2 & 3 & 4 & | 1 & 2 & 3 & 4 & | 1 & 2 & 3 & 4 & | 1 & 2 & 3 & 4 & |
                |-----------------|-----------------|-----------------|-----------------|
                | D               | D5      D       | A               | A5      A       |
                                                     "Woo!"
                | G               | G7#11       G   | G               | G7#11       G   |
                | D               | D5       D      | A               | A5      A       |
                | G               | G7#11       G   | G               | G7#11       G   |


[Verse 1]        D
                I'll be the one to show you the way,
                 A
                You'll be the one to always complain,
                 G
                Three in the morning come a Bang! Bang! Bang!
                G
                All outta fags and I just can't wait.


[Verse 2]        D
                Cancel the thing that I said I'd do,
                 A
                I don't feel comfortable talking to you,
                  G
                Unless you got the zipper fixed on my shoe,
                G
                Then I'll be in the lobby drinking for two.


[Bridge]        Em         A
                Eigh-teen, bal-ding, (sta-ar.)
                |D              |D              |D              |D              |
                 sta-ar.

                Em       A
                Gol-den, fa-a-a-a-a-lling, (heart.)

                |D              |D              |D              |D              |
                 heart.


[Verse 3]       D
                Look at the shaky's, what's with the blush?
                  A
                Fresh off the plane in my fuzzy rush,
                 G
                Everyone's gathered to idolise me,
                G
                I hate the way you talk your Japanese scream.


[Verse 4]            D
                It's been too long since I left the shed,
                 A
                You kick the bucket and I'll swing my legs,
                 G
                Always remember the pact that we made,
                G
                Too young to die but old is the grave.


[Bridge]        Em         A
                Eigh-teen, bal-ding, (sta-ar.)
                |D              |D              |D              |D              |
                 sta-ar.

                Em       A
                Gol-den, fa-a-a-a-a-lling, (heart.)

                |D              |D              |D              |D              |
                 heart.


[Solo]          |D              |D5       D     |A              |A5       A     |
                |G              |G7#11        G |G              |G7#11        G |


[Outro]         D
                I'm a gonna show the way,
                A
                I'm a gonna show the way,
                G
                I'm a gonna show the way,
                G
                I'm a gonna show the way,
                Em         A         D
                Eigh-teen, bal-ding, sta-ar.






            **********************************
            *KINGS OF LEON - THE BUCKET - TAB*
            **********************************



b  -  Bend
sb -  Slow Bend
() -  Bracketed numbers are the note you bend up to
h  -  Hammer On
p  -  Pull Off
r  -  Return
/  -  Slide Up
\  -  Slide Down
d  -  Strum Down
u  -  Strum Up
PM -  Palm Mute
<> -  Natural Harmonics
^  -  Vibrato






[Intro] - [CALEB] - x2

    D                         D5          D             A 

e |-14-14-14-14-14-14-14-14-|-17-17-17-17-14-14-14----|--9--9--9--9--9--9--9--9-|
B |-15-15-15-15-15-15-15-15-|-15-15-15-15-15-15-15----|-10-10-10-10-10-10-10-10-|
G |-14-14-14-14-14-14-14-14-|-14-14-14-14-14-14-14----|--9--9--9--9--9--9--9--9-|
D |--0--0--0--0--0--0--0--0-|--0--0--0--0--0--0--0----|--0--0--0--0--0--0--0--0-|
A |-------------------------|-------------------------|-------------------------|
E |-------------------------|-------------------------|-------------------------|

    A5           A             G                        G7#11          G 

   -12-12-12-12--9--9--9----|--7--7--7--7--7--7--7--7-|-9--9--9--9--9--7--7--7--|
   -10-10-10-10-10-10-10----|--8--8--8--8--8--8--8--8-|-8--8--8--8--8--8--8--8--|
   --9--9--9--9--9--9--9----|--7--7--7--7--7--7--7--7-|-7--7--7--7--7--7--7--7--|
   --0--0--0--0--0--0--0----|--0--0--0--0--0--0--0--0-|-0--0--0--0--0--0--0--0--|
   -------------------------|-------------------------|-------------------------|
   -------------------------|-------------------------|-------------------------|

     G                        G7#11          G 

   --7--7--7--7--7--7--7--7-|-9--9--9--9--9--7--7--7--|
   --8--8--8--8--8--8--8--8-|-8--8--8--8--8--8--8--8--|
   --7--7--7--7--7--7--7--7-|-7--7--7--7--7--7--7--7--|
   --0--0--0--0--0--0--0--0-|-0--0--0--0--0--0--0--0--|
   -------------------------|-------------------------|
   -------------------------|-------------------------|


        - [MATTHEW] - [Starts @ Bar 9] (I.E. After Caleb plays the intro riff once)

e |-10-10----10---10-10----10---10-10--------------------------------------------
B |-12-10-10-10---12-10-10-10---12-10-10---10-10----10---10-10----10---10-10-----
G |-------11------------11------------11---11--9--9--9---11--9--9--9---11--9--9--
D |----------------------------------------------11------------11------------11--
A |------------------------------------------------------------------------------
E |------------------------------------------------------------------------------

   ------------------------------------------------------------------------------|
   -8--8-----8----8--8-----9----8--8-----8--8--8-----8----8--8-----8----8---8----|
   -9--7--7--7----9--7--7--7----9--7--7--7--9--7--7--7----9--7--7--7-----9--7--7-|
   -------9-------------9-------------9-----------9-------------9--------------9-|
   ------------------------------------------------------------------------------|
   ------------------------------------------------------------------------------|



[Verse 1] - [CALEB] x2

    D                         D5          D             A 

e |-14-14-14-14-14-14-14-14-|-17-17-17-17-14-14-14----|--9--9--9--9--9--9--9--9-|
B |-15-15-15-15-15-15-15-15-|-15-15-15-15-15-15-15----|-10-10-10-10-10-10-10-10-|
G |-14-14-14-14-14-14-14-14-|-14-14-14-14-14-14-14----|--9--9--9--9--9--9--9--9-|
D |--0--0--0--0--0--0--0--0-|--0--0--0--0--0--0--0----|--0--0--0--0--0--0--0--0-|
A |-------------------------|-------------------------|-------------------------|
E |-------------------------|-------------------------|-------------------------|

    A5           A             G                        G7#11          G 

   -12-12-12-12--9--9--9----|--7--7--7--7--7--7--7--7-|-9--9--9--9--9--7--7--7--|
   -10-10-10-10-10-10-10----|--8--8--8--8--8--8--8--8-|-8--8--8--8--8--8--8--8--|
   --9--9--9--9--9--9--9----|--7--7--7--7--7--7--7--7-|-7--7--7--7--7--7--7--7--|
   --0--0--0--0--0--0--0----|--0--0--0--0--0--0--0--0-|-0--0--0--0--0--0--0--0--|
   -------------------------|-------------------------|-------------------------|
   -------------------------|-------------------------|-------------------------|

     G                        G7#11          G 

   --7--7--7--7--7--7--7--7-|-9--9--9--9--9--7--7--7--|
   --8--8--8--8--8--8--8--8-|-8--8--8--8--8--8--8--8--|
   --7--7--7--7--7--7--7--7-|-7--7--7--7--7--7--7--7--|
   --0--0--0--0--0--0--0--0-|-0--0--0--0--0--0--0--0--|
   -------------------------|-------------------------|
   -------------------------|-------------------------|


          - [MATTHEW]

    D                                               A
e |------------------------------------------------------------------------------------
B |------------------------------------------------------------------------------------
G |------------------------------------------------------------------------------------
D |-12-12-12-12-12-12-12-12-12-12-12-12-12-12-12-12-7-7-7-7-7-7-7-7-7-7-7-7-7-7-7-7----
A |-12-12-12-12-12-12-12-12-12-12-12-12-12-12-12-12-7-7-7-7-7-7-7-7-7-7-7-7-7-7-7-7----
E |-10-10-10-10-10-10-10-10-10-10-10-10-10-10-10--0-5-5-5-5-5-5-5-5-5-5-5-5-5-5-5-0----

    G
   ------------------------------------------------------------------------------------
   ------------------------------------------------------------------------------------
   ------------------------------------------------------------------------------------
   -5-5-5-5-5-5-5-5-5-5-5-5-5-5-5-5-5-5-5-5-5-5-5-5-5-5-5-5-5-5-5-5--------------------
   -5-5-5-5-5-5-5-5-5-5-5-5-5-5-5-5-5-5-5-5-5-5-5-5-5-5-5-5-5-5-5-5--------------------
   -3-3-3-3-3-3-3-3-3-3-3-3-3-3-3-0-3-3-3-3-3-3-3-3-3-3-3-3-3-3-3-0--------------------


    D                                               A
   ------------------------------------------------------------------------------------
   ------------------------------------------------------------------------------------
   ------------------------------------------------------------------------------------
   -12-12-12-12-12-12-12-12-12-12-12-12-12-12-12-12-7-7-7-7-7-7-7-7-7-7-7-7-7-7-7-7----
   -12-12-12-12-12-12-12-12-12-12-12-12-12-12-12-12-7-7-7-7-7-7-7-7-7-7-7-7-7-7-7-7----
   -10-10-10-10-10-10-10-10-10-10-10-10-10-10-10--0-5-5-5-5-5-5-5-5-5-5-5-5-5-5-5-0----

    G
   ------------------------------------------------------------------------------------|
   ------------------------------------------------------------------------------------|
   ------------------------------------------------------------------------------------|
   -5-5-5-5-5-5-5-5-5-5-5-5-5-5-5-5-5-5-5-5-5-5-5-5-5-5-5-5-5-5-5-5--------------------|
   -5-5-5-5-5-5-5-5-5-5-5-5-5-5-5-5-5-5-5-5-5-5-5-5-5-5-5-5-5-5-5-5--------------------|
   -3-3-3-3-3-3-3-3-3-3-3-3-3-3-3-0-3-3-3-3-3-3-3-3-3-3-3-3-3-3-3-0--------------------|



[BRIDGE] - [CALEB]

"...Eigh-teen,"  "...bal-ding,"  "...sta-ar."

    G                A               D
e |-3----------------0---------------2--2---2-2----2--2-2-2-2--2---2-2----2--2-2-2-----
B |-3----------------2---------------3--3---3-3----3--3-3-3-3--3---3-3----3--3-3-3-----
G |-0----------------2---------------2--2---2-2----2--2-2-2-2--2---2-2----2--2-2-2-----
D |-0----------------2---------------0--0---0-0----0--0-0-0-0--0---0-0----0--0-0-0-----
A |-2----------------0-----------------------------------------------------------------
E |-3----------------------------------------------------------------------------------

"...Gol-den," "...fa-a-a-a-a-lling," "...heart."

    G             A                      D
   -3-------------0----------------------2--2---2-2----2--2-2-2-2--2---2-2----2--2-2-2-|
   -3-------------2----------------------3--3---3-3----3--3-3-3-3--3---3-3----3--3-3-3-|
   -0-------------2----------------------2--2---2-2----2--2-2-2-2--2---2-2----2--2-2-2-|
   -0-------------2----------------------0--0---0-0----0--0-0-0-0--0---0-0----0--0-0-0-|
   -2-------------0--------------------------------------------------------------------|
   -3----------------------------------------------------------------------------------|


        - [MATTHEW]

"...Eigh-teen,"  "...bal-ding,"  "...sta-ar."

    Em               A               D
e |-7----7-----------5---5-----------14-------14------14-------14----------------------
B |-8----8-----------5---5--------------15-------15------15-------15-------------------
G |-9----9-----------6---6-----------------14------14-------14------14-----------------
D |-9----------------7-----------------------------------------------------------------
A |-7----------------7-----------------------------------------------------------------
E |------------------5-----------------------------------------------------------------


"...Gol-den," "...fa-a-a-a-a-lling," "...heart."

    Em            A                      D
   -7---7---------5-------------5--------14-------14------14-------14------------------|
   -8---8---------5-------------5-----------15-------15------15-------15---------------|
   -9---9---------6-------------6--------------14------14-------14------14-------------|
   -9-------------7--------------------------------------------------------------------|
   -7-------------7--------------------------------------------------------------------|
   ---------------5--------------------------------------------------------------------|



[Verse 2] - [CALEB] x2

    D                         D5          D             A 

e |-14-14-14-14-14-14-14-14-|-17-17-17-17-14-14-14----|--9--9--9--9--9--9--9--9-|
B |-15-15-15-15-15-15-15-15-|-15-15-15-15-15-15-15----|-10-10-10-10-10-10-10-10-|
G |-14-14-14-14-14-14-14-14-|-14-14-14-14-14-14-14----|--9--9--9--9--9--9--9--9-|
D |--0--0--0--0--0--0--0--0-|--0--0--0--0--0--0--0----|--0--0--0--0--0--0--0--0-|
A |-------------------------|-------------------------|-------------------------|
E |-------------------------|-------------------------|-------------------------|

    A5           A             G                        G7#11          G 

   -12-12-12-12--9--9--9----|--7--7--7--7--7--7--7--7-|-9--9--9--9--9--7--7--7--|
   -10-10-10-10-10-10-10----|--8--8--8--8--8--8--8--8-|-8--8--8--8--8--8--8--8--|
   --9--9--9--9--9--9--9----|--7--7--7--7--7--7--7--7-|-7--7--7--7--7--7--7--7--|
   --0--0--0--0--0--0--0----|--0--0--0--0--0--0--0--0-|-0--0--0--0--0--0--0--0--|
   -------------------------|-------------------------|-------------------------|
   -------------------------|-------------------------|-------------------------|

     G                        G7#11          G 

   --7--7--7--7--7--7--7--7-|-9--9--9--9--9--7--7--7--|
   --8--8--8--8--8--8--8--8-|-8--8--8--8--8--8--8--8--|
   --7--7--7--7--7--7--7--7-|-7--7--7--7--7--7--7--7--|
   --0--0--0--0--0--0--0--0-|-0--0--0--0--0--0--0--0--|
   -------------------------|-------------------------|
   -------------------------|-------------------------|


          - [MATTHEW]

    D                                               A
e |------------------------------------------------------------------------------------
B |------------------------------------------------------------------------------------
G |------------------------------------------------------------------------------------
D |-12-12-12-12-12-12-12-12-12-12-12-12-12-12-12-12-7-7-7-7-7-7-7-7-7-7-7-7-7-7-7-7----
A |-12-12-12-12-12-12-12-12-12-12-12-12-12-12-12-12-7-7-7-7-7-7-7-7-7-7-7-7-7-7-7-7----
E |-10-10-10-10-10-10-10-10-10-10-10-10-10-10-10--0-5-5-5-5-5-5-5-5-5-5-5-5-5-5-5-0----

    G
   ------------------------------------------------------------------------------------
   ------------------------------------------------------------------------------------
   ------------------------------------------------------------------------------------
   -5-5-5-5-5-5-5-5-5-5-5-5-5-5-5-5-5-5-5-5-5-5-5-5-5-5-5-5-5-5-5-5--------------------
   -5-5-5-5-5-5-5-5-5-5-5-5-5-5-5-5-5-5-5-5-5-5-5-5-5-5-5-5-5-5-5-5--------------------
   -3-3-3-3-3-3-3-3-3-3-3-3-3-3-3-0-3-3-3-3-3-3-3-3-3-3-3-3-3-3-3-0--------------------


    D                                               A
   ------------------------------------------------------------------------------------
   ------------------------------------------------------------------------------------
   ------------------------------------------------------------------------------------
   -12-12-12-12-12-12-12-12-12-12-12-12-12-12-12-12-7-7-7-7-7-7-7-7-7-7-7-7-7-7-7-7----
   -12-12-12-12-12-12-12-12-12-12-12-12-12-12-12-12-7-7-7-7-7-7-7-7-7-7-7-7-7-7-7-7----
   -10-10-10-10-10-10-10-10-10-10-10-10-10-10-10--0-5-5-5-5-5-5-5-5-5-5-5-5-5-5-5-0----

    G
   ------------------------------------------------------------------------------------|
   ------------------------------------------------------------------------------------|
   ------------------------------------------------------------------------------------|
   -5-5-5-5-5-5-5-5-5-5-5-5-5-5-5-5-5-5-5-5-5-5-5-5-5-5-5-5-5-5-5-5--------------------|
   -5-5-5-5-5-5-5-5-5-5-5-5-5-5-5-5-5-5-5-5-5-5-5-5-5-5-5-5-5-5-5-5--------------------|
   -3-3-3-3-3-3-3-3-3-3-3-3-3-3-3-0-3-3-3-3-3-3-3-3-3-3-3-3-3-3-3-0--------------------|



[BRIDGE] - [CALEB]

"...Eigh-teen,"  "...bal-ding,"  "...sta-ar."

    G                A               D
e |-3----------------0---------------2--2---2-2----2--2-2-2-2--2---2-2----2--2-2-2-----
B |-3----------------2---------------3--3---3-3----3--3-3-3-3--3---3-3----3--3-3-3-----
G |-0----------------2---------------2--2---2-2----2--2-2-2-2--2---2-2----2--2-2-2-----
D |-0----------------2---------------0--0---0-0----0--0-0-0-0--0---0-0----0--0-0-0-----
A |-2----------------0-----------------------------------------------------------------
E |-3----------------------------------------------------------------------------------

"...Gol-den," "...fa-a-a-a-a-lling," "...heart."

    G             A                      D
   -3-------------0----------------------2--2---2-2----2--2-2-2-2--2---2-2----2--2-2-2-|
   -3-------------2----------------------3--3---3-3----3--3-3-3-3--3---3-3----3--3-3-3-|
   -0-------------2----------------------2--2---2-2----2--2-2-2-2--2---2-2----2--2-2-2-|
   -0-------------2----------------------0--0---0-0----0--0-0-0-0--0---0-0----0--0-0-0-|
   -2-------------0--------------------------------------------------------------------|
   -3----------------------------------------------------------------------------------|


        - [MATTHEW]

"...Eigh-teen,"  "...bal-ding,"  "...sta-ar."

    Em               A               D
e |-7----7-----------5---5-----------14-------14------14-------14----------------------
B |-8----8-----------5---5--------------15-------15------15-------15-------------------
G |-9----9-----------6---6-----------------14------14-------14------14-----------------
D |-9----------------7-----------------------------------------------------------------
A |-7----------------7-----------------------------------------------------------------
E |------------------5-----------------------------------------------------------------


"...Gol-den," "...fa-a-a-a-a-lling," "...heart."

    Em            A                      D
   -7---7---------5-------------5--------14-------14------14-------14------------------|
   -8---8---------5-------------5-----------15-------15------15-------15---------------|
   -9---9---------6-------------6--------------14------14-------14------14-------------|
   -9-------------7--------------------------------------------------------------------|
   -7-------------7--------------------------------------------------------------------|
   ---------------5--------------------------------------------------------------------|



[SOLO] - There's an overdub here. Caleb plays the song's main part, and Matthew, his
         solo, but there's also this part, (denoted by the [OVERDUB]) which plays over
         lead and rhythm. When played live, the overdubbed part is dropped.

       - [CALEB]

    D                         D5          D             A 

e |-14-14-14-14-14-14-14-14-|-17-17-17-17-14-14-14----|--9--9--9--9--9--9--9--9-|
B |-15-15-15-15-15-15-15-15-|-15-15-15-15-15-15-15----|-10-10-10-10-10-10-10-10-|
G |-14-14-14-14-14-14-14-14-|-14-14-14-14-14-14-14----|--9--9--9--9--9--9--9--9-|
D |--0--0--0--0--0--0--0--0-|--0--0--0--0--0--0--0----|--0--0--0--0--0--0--0--0-|
A |-------------------------|-------------------------|-------------------------|
E |-------------------------|-------------------------|-------------------------|

    A5           A             G                        G7#11          G 

   -12-12-12-12--9--9--9----|--7--7--7--7--7--7--7--7-|-9--9--9--9--9--7--7--7--|
   -10-10-10-10-10-10-10----|--8--8--8--8--8--8--8--8-|-8--8--8--8--8--8--8--8--|
   --9--9--9--9--9--9--9----|--7--7--7--7--7--7--7--7-|-7--7--7--7--7--7--7--7--|
   --0--0--0--0--0--0--0----|--0--0--0--0--0--0--0--0-|-0--0--0--0--0--0--0--0--|
   -------------------------|-------------------------|-------------------------|
   -------------------------|-------------------------|-------------------------|

     G                        G7#11          G 

   --7--7--7--7--7--7--7--7-|-9--9--9--9--9--7--7--7--|
   --8--8--8--8--8--8--8--8-|-8--8--8--8--8--8--8--8--|
   --7--7--7--7--7--7--7--7-|-7--7--7--7--7--7--7--7--|
   --0--0--0--0--0--0--0--0-|-0--0--0--0--0--0--0--0--|
   -------------------------|-------------------------|
   -------------------------|-------------------------|


        - [MATTHEW] (Watch out for the tiny variation here--¬)

e |-10-10----10---10-10----10---10-10--------------------------------------------------
B |-12-10-10-10---12-10-10-10---12-10-10---10-10----10---10-10----10---10-10-----------
G |-------11------------11------------11---11--9--9--9---11-----9--9---11--9--9--------
D |----------------------------------------------11------------11------------11--------
A |------------------------------------------------------------------------------------
E |------------------------------------------------------------------------------------

   ------------------------------------------------------------------------------------|
   -8--8-----8----8--8-----9----8--8-----8--8--8-----8----8--8-----8----8---8----------|
   -9--7--7--7----9--7--7--7----9--7--7--7--9--7--7--7----9--7--7--7-----9--7--7-------|
   -------9-------------9-------------9-----------9-------------9--------------9-------|
   ------------------------------------------------------------------------------------|
   ------------------------------------------------------------------------------------|


[OVERDUB]

e |-14-------14------14-------14------14-------14------14-------14---------------------|
B |----15-------15------15-------15------15-------15------15-------15------------------|
G |-------14------14-------14------14-------14------14-------14------14----------------|
D |------------------------------------------------------------------------------------|
A |------------------------------------------------------------------------------------|
E |------------------------------------------------------------------------------------|



[OUTRO] - [CALEB]

    D                         D5          D             A 

e |-14-14-14-14-14-14-14-14-|-17-17-17-17-14-14-14----|--9--9--9--9--9--9--9--9-|
B |-15-15-15-15-15-15-15-15-|-15-15-15-15-15-15-15----|-10-10-10-10-10-10-10-10-|
G |-14-14-14-14-14-14-14-14-|-14-14-14-14-14-14-14----|--9--9--9--9--9--9--9--9-|
D |--0--0--0--0--0--0--0--0-|--0--0--0--0--0--0--0----|--0--0--0--0--0--0--0--0-|
A |-------------------------|-------------------------|-------------------------|
E |-------------------------|-------------------------|-------------------------|

    A5           A             G                        G7#11          G 

   -12-12-12-12--9--9--9----|--7--7--7--7--7--7--7--7-|-9--9--9--9--9--7--7--7--|
   -10-10-10-10-10-10-10----|--8--8--8--8--8--8--8--8-|-8--8--8--8--8--8--8--8--|
   --9--9--9--9--9--9--9----|--7--7--7--7--7--7--7--7-|-7--7--7--7--7--7--7--7--|
   --0--0--0--0--0--0--0----|--0--0--0--0--0--0--0--0-|-0--0--0--0--0--0--0--0--|
   -------------------------|-------------------------|-------------------------|
   -------------------------|-------------------------|-------------------------|

     G                        G7#11          G 

   --7--7--7--7--7--7--7--7-|-9--9--9--9--9--7--7--7--|
   --8--8--8--8--8--8--8--8-|-8--8--8--8--8--8--8--8--|
   --7--7--7--7--7--7--7--7-|-7--7--7--7--7--7--7--7--|
   --0--0--0--0--0--0--0--0-|-0--0--0--0--0--0--0--0--|
   -------------------------|-------------------------|
   -------------------------|-------------------------|

"...Eigh-teen,"  "...bal-ding,"  "...sta-ar."

    G                A               D
e |-3----------------0---------------2/------------------------------------------------|
B |-3----------------2---------------3/------------------------------------------------|
G |-0----------------2---------------2/------------------------------------------------|
D |-0----------------2---------------0-------------------------------------------------|
A |-2----------------0-----------------------------------------------------------------|
E |-3----------------------------------------------------------------------------------|



        - [MATTHEW]

    D                A                G
e |-14-------14------14-------14------12-------12------12-------12---------------------
B |----15-------15------12-------12------15-------15------15-------15------------------
G |-------14------14-------14------14-------12------12-------12------12----------------
D |------------------------------------------------------------------------------------
A |------------------------------------------------------------------------------------
E |------------------------------------------------------------------------------------

"...Eigh-teen,"  "...bal-ding,"  "...sta-ar."

    Em               A               D
   -7----7-----------5---5--5--------10------------------------------------------------|
   -8----8-----------5----5----5-----10------------------------------------------------|
   -9----9-----------6-----6----6----11------------------------------------------------|
   -9----------------7---------------12------------------------------------------------|
   -7----------------7---------------12------------------------------------------------|
   ------------------5---------------10------------------------------------------------|






****************************************************************************************
****************************************************************************************
****************************************************************************************






Group/Singer Name:      Kings Of Leon
Song:                   "Soft"
Additional Info:        Aha Shake Heartbreak - Track 07
Tuning:                 Standard - [EADGBe]
Tabbed By:              Dean Hill - Comments, Suggestions? the.scotsman@blueyonder.co.uk


[Chords Used]   C(X32010); Cadd9(X32030); Am7(X02010); A7sus(X02030); C6/9(X3021X)
                D7(XX0210); C*(X3201X); E7(02213X); Am(X0221X) + SEE TAB


[Intro]         [MATTHEW - SEE TAB]

                | 1 & 2 & 3 & 4 & | 1 & 2 & 3 & 4 & | 1 & 2 & 3 & 4 & | 1 & 2 & 3 & 4 & |
                |-----------------|-----------------|-----------------|-----------------|
                | C       Cadd9   | C       Cadd9   | Am7     A7sus   | Am7     A7sus   |


[Verse 1]         C               Cadd9
                I used to see you every day,
                  C               Cadd9             | Am7     A7sus   | Am7     A7sus   |
                I used to see you every day.
                  C                  Cadd9
                I danced around your folk and soul,
                  C                  Cadd9          | Am7     A7sus   | Am7     A7sus   |
                I danced to all your fucking soul.
                  C                  Cadd9
                I left you with your nose a bleedin',
                  C          Cadd9        | Am7     A7sus   | Am7     A7sus   |
                    And your toes creeping around.
                     C              Cadd9
                Ahhh so mundane and incomplete,
                C                Cadd9  | Am7             A7sus   | Am7     A7sus   |
                Hand me down my pants and get me off this street.


[Chorus]            C6/9
                I'm passed out in your garden,
                    D7                   G
                I'm in I can't get off, so......soft.
                    C6/9
                I'd pop myself in your body,
                    D7                     G
                I'd come into your party but.......I'm soft.


[Link]          | 1 & 2 & 3 & 4 & | 1 & 2 & 3 & 4 & | 1 & 2 & 3 & 4 & | 1 & 2 & 3 & 4 & |
                |-----------------|-----------------|-----------------|-----------------|
                | C       Cadd9   | C       Cadd9   | Am7     A7sus   | Am7     A7sus   |


[Verse 2]         C                    Cadd9
                Behind the fringe of a whiskey high,
                C           Cadd9    | Am7     A7sus   | Am7     A7sus   |
                 Mutilating cat like eyes,
                    C                  Cadd9
                And in your nose blood decadence,
                    C               Cadd9     | Am7        A7sus   | Am7     A7sus   |
                You try to drag me into your bohemian dancing.
                       C                        Cadd9
                Ah you paint my fingers and you paint my toes,
                    C                Cadd9     | Am7     A7sus   | Am7     A7sus   |
                You let your perfect nipple show.


[Chorus]            C6/9
                I'm passed out in your garden,
                    D7                   G
                I'm in I can't get off, so......soft.
                    C6/9
                I'd pop myself in your body,
                    D7                     G
                I'd come into your party but.......I'm soft,
                 G
                but.......I'm so-o-oft.


[Middle 8] - [CALEB PLAYS]

                | C*              | E7              | Am              | Am              |
                | C*              | E7              | Am              | Am              |

           - [MATTHEW PLAYS RIFF]


[Outro] - [THESE LYRICS OVER...]

                I'm passed out in your garden,
                I'm in I can't get off, so......soft.
                I'd pop myself in your body,
                I'd come into your party but.......I'm soft,


             ...| C*              | E7              | Am              | Am              |
                | C*              | E7              | Am              | Am              |
                
                | C               | Cadd9           | Am7             | Am7             |
                | C               | Cadd9           | Am7             | Am7     A7sus   |






            ****************************
            *KINGS OF LEON - SOFT - TAB*
            ****************************



b  -  Bend
sb -  Slow Bend
() -  Bracketed numbers are the note you bend up to
h  -  Hammer On
p  -  Pull Off
r  -  Return
/  -  Slide Up
\  -  Slide Down
d  -  Strum Down
u  -  Strum Up
PM -  Palm Mute
<> -  Natural Harmonics
^  -  Vibrato






[INTRO] - [MATTHEW]

e |---12--12--12------12---12--12--12------12---12--12--12------12---12--12--12------12-
B |-13--13--12--12--12---13--13--12--12--12---13--13--12--12--12---13--13--12--12--12---
G |-------------------------------------------------------------------------------------
D |-------------------------------------------------------------------------------------
A |-------------------------------------------------------------------------------------
E |-------------------------------------------------------------------------------------

   ---12--12--12------12---12--12--12------12---12--12--12------12---12--12--12------12|
   -13--13--12--12--12---13--13--12--12--12---13--13--12--12--12---13--13--12--12--12--|
   ------------------------------------------------------------------------------------|
   ------------------------------------------------------------------------------------|
   ------------------------------------------------------------------------------------|
   ------------------------------------------------------------------------------------|


        - [CALEB] @ 00:09

    C         Cadd9     C         Cadd9     Am7       A7sus     Am7       A7sus
e |-0---0-00--0---0-00--0---0-00--0---0-00--0---0-00--0---0-00--0---0-00--0---0-00-----|
B |-1---1-11--3b--3-33--1---1-11--3b--3-33--1---1-11--3b--3-33--1---1-11--3b--3-33-----|
G |-0---0-00--0---0-00--0---0-00--0---0-00--0---0-00--0---0-00--0---0-00--0---0-00-----|
D |-2---2-22--2---2-22--2---2-22--2---2-22--2---2-22--2---2-22--2---2-22--2---2-22-----|
A |-3---3-33--3---3-33--3---3-33--3---3-33--0---0-00--0---0-00--0---0-00--0---0-00-----|
E |------------------------------------------------------------------------------------|



[VERSE 1] - [CALEB]

    C         Cadd9     C         Cadd9     Am7       A7sus     Am7       A7sus
e |-0---0-00--0---0-00--0---0-00--0---0-00--0---0-00--0---0-00--0---0-00--0---0-00-----
B |-1---1-11--3b--3-33--1---1-11--3b--3-33--1---1-11--3b--3-33--1---1-11--3b--3-33-----
G |-0---0-00--0---0-00--0---0-00--0---0-00--0---0-00--0---0-00--0---0-00--0---0-00-----
D |-2---2-22--2---2-22--2---2-22--2---2-22--2---2-22--2---2-22--2---2-22--2---2-22-----
A |-3---3-33--3---3-33--3---3-33--3---3-33--0---0-00--0---0-00--0---0-00--0---0-00-----
E |------------------------------------------------------------------------------------

    C         Cadd9     C         Cadd9     Am7       A7sus     Am7       A7sus
   -0---0-00--0---0-00--0---0-00--0---0-00--0---0-00--0---0-00--0---0-00--0---0-00-----
   -1---1-11--3b--3-33--1---1-11--3b--3-33--1---1-11--3b--3-33--1---1-11--3b--3-33-----
   -0---0-00--0---0-00--0---0-00--0---0-00--0---0-00--0---0-00--0---0-00--0---0-00-----
   -2---2-22--2---2-22--2---2-22--2---2-22--2---2-22--2---2-22--2---2-22--2---2-22-----
   -3---3-33--3---3-33--3---3-33--3---3-33--0---0-00--0---0-00--0---0-00--0---0-00-----
   ------------------------------------------------------------------------------------

    C         Cadd9     C         Cadd9     Am7       A7sus     Am7       A7sus
   -0---0-00--0---0-00--0---0-00--0---0-00--0---0-00--0---0-00--0---0-00--0---0-00-----
   -1---1-11--3b--3-33--1---1-11--3b--3-33--1---1-11--3b--3-33--1---1-11--3b--3-33-----
   -0---0-00--0---0-00--0---0-00--0---0-00--0---0-00--0---0-00--0---0-00--0---0-00-----
   -2---2-22--2---2-22--2---2-22--2---2-22--2---2-22--2---2-22--2---2-22--2---2-22-----
   -3---3-33--3---3-33--3---3-33--3---3-33--0---0-00--0---0-00--0---0-00--0---0-00-----
   ------------------------------------------------------------------------------------

    C         Cadd9     C         Cadd9     Am7       A7sus     Am7       A7sus
   -0---0-00--0---0-00--0---0-00--0---0-00--0---0-00--0---0-00--0---0-00--0---0-00-----|
   -1---1-11--3b--3-33--1---1-11--3b--3-33--1---1-11--3b--3-33--1---1-11--3b--3-33-----|
   -0---0-00--0---0-00--0---0-00--0---0-00--0---0-00--0---0-00--0---0-00--0---0-00-----|
   -2---2-22--2---2-22--2---2-22--2---2-22--2---2-22--2---2-22--2---2-22--2---2-22-----|
   -3---3-33--3---3-33--3---3-33--3---3-33--0---0-00--0---0-00--0---0-00--0---0-00-----|
   ------------------------------------------------------------------------------------|


        - [MATTHEW] @ 00:22, 00:30, 00:39. Then this-----¬ @ 00:47

e |---------------------------0--------------------------------------------------------|
B |-13-12--------------------11/13------------------------13p12--12--------------------|
G |-------14-12------------------------------------------------14--14----12------------|
D |---------------14-12-10-9------------------------------------------------14-12-10-9-|
A |------------------------------------------------------------------------------------|
E |------------------------------------------------------------------------------------|



[CHORUS] - [CALEB]

"...I'm passed out in your garden,"              "...I'm in I can't get off,"
        C6/9                                             D7
e |------------------------------------------------------2-----------------------------
B |-----1------------------------------------------------1-----------------------------
G |-----2------------------------------------------------2-----------------------------
D |-----0------------------------------------------------0-----------------------------
A |-----3------------------------------------------------------------------------------
E |------------------------------------------------------------------------------------

"...so.............................soft."
     G
   --3--33-33--3--33-33--3--33-33--3--33-33--------------------------------------------
   --0--00-00--0--00-00--0--00-00--0--00-00--------------------------------------------
   --0--00-00--0--00-00--0--00-00--0--00-00--------------------------------------------
   --0--00-00--0--00-00--0--00-00--0--00-00--------------------------------------------
   --2--22-22--2--22-22--2--22-22--2--22-22--------------------------------------------
   --3--33-33--3--33-33--3--33-33--3--33-33--------------------------------------------

"...I'd pop myself in your body,"                "...I'd come into your party but"
        C6/9                                             D7
   ------------------------------------------------------2-----------------------------
   -----1------------------------------------------------1-----------------------------
   -----2------------------------------------------------2-----------------------------
   -----0------------------------------------------------0-----------------------------
   -----3------------------------------------------------------------------------------
   ------------------------------------------------------------------------------------

                            "...I'm soft."
     G
   --3--33-33--3--33-33--3--33-33--3--33-33--------------------------------------------|
   --0--00-00--0--00-00--0--00-00--0--00-00--------------------------------------------|
   --0--00-00--0--00-00--0--00-00--0--00-00--------------------------------------------|
   --0--00-00--0--00-00--0--00-00--0--00-00--------------------------------------------|
   --2--22-22--2--22-22--2--22-22--2--22-22--------------------------------------------|
   --3--33-33--3--33-33--3--33-33--3--33-33--------------------------------------------|


         - [MATTHEW]


"...I'm passed out in your garden,"              "...I'm in I can't get off,"

e |------------------------------------------------------------------------------------
B |------------------------------------------------------------------------------------
G |-----5------------------------------------------------7-----------------------------
D |-----X------------------------------------------------X-----------------------------
A |-----3------------------------------------------------5-----------------------------
E |------------------------------------------------------------------------------------

"...so.............................soft."
     E   F     G     F     E   D   C   B
   ------------------------------------------------------------------------------------
   ------------------------------------------------------------------------------------
   --9-9-10-10-12-12-10-10-9-9-7-7-5-5-4-4---------------------------------------------
   --X-X--X--X--X--X--X--X-X-X-X-X-X-X-X-X---------------------------------------------
   --7-7--8--8-10-10--8--8-7-7-5-5-3-3-2-2---------------------------------------------
   ------------------------------------------------------------------------------------

"...I'd pop myself in your body,"                "...I'd come into your party but"
        C6/9                                             D7
   ------------------------------------------------------------------------------------
   ------------------------------------------------------------------------------------
   -----5------------------------------------------------7-----------------------------
   -----X------------------------------------------------X-----------------------------
   -----3------------------------------------------------5-----------------------------
   ------------------------------------------------------------------------------------

                             "...I'm soft."
     E   F     G     F     E   D   C   B
   ------------------------------------------------------------------------------------|
   ------------------------------------------------------------------------------------|
   --9-9-10-10-12-12-10-10-9-9-7-7-5-5-4-4---------------------------------------------|
   --X-X--X--X--X--X--X--X-X-X-X-X-X-X-X-X---------------------------------------------|
   --7-7--8--8-10-10--8--8-7-7-5-5-3-3-2-2---------------------------------------------|
   ------------------------------------------------------------------------------------|



[LINK] - [CALEB]

    C         Cadd9     C         Cadd9     Am7       A7sus     Am7       A7sus
e |-0---0-00--0---0-00--0---0-00--0---0-00--0---0-00--0---0-00--0---0-00--0---0-00-----|
B |-1---1-11--3b--3-33--1---1-11--3b--3-33--1---1-11--3b--3-33--1---1-11--3b--3-33-----|
G |-0---0-00--0---0-00--0---0-00--0---0-00--0---0-00--0---0-00--0---0-00--0---0-00-----|
D |-2---2-22--2---2-22--2---2-22--2---2-22--2---2-22--2---2-22--2---2-22--2---2-22-----|
A |-3---3-33--3---3-33--3---3-33--3---3-33--0---0-00--0---0-00--0---0-00--0---0-00-----|
E |------------------------------------------------------------------------------------|


       - [MATTHEW]

e |---12--12--12------12---12--12--12------12---12--12--12------12---12--12--12------12-|
B |-13--13--12--12--12---13--13--12--12--12---13--13--12--12--12---13--13--12--12--12---|
G |-------------------------------------------------------------------------------------|
D |-------------------------------------------------------------------------------------|
A |-------------------------------------------------------------------------------------|
E |-------------------------------------------------------------------------------------|



[VERSE 2] - [CALEB]

    C         Cadd9     C         Cadd9     Am7       A7sus     Am7       A7sus
e |-0---0-00--0---0-00--0---0-00--0---0-00--0---0-00--0---0-00--0---0-00--0---0-00-----
B |-1---1-11--3b--3-33--1---1-11--3b--3-33--1---1-11--3b--3-33--1---1-11--3b--3-33-----
G |-0---0-00--0---0-00--0---0-00--0---0-00--0---0-00--0---0-00--0---0-00--0---0-00-----
D |-2---2-22--2---2-22--2---2-22--2---2-22--2---2-22--2---2-22--2---2-22--2---2-22-----
A |-3---3-33--3---3-33--3---3-33--3---3-33--0---0-00--0---0-00--0---0-00--0---0-00-----
E |------------------------------------------------------------------------------------

    C         Cadd9     C         Cadd9     Am7       A7sus     Am7       A7sus
   -0---0-00--0---0-00--0---0-00--0---0-00--0---0-00--0---0-00--0---0-00--0---0-00-----
   -1---1-11--3b--3-33--1---1-11--3b--3-33--1---1-11--3b--3-33--1---1-11--3b--3-33-----
   -0---0-00--0---0-00--0---0-00--0---0-00--0---0-00--0---0-00--0---0-00--0---0-00-----
   -2---2-22--2---2-22--2---2-22--2---2-22--2---2-22--2---2-22--2---2-22--2---2-22-----
   -3---3-33--3---3-33--3---3-33--3---3-33--0---0-00--0---0-00--0---0-00--0---0-00-----
   ------------------------------------------------------------------------------------

    C         Cadd9     C         Cadd9     Am7       A7sus     Am7       A7sus
   -0---0-00--0---0-00--0---0-00--0---0-00--0---0-00--0---0-00--0---0-00--0---0-00-----|
   -1---1-11--3b--3-33--1---1-11--3b--3-33--1---1-11--3b--3-33--1---1-11--3b--3-33-----|
   -0---0-00--0---0-00--0---0-00--0---0-00--0---0-00--0---0-00--0---0-00--0---0-00-----|
   -2---2-22--2---2-22--2---2-22--2---2-22--2---2-22--2---2-22--2---2-22--2---2-22-----|
   -3---3-33--3---3-33--3---3-33--3---3-33--0---0-00--0---0-00--0---0-00--0---0-00-----|
   ------------------------------------------------------------------------------------|


        - [MATTHEW] @ 01:21, 01:30. Then this------------¬ @ 01:38

e |---------------------------0--------------------------------------------------------|
B |-13-12--------------------11/13------------------------13p12--12--------------------|
G |-------14-12------------------------------------------------14--14----12------------|
D |---------------14-12-11-9------------------------------------------------14-12-10-9-|
A |------------------------------------------------------------------------------------|
E |------------------------------------------------------------------------------------|



[CHORUS] - [CALEB]

"...I'm passed out in your garden,"              "...I'm in I can't get off,"
        C6/9                                             D7
e |------------------------------------------------------2-----------------------------
B |-----1------------------------------------------------1-----------------------------
G |-----2------------------------------------------------2-----------------------------
D |-----0------------------------------------------------0-----------------------------
A |-----3------------------------------------------------------------------------------
E |------------------------------------------------------------------------------------

"...so.............................soft."
     G
   --3--33-33--3--33-33--3--33-33--3--33-33--------------------------------------------
   --0--00-00--0--00-00--0--00-00--0--00-00--------------------------------------------
   --0--00-00--0--00-00--0--00-00--0--00-00--------------------------------------------
   --0--00-00--0--00-00--0--00-00--0--00-00--------------------------------------------
   --2--22-22--2--22-22--2--22-22--2--22-22--------------------------------------------
   --3--33-33--3--33-33--3--33-33--3--33-33--------------------------------------------

"...I'd pop myself in your body,"                "...I'd come into your party but"
        C6/9                                             D7
   ------------------------------------------------------2-----------------------------
   -----1------------------------------------------------1-----------------------------
   -----2------------------------------------------------2-----------------------------
   -----0------------------------------------------------0-----------------------------
   -----3------------------------------------------------------------------------------
   ------------------------------------------------------------------------------------

                            "...I'm soft." "...but........................I'm so-o-oft.
     G                                          G
   --3--33-33--3--33-33--3--33-33--3--33-33-----3--33-33--3--33-33--3--33-33--3--33-33-|
   --0--00-00--0--00-00--0--00-00--0--00-00-----0--00-00--0--00-00--0--00-00--0--00-00-|
   --0--00-00--0--00-00--0--00-00--0--00-00-----0--00-00--0--00-00--0--00-00--0--00-00-|
   --0--00-00--0--00-00--0--00-00--0--00-00-----0--00-00--0--00-00--0--00-00--0--00-00-|
   --2--22-22--2--22-22--2--22-22--2--22-22-----2--22-22--2--22-22--2--22-22--2--22-22-|
   --3--33-33--3--33-33--3--33-33--3--33-33-----3--33-33--3--33-33--3--33-33--3--33-33-|


         - [MATTHEW]


"...I'm passed out in your garden,"              "...I'm in I can't get off,"

e |------------------------------------------------------------------------------------
B |------------------------------------------------------------------------------------
G |-----5------------------------------------------------7-----------------------------
D |-----X------------------------------------------------X-----------------------------
A |-----3------------------------------------------------5-----------------------------
E |------------------------------------------------------------------------------------

"...so.............................soft."
     E   F     G     F     E   D   C   B
   ------------------------------------------------------------------------------------
   ------------------------------------------------------------------------------------
   --9-9-10-10-12-12-10-10-9-9-7-7-5-5-4-4---------------------------------------------
   --X-X--X--X--X--X--X--X-X-X-X-X-X-X-X-X---------------------------------------------
   --7-7--8--8-10-10--8--8-7-7-5-5-3-3-2-2---------------------------------------------
   ------------------------------------------------------------------------------------

"...I'd pop myself in your body,"                "...I'd come into your party but"
        C6/9                                             D7
   ------------------------------------------------------------------------------------
   ------------------------------------------------------------------------------------
   -----5------------------------------------------------7-----------------------------
   -----X------------------------------------------------X-----------------------------
   -----3------------------------------------------------5-----------------------------
   ------------------------------------------------------------------------------------

                             "...I'm soft." "...but.......................I'm so-o-oft.
     E   F     G     F     E   D   C   B         E   F     G     F     E   D   C   B
   ------------------------------------------------------------------------------------|
   ------------------------------------------------------------------------------------|
   --9-9-10-10-12-12-10-10-9-9-7-7-5-5-4-4-------9-9-10-10-12-12-10-10-9-9-7-7-5-5-4-4-|
   --X-X--X--X--X--X--X--X-X-X-X-X-X-X-X-X-------X-X--X--X--X--X--X--X-X-X-X-X-X-X-X-X-|
   --7-7--8--8-10-10--8--8-7-7-5-5-3-3-2-2-------7-7--8--8-10-10--8--8-7-7-5-5-3-3-2-2-|
   ------------------------------------------------------------------------------------|



[MIDDLE 8] - [CALEB] (Note: the chord stabs are played on the "off" beats.)

               | 1 & 2 & 3 & 4 & | 1 & 2 & 3 & 4 & | 1 & 2 & 3 & 4 & | 1 & 2 & 3 & 4 & 
               |                 |                 |                 |                 
               |   C*            |   E7            |   Am            |   Am            
             e |-----------------|-----------------|-----------------|-----------------
             B |---1---1---1---1-|---3---3---3---3-|---1---1---1---1-|---1---1---1---1-
             G |---0---0---0---0-|---1---1---1---1-|---2---2---2---2-|---2---2---2---2-
             D |---2---2---2---2-|---2---2---2---2-|---2---2---2---2-|---2---2---2---2-
             A |---3---3---3---3-|---2---2---2---2-|---0---0---0---0-|---0---0---0---0-
             E |-----------------|---0---0---0---0-|-----------------|-----------------

                 1 & 2 & 3 & 4 & | 1 & 2 & 3 & 4 & | 1 & 2 & 3 & 4 & | 1 & 2 & 3 & 4 & |
                                 |                 |                 |                 |
                   C*            |   E7            |   Am            |   Am            |
                -----------------|-----------------|-----------------|-----------------|
                ---1---1---1---1-|---3---3---3---3-|---1---1---1---1-|---1---1---1---1-|
                ---0---0---0---0-|---1---1---1---1-|---2---2---2---2-|---2---2---2---2-|
                ---2---2---2---2-|---2---2---2---2-|---2---2---2---2-|---2---2---2---2-|
                ---3---3---3---3-|---2---2---2---2-|---0---0---0---0-|---0---0---0---0-|
                -----------------|---0---0---0---0-|-----------------|-----------------|


           - [MATTHEW]

e |------------------------------------------------------------------------------------
B |------------------------------------------------------------------------------------
G |------------------------------------------------------------------------------------
D |------------------------------------------------------------------------------------
A |-3-3-3-3-3-3-3-3--------------------------------------------------------------------
E |-----------------0-0-0-4-4-4-4-4-5-5-5-5-3-3-3-3-1-1-1-1-3-3-3-3--------------------

   ------------------------------------------------------------------------------------|
   ------------------------------------------------------------------------------------|
   ------------------------------------------------------------------------------------|
   ------------------------------------------------------------------------------------|
   -3-3-3-3-3-3-3-3--------------------------------------------------------------------|
   -----------------0-0-0-4-4-4-4-4-5-5-5-5-3-3-3-3-1-1-1-1-3-3-3-3--------------------|



[OUTRO] - [CALEB] (Note: the chord stabs are played on the "on" beats.)

               | 1 & 2 & 3 & 4 & | 1 & 2 & 3 & 4 & | 1 & 2 & 3 & 4 & | 1 & 2 & 3 & 4 & 
               |                 |                 |                 |                 
               | C*              | E7              | Am              | Am            
             e |-----------------|-----------------|-----------------|-----------------
             B |-1---1---1---1---|-3---3---3---3---|-1---1---1---1---|-1---1---1---1---
             G |-0---0---0---0---|-1---1---1---1---|-2---2---2---2---|-2---2---2---2---
             D |-2---2---2---2---|-2---2---2---2---|-2---2---2---2---|-2---2---2---2---
             A |-3---3---3---3---|-2---2---2---2---|-0---0---0---0---|-0---0---0---0---
             E |-----------------|-0---0---0---0---|-----------------|-----------------

                 1 & 2 & 3 & 4 & | 1 & 2 & 3 & 4 & | 1 & 2 & 3 & 4 & | 1 & 2 & 3 & 4 & 
                                 |                 |                 |                 
                 C*              | E7              | Am              | Am              
                -----------------|-----------------|-----------------|-----------------
                -1---1---1---1---|-3---3---3---3---|-1---1---1---1---|-1---1---1---1---
                -0---0---0---0---|-1---1---1---1---|-2---2---2---2---|-2---2---2---2---
                -2---2---2---2---|-2---2---2---2---|-2---2---2---2---|-2---2---2---2---
                -3---3---3---3---|-2---2---2---2---|-0---0---0---0---|-0---0---0---0---
                -----------------|-0---0---0---0---|-----------------|-----------------

    C                 Cadd9             Am7               Am7
   -0--00-00--000-00--0--00-00--000-00--0--00-00--000-00--0--00-00--000-00-------------
   -1--11-11--111-11--3--33-33--333-33--1--11-11--111-11--1--11-11--111-11-------------
   -0--00-00--000-00--0--00-00--000-00--0--00-00--000-00--0--00-00--000-00-------------
   -2--22-22--222-22--2--22-22--222-22--2--22-22--222-22--2--22-22--222-22-------------
   -3--33-33--333-33--3--33-33--333-33--0--00-00--000-00--0--00-00--000-00-------------
   ------------------------------------------------------------------------------------

    C                 Cadd9             Am7               Am7       A7sus
   -0--00-00--000-00--0--00-00--000-00--0--00-00--000-00--0--00-00--0------------------|
   -1--11-11--111-11--3--33-33--333-33--1--11-11--111-11--1--11-11--3------------------|
   -0--00-00--000-00--0--00-00--000-00--0--00-00--000-00--0--00-00--0--LET RING--------|
   -2--22-22--222-22--2--22-22--222-22--2--22-22--222-22--2--22-22--2------------------|
   -3--33-33--333-33--3--33-33--333-33--0--00-00--000-00--0--00-00--0------------------|
   ------------------------------------------------------------------------------------|


        - [MATTHEW] (Note: the chord stabs are played on the "off" beats.)

               | 1 & 2 & 3 & 4 & | 1 & 2 & 3 & 4 & | 1 & 2 & 3 & 4 & | 1 & 2 & 3 & 4 & 
               |                 |                 |                 |                 
               |   C             |   E      G#     |  A       G      |  F       G      
             e |-----------------|-----------------|-----------------|-----------------
             B |-----------------|-----------------|-----------------|-----------------
             G |---5---5---5---5-|---9---9--13--13-|--14--14--12--12-|--10--10--12--12-
             D |---X---X---X---X-|---X---X---X---X-|---X---X---X---X-|---X---X---X---X-
             A |---3---3---3---3-|---7---7--11--11-|--12--12--10--10-|---8---8--10--10-
             E |-----------------|-----------------|-----------------|-----------------

                 1 & 2 & 3 & 4 & | 1 & 2 & 3 & 4 & | 1 & 2 & 3 & 4 & | 1 & 2 & 3 & 4 & |
                                 |                 |                 |                 |
                   C             |   E      G#     |  A       G      |  F       G      |
                -----------------|-----------------|-----------------|-----------------|
                -----------------|-----------------|-----------------|-----------------|
                ---5---5---5---5-|---9---9--13--13-|--14--14--12--12-|--10--10--12---\-|
                ---X---X---X---X-|---X---X---X---X-|---X---X---X---X-|---X---X---X-----|
                ---3---3---3---3-|---7---7--11--11-|--12--12--10--10-|---8---8--10---\-|
                -----------------|-----------------|-----------------|-----------------|

    C                       E           G#                      A
e |--------------------------------------------------------------------------------------
B |--------------------------------------------------------------------------------------
G |-555555555555555555555555999999999999131313131313131313131313141414141414141414141414-
D |-XXXXXXXXXXXXXXXXXXXXXXXXXXXXXXXXXXXX-X-X-X-X-X-X-X-X-X-X-X-X-X-X-X-X-X-X-X-X-X-X-X-X-
A |-333333333333333333333333777777777777111111111111111111111111121212121212121212121212-
E |--------------------------------------------------------------------------------------

    G                       F                       G
   --------------------------------------------------------------------------------------
   --------------------------------------------------------------------------------------
   -121212121212121212121212101010101010101010101010121212121212121212121212-------------
   --X-X-X-X-X-X-X-X-X-X-X-X-X-X-X-X-X-X-X-X-X-X-X-X-X-X-X-X-X-X-X-X-X-X-X-X-------------
   -101010101010101010101010-8-8-8-8-8-8-8-8-8-8-8-8101010101010101010101010-------------
   --------------------------------------------------------------------------------------

    C                       E           G#                      A
   --------------------------------------------------------------------------------------
   --------------------------------------------------------------------------------------
   -555555555555555555555555999999999999131313131313131313131313141414141414141414141414-
   -XXXXXXXXXXXXXXXXXXXXXXXXXXXXXXXXXXXX-X-X-X-X-X-X-X-X-X-X-X-X-X-X-X-X-X-X-X-X-X-X-X-X-
   -333333333333333333333333777777777777111111111111111111111111121212121212121212121212-
   --------------------------------------------------------------------------------------

    G                       F                       G    F#  F  E  Eb D  C# C
   --------------------------------------------------------------------------------------|
   --------------------------------------------------------------------------------------|
   -12121212121212121212121210101010101010101010101012-\11-\10-\9-\8-\7-\6-\5------------|
   --X-X-X-X-X-X-X-X-X-X-X-X-X-X-X-X-X-X-X-X-X-X-X-X-X---X---X--X--X--X--X--X------------|
   -101010101010101010101010-8-8-8-8-8-8-8-8-8-8-8-810-\-9-\-8-\7-\6-\5-\4-\3------------|
   --------------------------------------------------------------------------------------|






****************************************************************************************
****************************************************************************************
****************************************************************************************






Group/Singer Name:      Kings Of Leon
Song:                   "Razz"
Additional Info:        Aha Shake Heartbreak - Track 08
Tuning:                 Standard - [EADGBe]
Tabbed By:              Dean Hill - Comments, Suggestions? the.scotsman@blueyonder.co.uk


[Chords Used]   G(3554XX); Em7(0554XX); F#(244322); A(577655); B(799877) + SEE TAB


[Intro]         | 1 & 2 & 3 & 4 & | 1 & 2 & 3 & 4 & | 1 & 2 & 3 & 4 & | 1 & 2 & 3 & 4 & |
                |-----------------|-----------------|-----------------|-----------------|
                | BASS            | BASS            | BASS            | BASS + DRUMS    |
                |   Em7     G     |   Em7     G     |   Em7     G     |   Em7     G     |


[Verse 1] - [KEEP PLAYING RHYTHM THROUGHOUT]

                Just like the girlies back at corner stone,
                Wash my bugle boy a watching my throne,
                Sweet mutilation of a solid nothing man,
                Lord have mercy shake is falling through your hand.

                
[Chorus]        | F#              | F#              | F#              | A               |
                                                                                Razz the (kid)


[Link]          |   Em7     G     |   Em7     G     |   Em7     G     |   Em7     G     |
                  kid.


[Verse 2] - [KEEP PLAYING RHYTHM THROUGHOUT]

                Because you love me I'm the chosen one,
                These are the days to not be having fun.
                I listen back to what you told me before,
                Just tell me where to come, I'll knock down the door.


[Chorus]        | F#              | F#              | F#              | A               |
                                                                                Razz the (kid)
                | F#              | F#              | F#              | A               |
                  kid.                                                          Razz the (kid)


[Chorus/Solo]   | F#              | A       B       | F#              | A       B       |
                  kid.
                | F#              | A       B       | F#              | A       B       |
                | F#              | A       B       | F#              | A       B       |
                | F#              | A       B       | F#              | A       B       |


[Outro]         | BASS            | BASS            | BASS            | A       B       |
                | F#              | F#              | F#              | A               |
                                                                                Razz the (kid)
                | F#              | F#              | F#              | A               |
                  kid.                                                          Razz the (kid)
                | F#              | F#              | F#              | A               |
                  kid                                                           Razz the (kid)
                | F#              | F#              | F#              | A               |
                  kid.






            ****************************
            *KINGS OF LEON - RAZZ - TAB*
            ****************************



b  -  Bend
sb -  Slow Bend
() -  Bracketed numbers are the note you bend up to
h  -  Hammer On
p  -  Pull Off
r  -  Return
/  -  Slide Up
\  -  Slide Down
d  -  Strum Down
u  -  Strum Up
PM -  Palm Mute
<> -  Natural Harmonics
^  -  Vibrato






[INTRO] - [CALEB] @ 00:07

  | 1 & 2 & 3 & 4 & | 1 & 2 & 3 & 4 & | 1 & 2 & 3 & 4 & | 1 & 2 & 3 & 4 & |
  |                 |                 |                 |                 |
  |   Em7     G     |   Em7     G     |   Em7     G     |   Em7     G     |
e |-----------------------------------------------------------------------|
B |-----------------------------------------------------------------------|
G |-----------4---4-------------4---4-------------4---4-------------4---4-|
D |-----------5---5-------------5---5-------------5---5-------------5---5-|
A |---5---5---5---5-----5---5---5---5-----5---5---5---5-----5---5---5---5-|
E |---0---0---3---3-----0---0---3---3-----0---0---3---3-----0---0---3---3-|


        - [MATTHEW] @ 00:07

e |------------------------------------------------------------------------------------|
B |------------------5-----------------2-----------------5-----------------2-----------|
G |------------------5-----------------2-----------------5-----------------2-----------|
D |------------------5-----------------2-----------------5-----------------2-----------|
A |-7-\-------------------7-----------------7-----------------7------------------------|
E |------0--3--0--5---------0--3--0--5--------0--3--0--5--------0--3--0--5-------------|



[VERSE 1] - [CALEB]

  | 1 & 2 & 3 & 4 & | 1 & 2 & 3 & 4 & | 1 & 2 & 3 & 4 & | 1 & 2 & 3 & 4 & 
  |                 |                 |                 |                 
  |   Em7     G     |   Em7     G     |   Em7     G     |   Em7     G     
e |-----------------------------------------------------------------------
B |-----------------------------------------------------------------------
G |-----------4---4-------------4---4-------------4---4-------------4---4-
D |-----------5---5-------------5---5-------------5---5-------------5---5-
A |---5---5---5---5-----5---5---5---5-----5---5---5---5-----5---5---5---5-
E |---0---0---3---3-----0---0---3---3-----0---0---3---3-----0---0---3---3-

    1 & 2 & 3 & 4 & | 1 & 2 & 3 & 4 & | 1 & 2 & 3 & 4 & | 1 & 2 & 3 & 4 & |
                    |                 |                 |                 |
      Em7     G     |   Em7    G      |   Em7     G     |   Em7     G     |
   -----------------------------------------------------------------------|
   -----------------------------------------------------------------------|
   -----------4---4-------------4---4-------------4---4---------4---4---4-|
   -----------5---5-------------5---5-------------5---5---------5---5---5-|
   ---5---5---5---5-----5---5---5---5-----5---5---5---5-----5---5---5---5-|
   ---0---0---3---3-----0---0---3---3-----0---0---3---3-----0---0---3---3-|


          - [MATTHEW] (NOTHING PLAYED)



[CHORUS] - [CALEB]

    F#              F#              F#              A
e |-22-22-22-22-----22-22-22-22-----22-22-22-22-----55-55-55-55------------------------|
B |-22-22-22-22-----22-22-22-22-----22-22-22-22-----55-55-55-55------------------------|
G |-33-33-33-33-----33-33-33-33-----33-33-33-33-----66-66-66-66------------------------|
D |-44-44-44-44-----44-44-44-44-----44-44-44-44-----77-77-77-77------------------------|
A |-44-44-44-44-----44-44-44-44-----44-44-44-44-----77-77-77-77------------------------|
E |-22-22-22-22-----22-22-22-22-----22-22-22-22-----55-55-55-55------------------------|


         - [MATTHEW]

    F#          E6  F#              F#          E6  A
e |------------------------------------------------------------------------------------|
B |------------------------------------------------------------------------------------|
G |-3---------------3---------------3---------------6----------------------------------|
D |-4---------------4---------------4---------------7----------------------------------|
A |-4-----------4---4---------------4-----------4---7----------------------------------|
E |-2-----------0---2---------------2-----------0---5----------------------------------|



[LINK] - [CALEB]

  | 1 & 2 & 3 & 4 & | 1 & 2 & 3 & 4 & | 1 & 2 & 3 & 4 & | 1 & 2 & 3 & 4 & |
  |                 |                 |                 |                 |
  |   Em7     G     |   Em7     G     |   Em7     G     |   Em7     G     |
e |-----------------------------------------------------------------------|
B |-----------------------------------------------------------------------|
G |-----------4---4-------------4---4-------------4---4-------------4---4-|
D |-----------5---5-------------5---5-------------5---5-------------5---5-|
A |---5---5---5---5-----5---5---5---5-----5---5---5---5-----5---5---5---5-|
E |---0---0---3---3-----0---0---3---3-----0---0---3---3-----0---0---3---3-|


        - [MATTHEW]

e |------------------------------------------------------------------------------------|
B |------------------5-----------------2-----------------5-----------------2-----------|
G |------------------5-----------------2-----------------5-----------------2-----------|
D |------------------5-----------------2-----------------5-----------------2-----------|
A |-7-\-------------------7-----------------7-----------------7------------------------|
E |------0--3--0--5---------0--3--0--5--------0--3--0--5--------0--3--0--5-------------|



[VERSE 2] - [CALEB]

  | 1 & 2 & 3 & 4 & | 1 & 2 & 3 & 4 & | 1 & 2 & 3 & 4 & | 1 & 2 & 3 & 4 & 
  |                 |                 |                 |                 
  |   Em7     G     |   Em7     G     |   Em7     G     |   Em7     G     
e |-----------------------------------------------------------------------
B |-----------------------------------------------------------------------
G |-----------4---4-------------4---4-------------4---4-------------4---4-
D |-----------5---5-------------5---5-------------5---5-------------5---5-
A |---5---5---5---5-----5---5---5---5-----5---5---5---5-----5---5---5---5-
E |---0---0---3---3-----0---0---3---3-----0---0---3---3-----0---0---3---3-

    1 & 2 & 3 & 4 & | 1 & 2 & 3 & 4 & | 1 & 2 & 3 & 4 & | 1 & 2 & 3 & 4 & |
                    |                 |                 |                 |
      Em7     G     |   Em7    G      |   Em7     G     |   Em7     G     |
   -----------------------------------------------------------------------|
   -----------------------------------------------------------------------|
   -----------4---4-------------4---4-------------4---4-------------4---4-|
   -----------5---5-------------5---5-------------5---5-------------5---5-|
   ---5---5---5---5-----5---5---5---5-----5---5---5---5-----5---5---5---5-|
   ---0---0---3---3-----0---0---3---3-----0---0---3---3-----0---0---3---3-|


        - [MATTHEW]

e |------------------------------------------------------------------------------------
B |------------------5-----------------2-----------------5-----------------2-----------
G |------------------5-----------------2-----------------5-----------------2-----------
D |------------------5-----------------2-----------------5-----------------2-----------
A |-7-\-------------------7-----------------7-----------------7------------------------
E |------0--3--0--5---------0--3--0--5--------0--3--0--5--------0--3--0--5-------------

   ------------------------------------------------------------------------------------|
   ------------------5-----------------2-----------------5-----------------2-----------|
   ------------------5-----------------2-----------------5-----------------2-----------|
   ------------------5-----------------2-----------------5-----------------2-----------|
   ----7------------------7-----------------7-----------------7------------------------|
   ------0--3--0--5---------0--3--0--5--------0--3--0--5--------0--3--0--5-------------|



[CHORUS] - [CALEB]

    F#              F#              F#              A
e |-22-22-22-22-----22-22-22-22-----22-22-22-22-----55-55-55-55------------------------
B |-22-22-22-22-----22-22-22-22-----22-22-22-22-----55-55-55-55------------------------
G |-33-33-33-33-----33-33-33-33-----33-33-33-33-----66-66-66-66------------------------
D |-44-44-44-44-----44-44-44-44-----44-44-44-44-----77-77-77-77------------------------
A |-44-44-44-44-----44-44-44-44-----44-44-44-44-----77-77-77-77------------------------
E |-22-22-22-22-----22-22-22-22-----22-22-22-22-----55-55-55-55------------------------

    F#              F#              F#              A
   -22-22-22-22-----22-22-22-22-----22-22-22-22-----55-55-55-55------------------------|
   -22-22-22-22-----22-22-22-22-----22-22-22-22-----55-55-55-55------------------------|
   -33-33-33-33-----33-33-33-33-----33-33-33-33-----66-66-66-66------------------------|
   -44-44-44-44-----44-44-44-44-----44-44-44-44-----77-77-77-77------------------------|
   -44-44-44-44-----44-44-44-44-----44-44-44-44-----77-77-77-77------------------------|
   -22-22-22-22-----22-22-22-22-----22-22-22-22-----55-55-55-55------------------------|


         - [MATTHEW]

    F#          E6  F#              F#          E6  A
e |------------------------------------------------------------------------------------
B |------------------------------------------------------------------------------------
G |-3---------------3---------------3---------------6----------------------------------
D |-4---------------4---------------4---------------7----------------------------------
A |-4-----------4---4---------------4-----------4---7----------------------------------
E |-2-----------0---2---------------2-----------0---5----------------------------------

    F#          E6  F#              F#          E6  A
   ------------------------------------------------------------------------------------|
   ------------------------------------------------------------------------------------|
   -3---------------3---------------3---------------6----------------------------------|
   -4---------------4---------------4---------------7----------------------------------|
   -4-----------4---4---------------4-----------4---7----------------------------------|
   -2-----------0---2---------------2-----------0---5----------------------------------|



[CHORUS/SOLO] - [CALEB]

    F#    Em7 A   B       F#    Em7 A   B       F#    Em7 A   B       F#    Em7 A   B
e |-2-----2---------------2-----2---------------2-----2---------------2-----2----------
B |-2-----2---5----7------2-----2---5----7------2-----2---5----7------2-----2---5----7-
G |-3-----3---6----8------3-----3---6----8------3-----3---6----8------3-----3---6----8-
D |-4-----4---7----9------4-----4---7----9------4-----4---7----9------4-----4---7----9-
A |-4-----4---7----9------4-----4---7----9------4-----4---7----9------4-----4---7----9-
E |-2-----0---5----7------2-----0---5----7------2-----0---5----7------2-----0---5----7-

    F#              A     B         F#              A     B
   -22-22-22-22---2-55-55-77-777----22-22-22-22---2-55-55-77-777-----------------------
   -22-22-22-22---2-55-55-77-777----22-22-22-22---2-55-55-77-777-----------------------
   -33-33-33-33---3-66-66-88-888----33-33-33-33---3-66-66-88-888-----------------------
   -44-44-44-44---4-77-77-99-999----44-44-44-44---4-77-77-99-999-----------------------
   -44-44-44-44---4-77-77-99-999----44-44-44-44---4-77-77-99-999-----------------------
   -22-22-22-22---2-55-55-77-777----22-22-22-22---2-55-55-77-777-----------------------

    F#              A     B         F#              A     B
   -22-22-22-22---2-55-55-77-777----22-22-22-22---2-55-55-77-777-----------------------|
   -22-22-22-22---2-55-55-77-777----22-22-22-22---2-55-55-77-777-----------------------|
   -33-33-33-33---3-66-66-88-888----33-33-33-33---3-66-66-88-888-----------------------|
   -44-44-44-44---4-77-77-99-999----44-44-44-44---4-77-77-99-999-----------------------|
   -44-44-44-44---4-77-77-99-999----44-44-44-44---4-77-77-99-999-----------------------|
   -22-22-22-22---2-55-55-77-777----22-22-22-22---2-55-55-77-777-----------------------|


              - [MATTHEW] @ 01:16

e |------------------2---------------------------------------------------------------0-
B |------------------2---------------------------------------------------------------2-
G |----------------------------------------------------------------------6---------2---
D |-4---------------------4-----------------X----4-------------------5/7---7---2/4-----
A |------0--2--0--4----------0--2--0--4--0--X-------0--2--0--4b(4.5)-------------------
E |------------------------------------------------------------------------------------

Don't be too particular with
this part. ---------------------¬
Just try and get a feel for it. |
                                |
                                \/
   -22222-22-222/55555-5/7-777---------------------------------------------------------
   -22222-22-222/55555-5/7-777--17b(19)(19)(19)(19)(19)r17(19)(19)r17(19)(19)r17(19)---
   ------------------------------------------------------------------------------------
   ------------------------------------------------------------------------------------
   ------------------------------------------------------------------------------------
   ------------------------------------------------------------------------------------

   ------------------------------------------------------22222-22-222/55555-5/7-777----
   -8b(10)(10)(10)(10)(10)-10b(12)(12)r10(12)(12)-(12)---22222-22-222/55555-5/7-777----
   ------------------------------------------------------------------------------------
   ------------------------------------------------------------------------------------
   ------------------------------------------------------------------------------------
   ------------------------------------------------------------------------------------

   ------------------------------------------------------------------------------------|
   -17b(19)(19)(19)(19)(19)r17(19)(19)r17(19)(19)r17(19)-8b(10)(10)(10)(10)(10)10sb(14)|
   ------------------------------------------------------------------------------------|
   ------------------------------------------------------------------------------------|
   ------------------------------------------------------------------------------------|
   ------------------------------------------------------------------------------------|



[OUTRO] - [CALEB] @ 01:37-¬       THIS PART @ 01:42------¬

                           F#                             A     B
e |------------------------2------------------------------55-55-77-777-----------------
B |------------------------2------------------------------55-55-77-777-----------------
G |------------------------3------------------------------66-66-88-888-----------------
D |------------------------4------------------------------77-77-99-999-----------------
A |------------------------4------------------------------77-77-99-999-----------------
E |------------------------2------------------------------55-55-77-777-----------------

    F#              F#              F#              A
   -22-22-22-22-----22-22-22-22-----22-22-22-22-----55-55-55-55------------------------
   -22-22-22-22-----22-22-22-22-----22-22-22-22-----55-55-55-55------------------------
   -33-33-33-33-----33-33-33-33-----33-33-33-33-----66-66-66-66------------------------
   -44-44-44-44-----44-44-44-44-----44-44-44-44-----77-77-77-77------------------------
   -44-44-44-44-----44-44-44-44-----44-44-44-44-----77-77-77-77------------------------
   -22-22-22-22-----22-22-22-22-----22-22-22-22-----55-55-55-55------------------------

    F#              F#              F#              A
   -22-22-22-22-----22-22-22-22-----22-22-22-22-----55-55-55-55------------------------
   -22-22-22-22-----22-22-22-22-----22-22-22-22-----55-55-55-55------------------------
   -33-33-33-33-----33-33-33-33-----33-33-33-33-----66-66-66-66------------------------
   -44-44-44-44-----44-44-44-44-----44-44-44-44-----77-77-77-77------------------------
   -44-44-44-44-----44-44-44-44-----44-44-44-44-----77-77-77-77------------------------
   -22-22-22-22-----22-22-22-22-----22-22-22-22-----55-55-55-55------------------------

    F#              F#              F#              A
   -22-22-22-22-----22-22-22-22-----22-22-22-22-----55-55-55-55------------------------
   -22-22-22-22-----22-22-22-22-----22-22-22-22-----55-55-55-55------------------------
   -33-33-33-33-----33-33-33-33-----33-33-33-33-----66-66-66-66------------------------
   -44-44-44-44-----44-44-44-44-----44-44-44-44-----77-77-77-77------------------------
   -44-44-44-44-----44-44-44-44-----44-44-44-44-----77-77-77-77------------------------
   -22-22-22-22-----22-22-22-22-----22-22-22-22-----55-55-55-55------------------------

    F#
   -2----------------------------------------------------------------------------------|
   -2----------------------------------------------------------------------------------|
   -3--LET CHORD RING------------------------------------------------------------------|
   -4----------------------------------------------------------------------------------|
   -4----------------------------------------------------------------------------------|
   -2----------------------------------------------------------------------------------|


        - [MATTHEW] @ 01:42

    A     B
e |-55-55-77-777-----------------------------------------------------------------------
B |-55-55-77-777-----------------------------------------------------------------------
G |-66-66-88-888-----------------------------------------------------------------------
D |-77-77-99-999-----------------------------------------------------------------------
A |-77-77-99-999-----------------------------------------------------------------------
E |-55-55-77-777-----------------------------------------------------------------------

    F#          E6  F#              F#          E6  A
   ------------------------------------------------------------------------------------
   ------------------------------------------------------------------------------------
   -3---------------3---------------3---------------6--\-------------------------------
   -4---------------4---------------4---------------7--\-------------------------------
   -4-----------4---4---------------4-----------4---7--\-------------------------------
   -2-----------0---2---------------2-----------0---5--\-------------------------------

    F#          E6  F#              F#          E6  A
   ------------------------------------------------------------------------------------
   ------------------------------------------------------------------------------------
   -3---------------3---------------3---------------6----------------------------------
   -4---------------4---------------4---------------7----------------------------------
   -4-----------4---4---------------4-----------4---7----------------------------------
   -2-----------0---2---------------2-----------0---5----------------------------------
                                                                                     F#
   ------------------2-------------------------------------------------------------0-2-|
   ------------------2-------------------------------------------------------------2-2-|
   --------------------------------------------------------------------6---------2---3-|
   -4---------------------4--------------------4-------------------5/7---7---2/4-----4-|
   ------0--2--0--4----------0--2--0--4--0--------0--2--0--4b(4.5)-------------------4-|
   ----------------------------------------------------------------------------------2-|






****************************************************************************************
****************************************************************************************
****************************************************************************************






Group/Singer Name:      Kings Of Leon
Song:                   "Day Old Blues"
Additional Info:        Aha Shake Heartbreak - Track 09
Tuning:                 Standard - [EADGBe]
Tabbed By:              Dean Hill - Comments, Suggestions? the.scotsman@blueyonder.co.uk


[Chords Used]   E(022100); F#m11/E(044200); Emaj7(066400); E*([12][14][14][13][12][12])
                F#m(X9[11][11][10]9); E**(X7999X); A(X02220); B11/A(X04440) + SEE TAB


[Intro]         | 1     & 2 & 3 & 4 &        | 1 & 2 & 3 & 4 & |
                |----------------------------|-----------------|
                | Emaj7           F#m11/E    |     E           |
                | Emaj7           F#m11/E    |   E             |
                | F#m11/E         Emaj7      |     E           |
                | Emaj7           F#m11/E    |   E             |


[Verse 1]       Emaj7              F#m11/E           E
                Toss  me a breath, when     you hold me down,
                Emaj7              F#m11/E     E
                Hot   like a razor on my    fa-ace.
                F#m11/E                Emaj7           E
                Something's a growing, that don't help me now,
                Emaj7             F#m11/E    E
                Paging the doctor just    in case.


[Link]          | Emaj7           F#m11/E    |     E           |


[Verse 2]       Emaj7           F#m11/E        E
                Low and behold, things are killing me,
                Emaj7             F#m11/E       E
                Silly expectation of a     drea-eam.
                F#m11/E                  Emaj7      E
                Girls are gonna love the way I toss my hair,
                Emaj7                   F#m11/E    E
                Boys are gonna hate the way      I seem.


[Chorus] - [MATTHEW TAB]

                Day old, day old, day old,
                Day old, day old, day old,
                Day old, day old, day old, b-lue-ues.
                
                Day old, day old, day old,
                Day old, day old, day old,
                Day old, day old, day old, b-lue-ues.
                
                Day old, day old, day O-LD,
                Day old, day old, day old,
                Day old, day old, day old, b-lue-ues.
                
                Day old, day old, day old,
                Day old, day old, day old.


[Link]          | Emaj7           F#m11/E    |     E           |


[Verse 3]       Emaj7                  F#m11/E     E
                Peach Christmas lights spitting German ling,
                Emaj7                F#m11/E     E
                Feels like a fast or homeless sleep.
                   F#m11/E                Emaj7        E
                At least there's a record that  I love to play,
                Emaj7                       F#m11/E    E
                Dreaming 'bout a place I'll never   see.


[Chorus] - [MATTHEW TAB]

                Day old, day old, day old,
                Day old, day old, day old,
                Day old, day old, day old, b-lue-ues.
                
                Day old, day old, day old,
                Day old, day old, day old,
                Day old, day old, day old, b-lue-ues.
                
                Day old, day old, day O-LD,
                Day old, day old, day old,
                Day old, day old, day old, b-lue-ues.
                
                Day old, day old, day old,
                Day old, day old, day old,
                Day old, day old, day old, b-lue-ues.


[Middle 8]      A
                Betty, Betty, Annie is a praying,
                B11/A
                Baby     with a man-like lung,
                A
                  Smell her crying fighting back a fever,
                B11/A
                Mad as hell give up.


[Link]          | Emaj7           F#m11/E    |     E           |


[Outro] - [MATTHEW TAB]

                Day old, day old, day old,
                Day old, day old, day old,
                Day old, day old, day old, b-lue-ues.
                
                Day old, day old, day old,
                Day old, day old, day old,
                Day old, day old, day old, b-lue-ues.
                
                Day old, day old, day O-LD,
                Day old, day old, day old,
                Day old, day old, day old, b-lue-ues.
                
                Day old, day old, day old,
                Day old, day old, day old,
                Day old, day old, day old, b-lue-ues.
                
                Day old, day old, day old,
                Day old, day old, day old,
                Day old, day old, day old, b-lue-ues.
                
                Day old, day old, day old,
                Day old, day old, day old,
                Day old, day old, day old, b-lue-ues.






            *************************************
            *KINGS OF LEON - DAY OLD BLUES - TAB*
            *************************************



b  -  Bend
sb -  Slow Bend
() -  Bracketed numbers are the note you bend up to
h  -  Hammer On
p  -  Pull Off
r  -  Return
/  -  Slide Up
\  -  Slide Down
d  -  Strum Down
u  -  Strum Up
PM -  Palm Mute
<> -  Natural Harmonics
^  -  Vibrato






[INTRO] - (Acoustic, MATTHEW)

    Emaj7           F#m11/E   E                         Emaj7           F#m11/E   E
e |------------------------------0----------------------0----0---0-0----0---0-0---0----
B |-0----0---0-0----0---0-0------0----------------------0----0---0-0----0---0-0---0----
G |-4----4---4-4----2---2-2---1--1----------------------4----4---4-4----2---2-2---1----
D |-6----6---6-6----4---4-4---2--2----------------------6----6---6-6----4---4-4---2----
A |-6----6---6-6----4---4-4---2--2----------------------6----6---6-6----4---4-4---2----
E |------------------------------0------------------------------------------------0----

    F#m11/E         Emaj7        E                      Emaj7           F#m11/E   E
   -0----0---0-0----0---0--------0----------------------0----0---0-0----0---0-0---0----
   -0----0---0-0----0---0--------0----------------------0----0---0-0----0---0-0---0----
   -2----2---2-2----4---4--------1----------------------4----4---4-4----2---2-2---1----
   -4----4---4-4----6---6-6------2----------------------6----6---6-6----4---4-4---2----
   -4----4---4-4----6------------2----------------------6----6---6-6----4---4-4---2----
   ---------------------------0--0------------------------------------------------0----



[VERSE 1] - (Acoustic, MATTHEW)

    Emaj7           F#m11/E   E                         Emaj7           F#m11/E   E
e |-0----0---0-0----0---0-0------0----------------------0----0---0-0----0---0-0---0----
B |-0----0---0-0----0---0-0------0----------------------0----0---0-0----0---0-0---0----
G |-4----4---4-4----2---2-2---1--1----------------------4----4---4-4----2---2-2---1----
D |-6----6---6-6----4---4-4---2--2----------------------6----6---6-6----4---4-4---2----
A |-6----6---6-6----4---4-4---2--2----------------------6----6---6-6----4---4-4---2----
E |-0----0---0-0----0---0-0---0--0----------------------0----0---0-0----0---0-0---0----

    F#m11/E         Emaj7        E                      Emaj7           F#m11/E   E
   -0----0---0-0----0---0--------0----------------------0----0---0-0----0---------0----|
   -0----0---0-0----0---0--------0----------------------0----0---0-0----0---------0----|
   -2----2---2-2----4---4-4------1----------------------4----4---4-4----2---------1----|
   -4----4---4-4----6---6-6------2----------------------6----6---6-6----4---------2----|
   -4----4---4-4----6------------2----------------------6----6---6-6----4---------2----|
   -0----0---0-0----0---------0--0----------------------0----0---0-0----0---------0----|



[LINK] - (Acoustic, MATTHEW) + (Clean Electric 2, CALEB)

    Emaj7           F#m11/E   E
e |-0----0---0-0----0---0-0------0-----------------------------------------------------|
B |-0----0---0-0----0---0-0------0-----------------------------------------------------|
G |-4----4---4-4----2---2-2---1--1-----------------------------------------------------|
D |-6----6---6-6----4---4-4---2--2-----------------------------------------------------|
A |-6----6---6-6----4---4-4---2--2-----------------------------------------------------|
E |-0----0---0-0----0---0-0---0--0-----------------------------------------------------|



[VERSE 2] - (Acoustic, MATTHEW) + (Clean Electric 2, CALEB)
            [The clean electric is REALLY, REALLY low volume, but it IS there!)

    Emaj7           F#m11/E   E                         Emaj7           F#m11/E   E
e |-0----0---0-0----0---0-0------0----------------------0----0---0-0----0---0-0---0----
B |-0----0---0-0----0---0-0------0----------------------0----0---0-0----0---0-0---0----
G |-4----4---4-4----2---2-2---1--1----------------------4----4---4-4----2---2-2---1----
D |-6----6---6-6----4---4-4---2--2----------------------6----6---6-6----4---4-4---2----
A |-6----6---6-6----4---4-4---2--2----------------------6----6---6-6----4---4-4---2----
E |-0----0---0-0----0---0-0---0--0----------------------0----0---0-0----0---0-0---0----

(These brackets---------¬-¬---¬ mean the electric plays the full chords)

    F#m11/E         Emaj7        E                      Emaj7           F#m11/E   E
   -0----0---0-0----0---0(0)-----0----------------------0----0---0-0----0-----0---0----|
   -0----0---0-0----0---0(0)-----0----------------------0----0---0-0----0-----0---0----|
   -2----2---2-2----4---4-4--(1)-1----------------------4----4---4-4----2-----2---1----|
   -4----4---4-4----6---6-6--(2)-2----------------------6----6---6-6----4-----4---2----|
   -4----4---4-4----6--(6-6)-(2)-2----------------------6----6---6-6----4-----4---2----|
   -0----0---0-0----0--(0-0)--0--0----------------------0----0---0-0----0-----0---0----|



[CHORUS] - (Clean Electric 1, MATTHEW)

e |------------------------------------------------------------------------------------|
B |-10/12--12--12-12\10--10--10-10--9-9------------10/12--12--12-12\10--10--10-10--9-9-|
G |-11/13--13--13-13\11--11--11-11--9-9------------11/13--13--13-13\11--11--11-11--9-9-|
D |------------------------------------------------------------------------------------|
A |------------------------------------------------------------------------------------|
E |------------------------------------------------------------------------------------|
                                                   E         F#m            E
  |------------------------------------------------12--12--X--9---9---9--9--7----------|
  |-10/12--12--12-12\10--10--10-10--9-9------------12--12--X-10--10--10-10--9----------|
  |-11/13--13--13-13\11--11--11-11--9-9------------13--13--X-11--11--11-11--9----------|
  |------------------------------------------------------------------------------------|
  |------------------------------------------------------------------------------------|
  |------------------------------------------------------------------------------------|



[LINK] - (Acoustic, MATTHEW) + (Clean Electric 2, CALEB)

    Emaj7           F#m11/E   E
e |-0----0---0-0----0---0-0---0--0-----------------------------------------------------|
B |-0----0---0-0----0---0-0---0--0-----------------------------------------------------|
G |-4----4---4-4----2---2-2---1--1-----------------------------------------------------|
D |-6----6---6-6----4---4-4---2--2-----------------------------------------------------|
A |-6----6---6-6----4---4-4---2--2-----------------------------------------------------|
E |-0----0---0-0----0---0-0---0--0-----------------------------------------------------|



[VERSE 3] - (Acoustic, MATTHEW)

    Emaj7           F#m11/E   E                         Emaj7           F#m11/E   E
e |-0----0---0-0----0---0-0------0----------------------0----0---0-0----0---0-0---0----
B |-0----0---0-0----0---0-0---0--0----------------------0----0---0-0----0---0-0---0----
G |-4----4---4-4----2---2-2---1--1----------------------4----4---4-4----2---2-2---1----
D |-6----6---6-6----4---4-4---2--2----------------------6----6---6-6----4---4-4---2----
A |-6----6---6-6----4---4-4---2--2----------------------6----6---6-6----4---4-4---2----
E |-0----0---0-0----0---0-0---0--0----------------------0----0---0-0----0---0-0---0----

    F#m11/E         Emaj7        E                      Emaj7           F#m11/E   E
   -0----0---0-0----0---0--------0----------------------0----0---0-0----0---0-0---0----|
   -0----0---0-0----0---0--------0----------------------0----0---0-0----0---0-0---0----|
   -2----2---2-2----4---4-4------1----------------------4----4---4-4----2---2-2---1----|
   -4----4---4-4----6---6-6------2----------------------6----6---6-6----4---4-4---2----|
   -4----4---4-4----6------------2----------------------6----6---6-6----4---4-4---2----|
   -0----0---0-0----0---------0--0----------------------0----0---0-0----0---0-0---0----|


          - (Clean Electric 2, CALEB)

    Emaj7           F#m11/E   E                         Emaj7           F#m11/E   E
e |-0----0---0-0----0---0-0---0--0----------------------0----0---0-0----0---------0----
B |-0----0---0-0----0---0-0---0--0----------------------0----0---0-0----0---------0----
G |-4----4---4-4----2---2-2---1--1----------------------4----4---4-4----2---------1----
D |-6----6---6-6----4---4-4---2--2----------------------6----6---6-6----4---------2----
A |-6----6---6-6----4---4-4---2--2----------------------6----6---6-6----4---------2----
E |-0----0---0-0----0---0-0---0--0----------------------0----0---0-0----0---------0----

    F#m11/E         Emaj7     E                         Emaj7           F#m11/E   E
   -0----0---0-0----0---0-0---0--0----------------------0----0---0-0----0---------0----|
   -0----0---0-0----0---0-0---0--0----------------------0----0---0-0----0---------0----|
   -2----2---2-2----4---4-4---1--1----------------------4----4---4-4----2---------1----|
   -4----4---4-4----6---6-6---2--2----------------------6----6---6-6----4---------2----|
   -4----4---4-4----6---6-6---2--2----------------------6----6---6-6----4---------2----|
   -0----0---0-0----0---0-0---0--0----------------------0----0---0-0----0---------0----|



[CHORUS] - (Clean Electric 1, MATTHEW)

e |------------------------------------------------------------------------------------|
B |-12--12--12-12\10--10--10-10--9-9------------10/12--12--12-12\10--10--10-10--9-9----|
G |-13--13--13-13\11--11--11-11--9-9------------11/13--13--13-13\11--11--11-11--9-9----|
D |------------------------------------------------------------------------------------|
A |------------------------------------------------------------------------------------|
E |------------------------------------------------------------------------------------|
                                                   E                 F#m        E
  |------------------------------------------------12--12--12-12------9---9--9---------|
  |-12--12--12-12--10--10-10--9-9------------------12--12--12-12-----10--10-10--9-9----|
  |-13--13--13-13--11--11-11--9-9------------------13--13--13-13-----11--11-11--9-9----|
  |------------------------------------------------14--14--14-14-----11--11-11--9-9----|
  |------------------------------------------------14--14--14-14------9---9--9--7-7----|
  |------------------------------------------------12--12--12-12-----------------------|



[MIDDLE 8] - (Clean Electric 2, CALEB) *(Emphasise these notes)

    A               B11/A            A               B11/A
e |-0---------------0----------------0-------------------------------------------------|
B |-2---2---2---2---4---4-4-4-4-4---42---2---2---2---4-4-4-4-4-4-4---------------------|
G |-2---2---2---2---4---4-4-4-4-4---42---2---2---2---4-4-4-4-4-4-4---------------------|
D |-2---2---2---2---4---4-4-4-4-4---42---2---2---2---4-4-4-4-4-4-4---------------------|
A |-0---0---0---0---0---0-0-0-0-0---00---0---0---0---0-0-0-0-0-0-0---------------------|
E |------------------------------------------------------------------------------------|
    *               *                *


           - (Clean Electric 1, MATTHEW)
          
    A               B11/A           A               B11/A
e |-0---0---0---0---0---0---0---0--00-0-0-0-0-0-0-0-0-0-0-0-0-0-0-0--------------------|
B |-2---2---2---2---4---4---4---4--42-2-2-2-2-2-2-2-4-4-4-4-4-4-4-4--------------------|
G |-2---2---2---2---4---4---4---4--42-2-2-2-2-2-2-2-4-4-4-4-4-4-4-4--------------------|
D |-2---2---2---2---4---4---4---4--42-2-2-2-2-2-2-2-4-4-4-4-4-4-4-4--------------------|
A |-0---0---0---0---0---0---0---0--00-0-0-0-0-0-0-0-0-0-0-0-0-0-0-0--------------------|
E |------------------------------------------------------------------------------------|



[LINK] - (Acoustic, MATTHEW) + (Clean Electric 2, CALEB)

    Emaj7           F#m11/E   E
e |-0----0---0-0----0---0-0---0--0-----------------------------------------------------|
B |-0----0---0-0----0---0-0---0--0-----------------------------------------------------|
G |-4----4---4-4----2---2-2---1--1-----------------------------------------------------|
D |-6----6---6-6----4---4-4---2--2-----------------------------------------------------|
A |-6----6---6-6----4---4-4---2--2-----------------------------------------------------|
E |-0----0---0-0----0---0-0---0--0-----------------------------------------------------|



[OUTRO] - (Clean Electric 2, CALEB)

    Emaj7           F#m11/E   E                         Emaj7           F#m11/E   E
e |-0----0---0-0----0---0-0---0--0----------------------0----0---0-0----0---0-0---0-0--
B |-0----0---0-0----0---0-0---0--0----------------------0----0---0-0----0---0-0---0-0--
G |-4----4---4-4----2---2-2---1--1----------------------4----4---4-4----2---2-2---1-1--
D |-6----6---6-6----4---4-4---2--2----------------------6----6---6-6----4---4-4---2-2--
A |-6----6---6-6----4---4-4---2--2----------------------6----6---6-6----4---4-4---2-2--
E |-0----0---0-0----0---0-0---0--0----------------------0----0---0-0----0---0-0---0-0--

    Emaj7           F#m11/E   E                         Emaj7           F#m11/E   E
   -0----0---0-0----0---0-0---0--0----------------------0----0---0-0----0---0-0---0-0--
   -0----0---0-0----0---0-0---0--0----------------------0----0---0-0----0---0-0---0-0--
   -4----4---4-4----2---2-2---1--1----------------------4----4---4-4----2---2-2---1-1--
   -6----6---6-6----4---4-4---2--2----------------------6----6---6-6----4---4-4---2-2--
   -6----6---6-6----4---4-4---2--2----------------------6----6---6-6----4---4-4---2-2--
   -0----0---0-0----0---0-0---0--0----------------------0----0---0-0----0---0-0---0-0--

    Emaj7           F#m11/E   E                         Emaj7           F#m11/E   E
   -0----0---0-0----0---0-0---0--0----------------------0----0---0-0----0---0-0---0----|
   -0----0---0-0----0---0-0---0--0----------------------0----0---0-0----0---0-0---0----|
   -4----4---4-4----2---2-2---1--1----------------------4----4---4-4----2---2-2---1----|
   -6----6---6-6----4---4-4---2--2----------------------6----6---6-6----4---4-4---2----|
   -6----6---6-6----4---4-4---2--2----------------------6----6---6-6----4---4-4---2----|
   -0----0---0-0----0---0-0---0--0----------------------0----0---0-0----0---0-0---0----|


        - (Clean Electric 1, MATTHEW)

e |------------------------------------------------------------------------------------|
B |-12--12--12-12--10--10-10--9-9--------------------12--12--12-12---10--10-10--9-9----|
G |-13--13--13-13--11--11-11--9-9--------------------13--13--13-13---11--11-11--9-9----|
D |------------------------------------------------------------------------------------|
A |------------------------------------------------------------------------------------|
E |------------------------------------------------------------------------------------|

  |------------------------------------------------------------------------------------|
  |-12--12--12-12--10--10-10--9-9-----------------10/12--12--12-12---10--10-10--9-9----|
  |-13--13--13-13--11--11-11--9-9-----------------11/13--13--13-13---11--11-11--9-9----|
  |------------------------------------------------------------------------------------|
  |------------------------------------------------------------------------------------|
  |------------------------------------------------------------------------------------|
    E              F#m        E                    E                 F#m        E
  |-12--12--12-12---9---9--9-----------------------12--12--12-12------9---9--9---------|
  |-12--12--12-12--10--10-10--9-9------------------12--12--12-12-----10--10-10--9------|
  |-13--13--13-13--11--11-11--9-9------------------13--13--13-13-----11--11-11--9------|
  |-14--14--14-14--11--11-11--9-9------------------14--14--14-14-----11--11-11--9------|
  |-14--14--14-14---9---9--9--7-7------------------14--14--14-14------9---9--9--7------|
  |-12--12--12-12----------------------------------12--12--12-12-----------------------|






****************************************************************************************
****************************************************************************************
****************************************************************************************






Group/Singer Name:      Kings Of Leon
Song:                   "Four Kicks"
Additional Info:        Aha Shake Heartbreak - Track 10
Tuning:                 Standard - [EADGBe]
Tabbed By:              Dean Hill - Comments, Suggestions? the.scotsman@blueyonder.co.uk


[Chords Used]   E(022100); G(355433); A(577455); D([10][12][12][11][10][10])
                E*([12][14][14][13][12][12]); F(133211); Bb(688766) + SEE TAB


[Intro] - [SEE TAB]

                |GUITAR |       |       |       |
                |BASS + |DRUMS  |       |       |


[Verse 1]                                      E    G    A    G  E     G    A    G  D
                Huffman don't take no nonsense,
                                      E    G    A    G  E     G    A    G  E
                He's here to rectify,
                                               E    G    A    G  E     G    A    G  D
                He's got his black belt buckle,
                                                   E    G    A    G  E     G    A    G
                And the red man's fire in his eye.
                

[Chorus]        F                
                  You with your switchblade posse,
                Bb
                  I'll get my guns from the sou-uth,
                F
                  We'll take to the yard like a cockfight,
                Bb
                  Four kicks whose strutting now-ow.


[Link] - [SEE TAB]


[Verse 2]                               E    G    A    G  E     G    A    G  D
                This party's over-rated,
                                                E    G    A    G  E     G    A    G  E
                But there ain't shit else to do,
                                                        E    G    A    G  E     G    A    G  D
                She's a lovin' on the boy from the city,
                                                 E    G    A    G  E     G    A    G
                I'll be lovin' him under my shoe.


[Chorus]        F                
                  You with your switchblade posse,
                Bb
                  I'll get my guns from the sou-uth,
                F
                  We'll take to the yard like a cockfight,
                Bb
                  Four kicks whose strutting now-ow.


[Link]          [SEE TAB]


[Solo]          [SEE TAB]


[Outro]         F                
                  You with your switchblade posse,
                Bb
                  I'll get my guns from the sou-uth,
                F
                  We'll take to the yard like a cockfight,
                Bb
                  Four kicks whose strutting now-ow.






            **********************************
            *KINGS OF LEON - FOUR KICKS - TAB*
            **********************************



b  -  Bend
sb -  Slow Bend
() -  Bracketed numbers are the note you bend up to
h  -  Hammer On
p  -  Pull Off
r  -  Return
/  -  Slide Up
\  -  Slide Down
d  -  Strum Down
u  -  Strum Up
PM -  Palm Mute
<> -  Natural Harmonics
^  -  Vibrato






[INTRO] - [CALEB]

    E    G    A    G  E    G    A    G  E    G    A    G   D
e |--------------------------------------------------------101010--10-10--10-10--10-10-
B |--------------------------------------------------------101010--10-10--10-10--10-10-
G |-1-1--4-X--6-X--4--1-1--4-X--6-X--4--1-1--4-X--6-X--4-X-111111--11-11--11-11--11-11-
D |-2-2--5-X--7-X--5--2-2--5-X--7-X--5--2-2--5-X--7-X--5-X-121212--12-12--12-12--12-12-
A |-2-2--5-X--7-X--5--2-2--5-X--7-X--5--2-2--5-X--7-X--5-X-121212--12-12--12-12--12-12-
E |-0-0--3-X--5-X--3--0-0--3-X--5-X--3--0-0--3-X--5-X--3-X-101010--10-10--10-10--10-10-

    E    G    A    G  E    G    A    G  E    G    A    G   D
   --------------------------------------------------------101010--10-10--10-10--10-10-
   --------------------------------------------------------101010--10-10--10-10--10-10-
   -1-1--4-X--6-X--4--1-1--4-X--6-X--4--1-1--4-X--6-X--4-X-111111--11-11--11-11--11-11-
   -2-2--5-X--7-X--5--2-2--5-X--7-X--5--2-2--5-X--7-X--5-X-121212--12-12--12-12--12-12-
   -2-2--5-X--7-X--5--2-2--5-X--7-X--5--2-2--5-X--7-X--5-X-121212--12-12--12-12--12-12-
   -0-0--3-X--5-X--3--0-0--3-X--5-X--3--0-0--3-X--5-X--3-X-101010--10-10--10-10--10-10-
   
      D
   -X-10-------------------------------------------------------------------------------|
   -X-10-------------------------------------------------------------------------------|
   -X-11-------------------------------------------------------------------------------|
   -X-12-------------------------------------------------------------------------------|
   -X-12-------------------------------------------------------------------------------|
   -X-10-------------------------------------------------------------------------------|


        - [MATTHEW] @ 00:04

    D
e |-10-10--10-10--10-10--10-10---------------------------------------------------------
B |-10-10--10-10--10-10--10-10---------------------------------------------------------
G |-11-11--11-11--11-11--11-11---------------------------------------------------------
D |-12-12--12-12--12-12--12-12---------------------------------------------------------
A |-10-10--10-10--10-10--10-10---------------------------------------------------------
E |-10-10--10-10--10-10--10-10---------------------------------------------------------

    E    G    A    G  E    G    A    G  E    G    A    G   D
   -0-0--3-X--5-X--3--0-0--3-X--5-X--3--0-0--3-X--5-X--3-X-10-10--10-10--10-10--10-10-|
   -0-0--3-X--5-X--3--0-0--3-X--5-X--3--0-0--3-X--5-X--3-X-10-10--10-10--10-10--10-10-|
   -1-1--4-X--6-X--4--1-1--4-X--6-X--4--1-1--4-X--6-X--4-X-11-11--11-11--11-11--11-11-|
   -2-2--5-X--7-X--5--2-2--5-X--7-X--5--2-2--5-X--7-X--5-X-12-12--12-12--12-12--12-12-|
   -2-2--5-X--7-X--5--2-2--5-X--7-X--5--2-2--5-X--7-X--5-X-12-12--12-12--12-12--12-12-|
   -0-0--3-X--5-X--3--0-0--3-X--5-X--3--0-0--3-X--5-X--3-X-10-10--10-10--10-10--10-10-|



[VERSE 1] - [CALEB]

"...Huffman don't take no nonsense,"

                                    E    G    A    G  E    G    A    G  D
e |--------------------------------------------------------------------X10-------------
B |--------------------------------------------------------------------X10-------------
G |---------------------------------1-1--4-X--6-X--4--1-1--4-X--6-X--4-X11-------------
D |---------------------------------2-2--5-X--7-X--5--2-2--5-X--7-X--5-X12-------------
A |---------------------------------2-2--5-X--7-X--5--2-2--5-X--7-X--5-X12-------------
E |---------------------------------0-0--3-X--5-X--3--0-0--3-X--5-X--3-X10-------------

          "...He's here to rectify,"

                                    E    G    A    G  E    G    A    G  E
   --------------------------------------------------------------------X0--------------
   --------------------------------------------------------------------X0--------------
   ---------------------------------1-1--4-X--6-X--4--1-1--4-X--6-X--4-X1--------------
   ---------------------------------2-2--5-X--7-X--5--2-2--5-X--7-X--5-X2--------------
   ---------------------------------2-2--5-X--7-X--5--2-2--5-X--7-X--5-X2--------------
   ---------------------------------0-0--3-X--5-X--3--0-0--3-X--5-X--3-X0--------------

"...He's got his black belt buckle,"

                                    E    G    A    G  E    G    A    G D
e |--------------------------------------------------------------------101010----------
B |--------------------------------------------------------------------101010----------
G |---------------------------------1-1--4-X--6-X--4--1-1--4-X--6-X--4-111111----------
D |---------------------------------2-2--5-X--7-X--5--2-2--5-X--7-X--5-121212----------
A |---------------------------------2-2--5-X--7-X--5--2-2--5-X--7-X--5-121212----------
E |---------------------------------0-0--3-X--5-X--3--0-0--3-X--5-X--3-101010----------

"...the red man's fire in his eye."

                                    E    G    A    G  E    G    A    G
   ------------------------------------------------------------------------------------|
   ------------------------------------------------------------------------------------|
   ---------------------------------1-1--4-X--6-X--4--1-1--4-X--6-X--4-----------------|
   ---------------------------------2-2--5-X--7-X--5--2-2--5-X--7-X--5-----------------|
   ---------------------------------2-2--5-X--7-X--5--2-2--5-X--7-X--5-----------------|
   ---------------------------------0-0--3-X--5-X--3--0-0--3-X--5-X--3-----------------|


          - [MATTHEW] @ 00:11¬              THEN THIS @ 00:14¬

                              G                               G
e |------------------------------------------------------------------------------------
B |---------------------------12------------------------------12\----------------------
G |---------------------------12-[LET RING]-------------------12\----------------------
D |---------------------------12------------------------------12\----------------------
A |---------------------------10------------------------------10-----------------------
E |------------------------------------------------------------------------------------

    @ 00:17     @ 00:19     @ 00:23     @ 00:25     @ 00:28     @ 00:31

    D           D           Em          Em          D           D
   -10----------10/---------12----------121212\-----10----------10/--------------------
   -10----------10/---------12----------121212\-----10----------10/--------------------
   -11----------11/---------12----------121212\-----11----------11/--------------------
   ------------------------------------------------------------------------------------
   ------------------------------------------------------------------------------------
   ------------------------------------------------------------------------------------

    E    G    A    G  E    G    A    G
   ------------------------------------------------------------------------------------|
   ------------------------------------------------------------------------------------|
   -1-1--4-X--6-X--4--1-1--4-X--6-X--4-------------------------------------------------|
   -2-2--5-X--7-X--5--2-2--5-X--7-X--5-------------------------------------------------|
   -2-2--5-X--7-X--5--2-2--5-X--7-X--5-------------------------------------------------|
   -0-0--3-X--5-X--3--0-0--3-X--5-X--3-------------------------------------------------|



[CHORUS] - [CALEB] (Matthew plays "as CALEB", unless specified by bracketed parts)

      "...You with your switchblade posse,"    "...I'll get my guns from the sou-uth,"
    F                                         Bb                                     F
e |-1---------------------------------(XX)----6--------------------------------------1-
B |-1---------------------------------(XX)----6--------------------------------------1-
G |-2---------------------------------(XX)----7--------------------------------------2-
D |-3---------------------------------(XX)----8--------------------------------------3-
A |-3---------------------------------(XX)----8--------------------------------------3-
E |-1---------------------------------(XX)----6--------------------------------------1-

"...We'll take to the yard like a cockfight,"    "...Four kicks whose strutting now-ow.,"
                                              Bb                      Bb
   -------------------------------------------6-----------------------X----------------|
   -------------------------------------------6-----------------------X----------------|
   -------------------------------------------7-----------------------X----------------|
   -------------------------------------------8-----------------------X----------------|
   -------------------------------------------8-----------------------X----------------|
   -------------------------------------------6-----------------------X----------------|



[LINK] - [CALEB] + [MATTHEW]

    E    G    A    G  E    G    A    G  E    G    A    G   D
e |--------------------------------------------------------101010--10-10--10-10--10-10-
B |--------------------------------------------------------101010--10-10--10-10--10-10-
G |-1-1--4-X--6-X--4--1-1--4-X--6-X--4--1-1--4-X--6-X--4-X-111111--11-11--11-11--11-11-
D |-2-2--5-X--7-X--5--2-2--5-X--7-X--5--2-2--5-X--7-X--5-X-121212--12-12--12-12--12-12-
A |-2-2--5-X--7-X--5--2-2--5-X--7-X--5--2-2--5-X--7-X--5-X-121212--12-12--12-12--12-12-
E |-0-0--3-X--5-X--3--0-0--3-X--5-X--3--0-0--3-X--5-X--3-X-101010--10-10--10-10--10-10-

    E    G    A    G  E    G    A    G  E    G    A    G   D
   --------------------------------------------------------10-10--10-10--10-10--10-10--
   --------------------------------------------------------10-10--10-10--10-10--10-10--
   -1-1--4-X--6-X--4--1-1--4-X--6-X--4--1-1--4-X--6-X--4-X-11-11--11-11--11-11--11-11--
   -2-2--5-X--7-X--5--2-2--5-X--7-X--5--2-2--5-X--7-X--5-X-12-12--12-12--12-12--12-12--
   -2-2--5-X--7-X--5--2-2--5-X--7-X--5--2-2--5-X--7-X--5-X-12-12--12-12--12-12--12-12--
   -0-0--3-X--5-X--3--0-0--3-X--5-X--3--0-0--3-X--5-X--3-X-10-10--10-10--10-10--10-10--
   
      D
   -X-10-------------------------------------------------------------------------------|
   -X-10-------------------------------------------------------------------------------|
   -X-11-------------------------------------------------------------------------------|
   -X-12-------------------------------------------------------------------------------|
   -X-12-------------------------------------------------------------------------------|
   -X-10-------------------------------------------------------------------------------|



[VERSE 2] - [CALEB]

       "...This party's over-rated,"

                                    E    G    A    G  E    G    A    G  D
e |--------------------------------------------------------------------X10-------------
B |--------------------------------------------------------------------X10-------------
G |---------------------------------1-1--4-X--6-X--4--1-1--4-X--6-X--4-X11-------------
D |---------------------------------2-2--5-X--7-X--5--2-2--5-X--7-X--5-X12-------------
A |---------------------------------2-2--5-X--7-X--5--2-2--5-X--7-X--5-X12-------------
E |---------------------------------0-0--3-X--5-X--3--0-0--3-X--5-X--3-X10-------------

"...But there ain't shit else to do,"

                                    E    G    A    G  E    G    A    G  E
   --------------------------------------------------------------------X0--------------
   --------------------------------------------------------------------X0--------------
   ---------------------------------1-1--4-X--6-X--4--1-1--4-X--6-X--4-X1--------------
   ---------------------------------2-2--5-X--7-X--5--2-2--5-X--7-X--5-X2--------------
   ---------------------------------2-2--5-X--7-X--5--2-2--5-X--7-X--5-X2--------------
   ---------------------------------0-0--3-X--5-X--3--0-0--3-X--5-X--3-X0--------------

"...lovin' on the boy from the city,"

                                    E    G    A    G  E    G    A    G D
e |--------------------------------------------------------------------101010----------
B |--------------------------------------------------------------------101010----------
G |---------------------------------1-1--4-X--6-X--4--1-1--4-X--6-X--4-111111----------
D |---------------------------------2-2--5-X--7-X--5--2-2--5-X--7-X--5-121212----------
A |---------------------------------2-2--5-X--7-X--5--2-2--5-X--7-X--5-121212----------
E |---------------------------------0-0--3-X--5-X--3--0-0--3-X--5-X--3-101010----------

"...I'll be lovin' him under my shoe."

                                    E    G    A    G  E    G    A    G
   ------------------------------------------------------------------------------------|
   ------------------------------------------------------------------------------------|
   ---------------------------------1-1--4-X--6-X--4--1-1--4-X--6-X--4-----------------|
   ---------------------------------2-2--5-X--7-X--5--2-2--5-X--7-X--5-----------------|
   ---------------------------------2-2--5-X--7-X--5--2-2--5-X--7-X--5-----------------|
   ---------------------------------0-0--3-X--5-X--3--0-0--3-X--5-X--3-----------------|


          - [MATTHEW] @ 00:57¬              THEN THIS @ 00:59¬

                              G                               G
e |------------------------------------------------------------------------------------
B |---------------------------12------------------------------121212\------------------
G |---------------------------12-[LET RING]-------------------121212\------------------
D |---------------------------12------------------------------121212\------------------
A |---------------------------10------------------------------101010-------------------
E |------------------------------------------------------------------------------------

    @ 01:02     @ 01:05     @ 01:08     @ 01:11     @ 01:14     @ 01:16

    D           D           Em          Em          D           D
   -10----------10/---------12----------12\---------10----------10/--------------------
   -10----------10/---------12----------12\---------10----------10/--------------------
   -11----------11/---------12----------12\---------11----------11/--------------------
   ------------------------------------------------------------------------------------
   ------------------------------------------------------------------------------------
   ------------------------------------------------------------------------------------

    E    G    A    G  E    G    A    G
   ------------------------------------------------------------------------------------|
   ------------------------------------------------------------------------------------|
   -1-1--4-X--6-X--4--1-1--4-X--6-X--4-------------------------------------------------|
   -2-2--5-X--7-X--5--2-2--5-X--7-X--5-------------------------------------------------|
   -2-2--5-X--7-X--5--2-2--5-X--7-X--5-------------------------------------------------|
   -0-0--3-X--5-X--3--0-0--3-X--5-X--3-------------------------------------------------|



[CHORUS] - [CALEB] + [MATTHEW]

      "...You with your switchblade posse,"    "...I'll get my guns from the sou-uth,"
    F                                         Bb                                     F
e |-1-----------------------------------------6--------------------------------------1-
B |-1-----------------------------------------6--------------------------------------1-
G |-2-----------------------------------------7--------------------------------------2-
D |-3-----------------------------------------8--------------------------------------3-
A |-3-----------------------------------------8--------------------------------------3-
E |-1-----------------------------------------6--------------------------------------1-

"...We'll take to the yard like a cockfight,"    "...Four kicks whose strutting now-ow.,"
                                              Bb                      Bb
   -------------------------------------------6-----------------------X----------------|
   -------------------------------------------6-----------------------X----------------|
   -------------------------------------------7-----------------------X----------------|
   -------------------------------------------8-----------------------X----------------|
   -------------------------------------------8-----------------------X----------------|
   -------------------------------------------6-----------------------X----------------|



[LINK] - [CALEB]

    E    G    A    G  E    G    A    G  E    G    A    G   D
e |--------------------------------------------------------10-10--10-10--10-10--10-10--
B |--------------------------------------------------------10-10--10-10--10-10--10-10--
G |-1-1--4-X--6-X--4--1-1--4-X--6-X--4--1-1--4-X--6-X--4-X-11-11--11-11--11-11--11-11--
D |-2-2--5-X--7-X--5--2-2--5-X--7-X--5--2-2--5-X--7-X--5-X-12-12--12-12--12-12--12-12--
A |-2-2--5-X--7-X--5--2-2--5-X--7-X--5--2-2--5-X--7-X--5-X-12-12--12-12--12-12--12-12--
E |-0-0--3-X--5-X--3--0-0--3-X--5-X--3--0-0--3-X--5-X--3-X-10-10--10-10--10-10--10-10--

    E    G    A    G  E    G    A    G  E    G    A    G   D
   --------------------------------------------------------10-10--10-10--10-10--10-10--
   --------------------------------------------------------10-10--10-10--10-10--10-10--
   -1-1--4-X--6-X--4--1-1--4-X--6-X--4--1-1--4-X--6-X--4-X-11-11--11-11--11-11--11-11--
   -2-2--5-X--7-X--5--2-2--5-X--7-X--5--2-2--5-X--7-X--5-X-12-12--12-12--12-12--12-12--
   -2-2--5-X--7-X--5--2-2--5-X--7-X--5--2-2--5-X--7-X--5-X-12-12--12-12--12-12--12-12--
   -0-0--3-X--5-X--3--0-0--3-X--5-X--3--0-0--3-X--5-X--3-X-10-10--10-10--10-10--10-10--
   
      D
   -X-10-------------------------------------------------------------------------------|
   -X-10-------------------------------------------------------------------------------|
   -X-11-------------------------------------------------------------------------------|
   -X-12-------------------------------------------------------------------------------|
   -X-12-------------------------------------------------------------------------------|
   -X-10-------------------------------------------------------------------------------|


       - [MATTHEW]

e |------------------------------------------------------------------------------------
B |------------------------------------------------------------------------------------
G |------------------------------------------------------------------------------------
D |-0-2--0-2--0-2--0-2--0-2--0-2--0-22-0-2--0-2--0-2--0-22--0-2-0----------------------
A |---------------------------------------------------------------000000000000---------
E |------------------------------------------------------------------------------------

   ------------------------------------------------------------------------------------|
   -------------------------------------------0---------00-0-0-------------------------|
   ------------------------------------------------------------222222000000------------|
   -0-2--0-2--0-22-0-2--0-2--0-2--0-22-0-2--0-2--0-2--0-22-0-2-------------------------|
   ------------------------------------------------------------------------------------|
   ------------------------------------------------------------------------------------|



[SOLO] - [CALEB]

    E    G    A    G  E    G    A    G  E    G    A    G   D
e |--------------------------------------------------------10-10--10-10--10-10--10-10--
B |--------------------------------------------------------10-10--10-10--10-10--10-10--
G |-1-1--4-X--6-X--4--1-1--4-X--6-X--4--1-1--4-X--6-X--4-X-11-11--11-11--11-11--11-11--
D |-2-2--5-X--7-X--5--2-2--5-X--7-X--5--2-2--5-X--7-X--5-X-12-12--12-12--12-12--12-12--
A |-2-2--5-X--7-X--5--2-2--5-X--7-X--5--2-2--5-X--7-X--5-X-12-12--12-12--12-12--12-12--
E |-0-0--3-X--5-X--3--0-0--3-X--5-X--3--0-0--3-X--5-X--3-X-10-10--10-10--10-10--10-10--

    E    G    A    G  E    G    A    G  E    G    A    G   D
   --------------------------------------------------------10-10--10-10--10-10--10-10--|
   --------------------------------------------------------10-10--10-10--10-10--10-10--|
   -1-1--4-X--6-X--4--1-1--4-X--6-X--4--1-1--4-X--6-X--4-X-11-11--11-11--11-11--11-11--|
   -2-2--5-X--7-X--5--2-2--5-X--7-X--5--2-2--5-X--7-X--5-X-12-12--12-12--12-12--12-12--|
   -2-2--5-X--7-X--5--2-2--5-X--7-X--5--2-2--5-X--7-X--5-X-12-12--12-12--12-12--12-12--|
   -0-0--3-X--5-X--3--0-0--3-X--5-X--3--0-0--3-X--5-X--3-X-10-10--10-10--10-10--10-10--|


       - [MATTHEW]

e |---------------------------------------------------------------------------------------
B |------------0---------<2>--------3b(5)-8-10-8-10-8-10-8-10-8-10-8-10-10b(12)10-10b(12)-
G |-2b(3)-2-0--2b(3)-2-0--2b(3)-2-0-------------------------------------------------------
D |---------------------------------------------------------------------------------------
A |---------------------------------------------------------------------------------------
E |---------------------------------------------------------------------------------------

   -----------12--------12--------12-------12-------12--15p12--12-------------------------
   -12-15b(17)---15b(17)---15b(17)--15b(17)---15b(17)--------15--15-12-15p12--12----------
   -------------------------------------------------------------------------14--14-12-----
   ---------------------------------------------------------------------------------------
   ---------------------------------------------------------------------------------------
   ---------------------------------------------------------------------------------------

   -------------------------X-X-----------------------------------------------------------|
   -------------------------X-X-----------------------------------------------------------|
   -14b(16)r14p12-14b(16)---X-X-----------------------------------------------------------|
   -------------------------X-X-----------------------------------------------------------|
   -------------------------X-X-----------------------------------------------------------|
   -------------------------X-X-----------------------------------------------------------|



[OUTRO] - [CALEB] + [MATTHEW]

      "...You with your switchblade posse,"    "...I'll get my guns from the sou-uth,"
    F                                         Bb                                     F
e |-1-----------------------------------------6--------------------------------------1-
B |-1-----------------------------------------6--------------------------------------1-
G |-2-----------------------------------------7--------------------------------------2-
D |-3-----------------------------------------8--------------------------------------3-
A |-3-----------------------------------------8--------------------------------------3-
E |-1-----------------------------------------6--------------------------------------1-

"...We'll take to the yard like a cockfight,"    "...Four kicks whose strutting now-ow.,"
                                              Bb                      Bb
   -------------------------------------------6-----------------------X----------------|
   -------------------------------------------6-----------------------X----------------|
   -------------------------------------------7-----------------------X----------------|
   -------------------------------------------8-----------------------X----------------|
   -------------------------------------------8-----------------------X----------------|
   -------------------------------------------6-----------------------X----------------|






****************************************************************************************
****************************************************************************************
****************************************************************************************






Group/Singer Name:      Kings Of Leon
Song:                   "Velvet Snow"
Additional Info:        Aha Shake Heartbreak - Track 11
Tuning:                 Standard - [EADGBe]
Tabbed By:              Dean Hill - Comments, Suggestions? the.scotsman@blueyonder.co.uk


[Chords Used]   C(8[10][10]988); F(133211); G(355433) + SEE TAB


[Intro]         | C               | C               | C               | F               |
                | G               | G               | C               | C               |


[Verse 1]       C
                Walking like you're stuck in velvet snow,
                                                    F
                Walking like you're stuck in velvet snow,
                G
                Start in on your story and I'll go, Whoa,
                C
                Walking like you're stuck in velvet snow.


[Verse 2]       C
                Glowing 'cause you're sweating on the floor,
                                                      F
                Glowing 'cause you're sweating on the floor,
                G
                Dancing like you'll never dance no more, Oh,
                C
                Glowing 'cause you're sweating on the floor.


[Chorus]        C
                And then you go, and when you go,
                                                          F
                You get to going way too fast, and I'm so slow.
                                G
                Turn out the lights, she's a coming to fight,
                                C
                And then she'll go.



[Verse 3]       C
                Death row smoking getting to your face,
                                                  F
                Death row smoking getting to your face,
                G
                Showing off your something shaved and lacy,
                C
                Death row smoking getting to your face.


[Chorus]        C
                And then you go, and when you go,
                                                          F
                You get to going way too fast, and I'm so slow.
                                G
                Turn out the lights, she's a coming to fight,
                                C       | C               |
                And then she'll go.


[Link]          | C               | C               | C               | F               |
                | G               | G               | C               | C               |


[Chorus]        C
                And then you go, and when you go,
                                                          F
                You get to going way too fast, and I'm so slow.
                                G
                Turn out the lights, she's a coming to fight,
                                C       | C               |
                And then she'll go.


[Outro]         C
                Little Jo, she wanted me not to call you,
                                                   F
                Stoked that you were carrying some bad news.
                G
                Leave it up to me and I'll just drown you,
                C
                Out into the city where you come from.






            ***********************************
            *KINGS OF LEON - VELVET SNOW - TAB*
            ***********************************



b  -  Bend
sb -  Slow Bend
() -  Bracketed numbers are the note you bend up to
h  -  Hammer On
p  -  Pull Off
r  -  Return
/  -  Slide Up
\  -  Slide Down
d  -  Strum Down
u  -  Strum Up
PM -  Palm Mute
<> -  Natural Harmonics
^  -  Vibrato






[INTRO] - [CALEB]

    C                                                        F          G
e |--8--8--8---8---8-8--8--8-8---8-----8-8--8--8-8---8-8-8-8-1-11--11---3--33---------
B |--8--8--8---8---8-8--8--8-8---8-----8-8--8--8-8---8-8-8-8-1-11--11---3--33---------
G |--9--9--9---9---9-9--9--9-9---9-----9-9--9--9-9---9-9-9-9-2-22--22---4--44---------
D |-10-10-10--10--1010-10-1010--10----1010-10-1010--10101010-3-33--33---5--55---------
A |-10-10-10--10--1010-10-1010--10----1010-10-1010--10101010-3-33--33---5--55---------
E |--8--8--8---8---8-8--8--8-8---8-----8-8--8--8-8---8-8-8-8-1-11--11---3--33---------

    G                     C
   -3-33--3-3-3-3--3-33---8--8-8--8---8---8-8--8---8-8--8---8--------------------------|
   -3-33--3-3-3-3--3-33---8--8-8--8---8---8-8--8---8-8--8---8--------------------------|
   -4-44--4-4-4-4--4-44---9--9-9--9---9---9-9--9---9-9--9---9--------------------------|
   -5-55--5-5-5-5--5-55--10-1010-10--10--1010-10--1010-10--10--------------------------|
   -5-55--5-5-5-5--5-55--10-1010-10--10--1010-10--1010-10--10--------------------------|
   -3-33--3-3-3-3--3-33---8--8-8--8---8---8-8--8---8-8--8---8--------------------------|


        - [MATTHEW] x8 (Take your time to learn this part as it's quite tricky at first.)
                       (Start slow and work your way up to it.)

e |----------------------|
B |-8-----------88-------|
G |---9-7--7-9--9999-8-9-|
D |----------------------|
A |----------------------|
E |----------------------|



[VERSE 1] - [CALEB]

 "...Walking like..."   "...Walking like..."   "...velvet snow..."   "...start in on..."

     C                      C                             F              G
e |--8----------------------8-----------------------------1--------------3-------------
B |--8----------------------8-----------------------------1--------------3-------------
G |--9----------------------9-----------------------------2--------------4-------------
D |-10---------------------10-----------------------------3--------------5-------------
A |-10---------------------10-----------------------------3--------------5-------------
E |--8----------------------8-----------------------------1--------------3-------------

 "...Walking like..."

     C
e |--8---------------------------------------------------------------------------------
B |--8---------------------------------------------------------------------------------
G |--9---------------------------------------------------------------------------------
D |-10---------------------------------------------------------------------------------
A |-10---------------------------------------------------------------------------------
E |--8---------------------------------------------------------------------------------


          - [MATTHEW]

"...Woah,"    "...Walking like..."

    G             C
e |------------------------------------------------------------------------------------|
B |------------------------------------------------------------------------------------|
G |------------------------------------------------------------------------------------|
D |------------------------------------------------------------------------------------|
A |------------------------------------------------------------------------------------|
E |-3-1-0---------8-8-8-8-8-8-8-8-8-8-8-8-8-8-8-8--------------------------------------|



[VERSE 2] - [CALEB]


 "...Glowing 'cause..."                 "...Glowing 'cause..."

     C
e |--8---------------------------------8-8-8----------------8-8--8-8-------------------
B |--8---------------------------------8-8-8----------------8-8--8-8-------------------
G |--9------------------9--9---9---9---9-9-9----------------9-9--9-9-------------------
D |-10-----------------10-10--10--10--101010---------------1010-1010-------------------
A |-10-----------------10-10--10--10--101010---------------1010-1010-------------------
E |--8------------------8--8---8---8---8-8-8----------------8-8--8-8-------------------

"...the floor..."  "...Dancing like.."   "...Glowing..."

        F              G                     C
   -----1--------------3---------------------8----------8--8---8-8-8--8-8--8--8-8--8-8-
   -----1--------------3---------------------8----------8--8---8-8-8--8-8--8--8-8--8-8-
   -----2--------------4---------------------9----------9--9---9-9-9--9-9--9--9-9--9-9-
   -----3--------------5--------------------10---------10-10--101010-1010-10-1010-1010-
   -----3--------------5--------------------10---------10-10--101010-1010-10-1010-1010-
   -----1--------------3---------------------8----------8--8---8-8-8--8-8--8--8-8--8-8-


          - [MATTHEW]

    C                                               F               G
e |------------------------------------------------------------------------------------
B |------------------------------------------------------------------------------------
G |------------------------------------------------------------------------------------
D |------------------------------------------------------------------------------------
A |------------------------------------------------------------------------------------
E |-8-8-8-8-8-8-8-8-8-8-8-8-8-8-8-8-8-8-8-8-8-8-8-8-1-1-1-1-1-1-1-1-3-3-3-3-3-3-3-3----

    G               C
e |------------------------------------------------------------------------------------|
B |------------------------------------------------------------------------------------|
G |------------------------------------------------------------------------------------|
D |------------------------------------------------------------------------------------|
A |------------------------------------------------------------------------------------|
E |-3-3-3-3-3-1-0---8-8-8-8-8-8-8-8-8-8-8-8-8-8-8-8------------------------------------|



[CHORUS] - [CALEB]

    C                                                        F          G
e |--8--8--8---8---8-8--8--8-8---8-----8-8--8--8-8---8-8-8-8-1-11--11---3--33----------
B |--8--8--8---8---8-8--8--8-8---8-----8-8--8--8-8---8-8-8-8-1-11--11---3--33----------
G |--9--9--9---9---9-9--9--9-9---9-----9-9--9--9-9---9-9-9-9-2-22--22---4--44----------
D |-10-10-10--10--1010-10-1010--10----1010-10-1010--10101010-3-33--33---5--55----------
A |-10-10-10--10--1010-10-1010--10----1010-10-1010--10101010-3-33--33---5--55----------
E |--8--8--8---8---8-8--8--8-8---8-----8-8--8--8-8---8-8-8-8-1-11--11---3--33----------

    G                     C
   -3-33--3-3-3-3--3-33---8--8-8--8---8---8-8--8---8-8--8---8--------------------------|
   -3-33--3-3-3-3--3-33---8--8-8--8---8---8-8--8---8-8--8---8--------------------------|
   -4-44--4-4-4-4--4-44---9--9-9--9---9---9-9--9---9-9--9---9--------------------------|
   -5-55--5-5-5-5--5-55--10-1010-10--10--1010-10--1010-10--10--------------------------|
   -5-55--5-5-5-5--5-55--10-1010-10--10--1010-10--1010-10--10--------------------------|
   -3-33--3-3-3-3--3-33---8--8-8--8---8---8-8--8---8-8--8---8--------------------------|


        - [MATTHEW] x8

e |----------------------|
B |-8-----------88-------|
G |---9-7--7-9--9999-8-9-|
D |----------------------|
A |----------------------|
E |----------------------|



[VERSE 3] - [CALEB]

  "...Death row..."     "...Death row..."             "...face..."   "...Showing off..."

     C                      C                             F              G
e |--8----------------------8-----------------------------1--------------3-------------
B |--8----------------------8-----------------------------1--------------3-------------
G |--9----------------------9-----------------------------2--------------4-------------
D |-10---------------------10-----------------------------3--------------5-------------
A |-10---------------------10-----------------------------3--------------5-------------
E |--8----------------------8-----------------------------1--------------3-------------

 "...Death row..."

     C
e |--8-------------8--8--8--8-8--------------------------------------------------------
B |--8-------------8--8--8--8-8--------------------------------------------------------
G |--9-------------9--9--9--9-9--------------------------------------------------------
D |-10------------10-10-10-1010--------------------------------------------------------
A |-10------------10-10-10-1010--------------------------------------------------------
E |--8-------------8--8--8--8-8--------------------------------------------------------


          - [MATTHEW]
PM------------------------------------------------¬
    C                                               F               G
e |------------------------------------------------------------------------------------
B |------------------------------------------------------------------------------------
G |------------------------------------------------------------------------------------
D |------------------------------------------------------------------------------------
A |------------------------------------------------------------------------------------
E |-8-8-8-8-8-8-8-8-8-8-8-8-8-8-8-8-8-8-8-8-8-8-8-8-1-1-1-1-1-1-1-1-3-3-3-3-3-3-3-3----

    G               C
e |------------------------------------------------------------------------------------|
B |------------------------------------------------------------------------------------|
G |------------------------------------------------------------------------------------|
D |------------------------------------------------------------------------------------|
A |------------------------------------------------------------------------------------|
E |-3-3-3-3-3-1-0---8-8-8-8-8-8-8-8-8-8-8-8-8-8-8-8------------------------------------|



[CHORUS] - [CALEB]

    C                                                        F          G
e |--8--8--8---8---8-8--8--8-8---8-----8-8--8--8-8---8-8-8-8-1-11--11---3--33---------
B |--8--8--8---8---8-8--8--8-8---8-----8-8--8--8-8---8-8-8-8-1-11--11---3--33---------
G |--9--9--9---9---9-9--9--9-9---9-----9-9--9--9-9---9-9-9-9-2-22--22---4--44---------
D |-10-10-10--10--1010-10-1010--10----1010-10-1010--10101010-3-33--33---5--55---------
A |-10-10-10--10--1010-10-1010--10----1010-10-1010--10101010-3-33--33---5--55---------
E |--8--8--8---8---8-8--8--8-8---8-----8-8--8--8-8---8-8-8-8-1-11--11---3--33---------

    G                     C
   -3-33--3-3-3-3--3-33---8--8-8--8---8---8-8--8---8-8--8---8--------------------------|
   -3-33--3-3-3-3--3-33---8--8-8--8---8---8-8--8---8-8--8---8--------------------------|
   -4-44--4-4-4-4--4-44---9--9-9--9---9---9-9--9---9-9--9---9--------------------------|
   -5-55--5-5-5-5--5-55--10-1010-10--10--1010-10--1010-10--10--------------------------|
   -5-55--5-5-5-5--5-55--10-1010-10--10--1010-10--1010-10--10--------------------------|
   -3-33--3-3-3-3--3-33---8--8-8--8---8---8-8--8---8-8--8---8--------------------------|


        - [MATTHEW] x8

e |----------------------|
B |-8-----------88-------|
G |---9-7--7-9--9999-8-9-|
D |----------------------|
A |----------------------|
E |----------------------|



[LINK] - [CALEB]

    C                                                        F          G
e |--8--8--8---8---8-8--8--8-8---8-----8-8--8--8-8---8-8-8-8-1-11--11---3--33---------
B |--8--8--8---8---8-8--8--8-8---8-----8-8--8--8-8---8-8-8-8-1-11--11---3--33---------
G |--9--9--9---9---9-9--9--9-9---9-----9-9--9--9-9---9-9-9-9-2-22--22---4--44---------
D |-10-10-10--10--1010-10-1010--10----1010-10-1010--10101010-3-33--33---5--55---------
A |-10-10-10--10--1010-10-1010--10----1010-10-1010--10101010-3-33--33---5--55---------
E |--8--8--8---8---8-8--8--8-8---8-----8-8--8--8-8---8-8-8-8-1-11--11---3--33---------

    G                     C
   -3-33--3-3-3-3--3-33---8--8-8--8---8---8-8--8---8-8--8---8--------------------------|
   -3-33--3-3-3-3--3-33---8--8-8--8---8---8-8--8---8-8--8---8--------------------------|
   -4-44--4-4-4-4--4-44---9--9-9--9---9---9-9--9---9-9--9---9--------------------------|
   -5-55--5-5-5-5--5-55--10-1010-10--10--1010-10--1010-10--10--------------------------|
   -5-55--5-5-5-5--5-55--10-1010-10--10--1010-10--1010-10--10--------------------------|
   -3-33--3-3-3-3--3-33---8--8-8--8---8---8-8--8---8-8--8---8--------------------------|


       - [MATTHEW]

e |------------------------------------------------------------------------------------
B |------------------------------------------------------------------------------------
G |-121212--101010---9-9-9--7--10---9---------121212--101010---9-9-9--12--5------------
D |-141414--121212--101010--9--12--10---------141414--121212--101010--14--7------------
A |------------------------------------------------------------------------------------
E |------------------------------------------------------------------------------------

   ------------------------------------------------------------------------------------|
   ------------------------------------------------------------------------------------|
   -101010---9-9-9--777--5-5---4--------------121212--101010---9-9-9--7/10---9---------|
   -121212--101010--999--7-7---5--------------141414--121212--101010--9/12--10---------|
   ------------------------------------------------------------------------------------|
   ------------------------------------------------------------------------------------|



[CHORUS] - [CALEB]

    C                                                        F          G
e |--8--8--8---8---8-8--8--8-8---8-----8-8--8--8-8---8-8-8-8-1-11--11---3--33---------
B |--8--8--8---8---8-8--8--8-8---8-----8-8--8--8-8---8-8-8-8-1-11--11---3--33---------
G |--9--9--9---9---9-9--9--9-9---9-----9-9--9--9-9---9-9-9-9-2-22--22---4--44---------
D |-10-10-10--10--1010-10-1010--10----1010-10-1010--10101010-3-33--33---5--55---------
A |-10-10-10--10--1010-10-1010--10----1010-10-1010--10101010-3-33--33---5--55---------
E |--8--8--8---8---8-8--8--8-8---8-----8-8--8--8-8---8-8-8-8-1-11--11---3--33---------

    G                     C
   -3-33--3-3-3-3--3-33---8--8-8--8---8---8-8--8---8-8--8---8--------------------------|
   -3-33--3-3-3-3--3-33---8--8-8--8---8---8-8--8---8-8--8---8--------------------------|
   -4-44--4-4-4-4--4-44---9--9-9--9---9---9-9--9---9-9--9---9--------------------------|
   -5-55--5-5-5-5--5-55--10-1010-10--10--1010-10--1010-10--10--------------------------|
   -5-55--5-5-5-5--5-55--10-1010-10--10--1010-10--1010-10--10--------------------------|
   -3-33--3-3-3-3--3-33---8--8-8--8---8---8-8--8---8-8--8---8--------------------------|


        - [MATTHEW] x8

e |----------------------|
B |-8-----------88-------|
G |---9-7--7-9--9999-8-9-|
D |----------------------|
A |----------------------|
E |----------------------|



[OUTRO] - [CALEB]

 "...Stoked that you..." "...some bad news," "Leave it up to..." "Out into the..."

     C                            F           G                   C
e |--8----------------------------1-----------3-------------------8--------------------|
B |--8----------------------------1-----------3-------------------8--------------------|
G |--9----------------------------2-----------4-------------------9--------------------|
D |-10----------------------------3-----------5------------------10--------------------|
A |-10----------------------------3-----------5------------------10--------------------|
E |--8----------------------------1-----------3-------------------8--------------------|


        - [MATTHEW] (Nothing played)






****************************************************************************************
****************************************************************************************
****************************************************************************************






Group/Singer Name:      Kings Of Leon
Song:                   "Rememo"
Additional Info:        Aha Shake Heartbreak - Track 12
Tuning:                 Standard - [EADGBe]
Tabbed By:              Dean Hill - Comments, Suggestions? the.scotsman@blueyonder.co.uk


[Chords Used]   Esus4(XXX9[10][12]); E6sus(XXX9[10]9); D([10][12][12][11][10][10]);
                E([12][14][14][13][12][12]) + SEE TAB


[Intro]         [WALTZ SAMPLE]

                | 1  &  2  &  3  & | 1  &  2  &  3  & | 1  &  2  &  3  & | 1  &  2  &  3  & |
                |------------------|------------------|------------------|------------------|
                | BASS             | BASS             | BASS             | BASS             |
                | Esus4            | E6sus            | Esus4            | E6sus            |
                | Esus4            | E6sus            | Esus4            | E6sus            |
                | Esus4            | E6sus            | Esus4            | E6sus            |


[Verse 1]       Esus4
                On a plane, on a plane,
                
                Off to see the city girls again,
                
                Only bringing what to carry on,
                
                So that you know I won't be long,
                D
                Dripping beards as cold as hell,
                
                And the motherfucker's gonna go to jail.


[Link]          | Esus4            | E6sus            | Esus4            | E6sus            |
                | Esus4            | E6sus            | Esus4            | E6sus            |


[Verse 2]       Esus4
                Honestly I can see,
                
                The giggling virgin overlooking me,
                
                Trying to put together what to say,
                
                Although it wouldn't matter anyway,
                D
                Dripping beards as cold as hell,
                
                And the motherfucker's gonna go to jail.


[Link]          | Esus4            | E6sus            | Esus4            | E6sus            |


[Chorus]             E
                This rememo is set for home,

                It's personal but they need to know.


[Link]          | Esus4            | E6sus            | Esus4            | E6sus            |
                | Esus4            | E6sus            | Esus4            | E6sus            |


[Solo]          | Esus4            | E6sus            | Esus4            | E6sus            |
                | Esus4            | E6sus            | Esus4            | E6sus            |
                | Esus4            | E6sus            | Esus4            | E6sus            |
                | Esus4            | E6sus            | Esus4            | E6sus            |


[Link]          | Esus4            | E6sus            | Esus4            | E6sus            |


[Verse 3]           Esus4
                I'm overdue another round,
                
                To gain control and take me down,
                
                You're all tied up as you should be,
                
                And I'll be cutting out naturally,
                D
                Dripping beards as cold as jail,
                
                And the motherfucker's gonna go to hell.


[Link]          | Esus4            | E6sus            | Esus4            | E6sus            |
                

[Chorus]             E
                This rememo is set for home,

                It's personal but they need to know.


[Outro]         | Esus4            | E6sus            | Esus4            | E6sus            |
                | Esus4            | E6sus            | Esus4            | E6sus            |
                | Esus4            |                  |                  |                  |
                |                  |                  |                  |                  |
                |                  |                  |                  |                  |
                |                  |                  |                  |                  |
                |                  |                  |                  |                  |
                |                  |                  |                  |                  |
                |                  |                  |                  |                  |
                |                  |                  |                  |                  |
                |                  |                  |                  |






            ******************************
            *KINGS OF LEON - REMEMO - TAB*
            ******************************



b  -  Bend
sb -  Slow Bend
() -  Bracketed numbers are the note you bend up to
h  -  Hammer On
p  -  Pull Off
r  -  Return
/  -  Slide Up
\  -  Slide Down
d  -  Strum Down
u  -  Strum Up
PM -  Palm Mute
<> -  Natural Harmonics
^  -  Vibrato






[INTRO] - [MATTHEW] @ 00:12 (Caleb just sings in this one, nothing played!)

    Esus4  E6sus  Esus4  E6sus
e |-12-----9------12-----9--9--9-------------------------------------------------------|
B |-10----10------10----10-10-10-------------------------------------------------------|
G |--9-----9-------9-----9--9--9-------------------------------------------------------|
D |------------------------------------------------------------------------------------|
A |-[--PLAY THIS PART 3 TIMES---]------------------------------------------------------|
E |------------------------------------------------------------------------------------|



[VERSE 1] - [MATTHEW]

   "On a plane..."     "Dripping beards..."

    Esus4               D
e |-12------------------10-------------------------------------------------------------|
B |-10------------------10-------------------------------------------------------------|
G |--9------------------11-------------------------------------------------------------|
D |---------------------12-------------------------------------------------------------|
A |---------------------12-------------------------------------------------------------|
E |---------------------10-------------------------------------------------------------|



[LINK] - [MATTHEW]

    Esus4  E6sus  Esus4  E6sus
e |-12-----9------12-----9--9--9-------------------------------------------------------|
B |-10----10------10----10-10-10-------------------------------------------------------|
G |--9-----9-------9-----9--9--9-------------------------------------------------------|
D |------------------------------------------------------------------------------------|
A |-[--PLAY THIS PART 3 TIMES---]------------------------------------------------------|
E |------------------------------------------------------------------------------------|



[VERSE 2] - [MATTHEW]

   "Honestly..."       "Dripping beards..."

    Esus4               D
e |-12------------------10-------------------------------------------------------------|
B |-10------------------10-------------------------------------------------------------|
G |--9------------------11-------------------------------------------------------------|
D |---------------------12-------------------------------------------------------------|
A |---------------------12-------------------------------------------------------------|
E |---------------------10-------------------------------------------------------------|



[LINK] - [MATTHEW]

    Esus4  E6sus  Esus4  E6sus
e |-12-----9------12-----9-------------------------------------------------------------|
B |-10----10------10----10-------------------------------------------------------------|
G |--9-----9-------9-----9-------------------------------------------------------------|
D |------------------------------------------------------------------------------------|
A |------------------------------------------------------------------------------------|
E |------------------------------------------------------------------------------------|



[CHORUS] - [MATTHEW]

"This rememo..."

      E
e |---12-------------------------------------------------------------------------------|
B |---12-------------------------------------------------------------------------------|
G |---13-------------------------------------------------------------------------------|
D |---14-------------------------------------------------------------------------------|
A |---14-------------------------------------------------------------------------------|
E |---12-------------------------------------------------------------------------------|



[LINK] - [MATTHEW]

    Esus4  E6sus  Esus4  E6sus     Esus4  E6sus  Esus4  E6sus
e |-12-----9------12-----9--9--9---12-----9------12-----9------------------------------|
B |-10----10------10----10-10-10---10----10------10----10------------------------------|
G |--9-----9-------9-----9--9--9----9-----9-------9-----9------------------------------|
D |------------------------------------------------------------------------------------|
A |------------------------------------------------------------------------------------|
E |------------------------------------------------------------------------------------|



[SOLO] - [MATTHEW]

e |------------------------------------------------------------------------------------
B |---------------------------------------------------------------------------10-------
G |---------------------------------------------------9---------9--7-6-----------------
D |----------------------/11--14---11-14--11\7-7--9/11---11/12-11--9-7----9/11---------
A |-/9--12--9-12--9\-------------------------------------------------------------------
E |-------------------5----------------------------------------------------------------
                                                    E6sus  Esus4  E6sus
e |--------------------------------------------------9-----12------9-9-9---------------|
B |----------------------------------------------10-10-----10-----101010---------------|
G |----9-----11--9-7------11----13--11--9------------9------9------9-9-9---------------|
D |-----------------------------------------9/11---------------------------------------|
A |-/11---11-11-11-9--9/12----14--12--11-----------------------------------------------|
E |------------------------------------------------------------------------------------|



[LINK] - [MATTHEW]

    Esus4  E6sus  Esus4  E6sus
e |-12-----9------12-----9--9--9-------------------------------------------------------|
B |-10----10------10----10-10-10-------------------------------------------------------|
G |--9-----9-------9-----9--9--9-------------------------------------------------------|
D |------------------------------------------------------------------------------------|
A |------------------------------------------------------------------------------------|
E |------------------------------------------------------------------------------------|



[VERSE 3] - [MATTHEW]

"I'm overdue..."       "Dripping beards..."

     Esus4              D
e |--12-----------------10-------------------------------------------------------------|
B |--10-----------------10-------------------------------------------------------------|
G |---9-----------------11-------------------------------------------------------------|
D |---------------------12-------------------------------------------------------------|
A |---------------------12-------------------------------------------------------------|
E |---------------------10-------------------------------------------------------------|



[LINK] - [MATTHEW]

    Esus4  E6sus  Esus4  E6sus
e |-12-----9------12-----9-------------------------------------------------------------|
B |-10----10------10----10-------------------------------------------------------------|
G |--9-----9-------9-----9-------------------------------------------------------------|
D |------------------------------------------------------------------------------------|
A |------------------------------------------------------------------------------------|
E |------------------------------------------------------------------------------------|



[CHORUS] - [MATTHEW]    

"This rememo..."

      E
e |---12-------------------------------------------------------------------------------|
B |---12-------------------------------------------------------------------------------|
G |---13-------------------------------------------------------------------------------|
D |---14-------------------------------------------------------------------------------|
A |---14-------------------------------------------------------------------------------|
E |---12-------------------------------------------------------------------------------|



[OUTRO] - [MATTHEW]

    Esus4  E6sus  Esus4  E6sus     Esus4  E6sus  Esus4  E6sus     Esus4
e |-12-----9------12-----9--9--9---12-----9------12-----9--9--9---12-------------------
B |-10----10------10----10-10-10---10----10------10----10-10-10---10-------------------
G |--9-----9-------9-----9--9--9----9-----9-------9-----9--9--9----9-------------------
D |------------------------------------------------------------------------------------
A |------------------------------------------------------------------------------------
E |------------------------------------------------------------------------------------


          [The song fades out with what sounds like MATTHEW playing little stabs of...]

   ------------------------------------------------------------------------------------|
   ------------------------------------------------------------------------------------|
   ------------------------------------------------------------------------------------|
   -9-9--------11--[ETC....TO FADE]----------------------------------------------------|
   ------------------------------------------------------------------------------------|
   ------------------------------------------------------------------------------------|






****************************************************************************************
****************************************************************************************
****************************************************************************************






Group/Singer Name:      Kings Of Leon
Song:                   "Where Nobody Knows"
Additional Info:        Aha Shake Heartbreak - Track 13 (Bonus Track)
Tuning:                 Standard - [EADGBe]
Tabbed By:              Dean Hill - Comments, Suggestions? the.scotsman@blueyonder.co.uk


[Chords Used]   A(X02220); E(022100); D(XX0232) + SEE TAB


[Intro]         |DRUMS             |DRUMS             |DRUMS + BASS      |DRUMS + BASS      |
                |A                 |A                 |A                 |A                 |


[Verse 1]       A
                With your hands in the air, you look like a girl,
                
                At the fair with the bubbly eyes.
                
                Stood and watched you, pulling at a rock,
                
                But the rock don't compromise.
                
                Come up to me and say,
                
                "Why are you so skinny and pretty for a boy"?
                
                Said, "Thanks for the insult and compliment,
                
                you'll never forget my face no more".


[Chorus]        E
                I can hardly reach you,
                      D
                And I know it's getting harder to be you,
                           A
                So I'll be drivin' you where nobody knows.
                    E
                The city I could take you,
                         D
                It would take a little second to break you,
                           A
                So I'll be droppin' where nobody knows.
                
                Yeah, I'll be droppin' you where nobody knows.


[Verse 2]       A
                Lookin' pretty clean, sitting on a swing,
                
                That don't mean a thing at all.
                
                The heels of my feet 's a barkin' like a pack of dogs,
                
                Sickin' on a crow in this hall.
                
                Taken for your word, taken for a ride,
                
                Taken for the evening dead or alive.
                
                Warming up the car, packin' us some powder to play.


[Chorus]        E
                I can hardly reach you,
                      D
                And I know it's getting harder to be you,
                           A
                So I'll be drivin' you where nobody knows.
                    E
                The city I could take you,
                         D
                It would take a little second to break you,
                           A
                So I'll be droppin you where nobody knows.
                
                Yeah, I'll be drivin' you where nobody knows....Jessica!


[Solo]          |A                 |A                 |A                 |A                 |
                |E                 |D                 |A                 |A                 |
                |A                 |A                 |


[Outro]         A
                Head like a stone, stone like a rock,
                
                Clogging up your nose again.
                
                Papa is a searchin', Devil is a knockin',
                                                            |E             |A              |
                Juice swimming up my skin, here it goes now.






            ******************************************
            *KINGS OF LEON - WHERE NOBODY KNOWS - TAB*
            ******************************************



b  -  Bend
sb -  Slow Bend
() -  Bracketed numbers are the note you bend up to
h  -  Hammer On
p  -  Pull Off
r  -  Return
/  -  Slide Up
\  -  Slide Down
d  -  Strum Down
u  -  Strum Up
PM -  Palm Mute
<> -  Natural Harmonics
^  -  Vibrato






[INTRO] - [CALEB] @ 00:09

    & | 1 & 2 & 3 & 4 & | 1 & 2 & 3 & 4 & | 1 & 2 & 3 & 4 & | 1 & 2 & 3 & 4 & |

        A                 A                 A                 A
e |-----5---5-------------5---5-------------5---5-------------5---5--------------------|
B |-----5---5-------------5---5-------------5---5-------------5---5--------------------|
G |-----6---6-------------6---6-------------6---6-------------6---6--------------------|
D |-----7---7-------------7---7-------------7---7-------------7---7--------------------|
A |-----7---7-------------7---7-------------7---7-------------7---7--------------------|
E |-0---5---5---------0---5---5---------0---5---5---------0---5---5--------------------|


        - [MATTHEW] x4

e |------------------------------------------------------------------------------------|
B |-5-------5-5------------------------------------------------------------------------|
G |-6---6---6-6--6---------------------------------------------------------------------|
D |-7---7---7-7----7-------------------------------------------------------------------|
A |------------------------------------------------------------------------------------|
E |------------------------------------------------------------------------------------|



[VERSE 1] - [CALEB]

    & | 1 & 2 & 3 & 4 & | 1 & 2 & 3 & 4 & | 1 & 2 & 3 & 4 & | 1 & 2 & 3 & 4 & |

        A                 A                 A                 A
e |------------------------------------------------------------------------------------
B |------------------------------------------------------------------------------------
G |-----6---6-------------6---6-------------6---6-------------6---6--------------------
D |-----7---7-------------7---7-------------7---7-------------7---7--------------------
A |-----7---7-------------7---7-------------7---7-------------7---7--------------------
E |-----5---5-------------5---5-------------5---5-------------5---5--------------------

        A                 A                 A                 A
   ------------------------------------------------------------------------------------|
   ------------------------------------------------------------------------------------|
   -----6---6-------------6---6-------------6---6-------------6---6--------------------|
   -----7---7-------------7---7-------------7---7-------------7---7--------------------|
   -----7---7-------------7---7-------------7---7-------------7---7--------------------|
   -----5---5-------------5---5-------------5---5-------------5---5--------------------|


          - [MATTHEW] (Nothing is played)



[CHORUS] - [CALEB]

    & | 1 & 2 & 3 & 4 & | 1 & 2 & 3 & 4 & | 1 & 2 & 3 & 4 & | 1 & 2 & 3 & 4 & |

        E                 D                 A                 A
e |-----0---0-------------10--10------------5---5-------------5---5--------------------
B |-----0---0-------------10--10------------5---5-------------5---5--------------------
G |-----1---1-------------11--11------------6---6-------------6---6--------------------
D |-----2---2-------------12--12------------7---7-------------7---7--------------------
A |-----2---2-------------12--12------------7---7-------------7---7--------------------
E |-----0---0-------------10--10------------5---5---------0---5---5--------------------

        E                 D                 A                 A
   -----0---0-------------10-10-------------5---5-------------5---5--------------------
   -----0---0-------------10-10-------------5---5-------------5---5--------------------
   -----1---1-------------11-11-------------6---6-------------6---6--------------------
   -----2---2-------------12-12-------------7---7-------------7---7--------------------
   -----2---2-------------12-12-------------7---7-------------7---7--------------------
   -----0---0-------------10-10-------------5---5---------0---5---5--------------------

        A                 A
   -----5---5-------------5---5--------------------------------------------------------|
   -----5---5-------------5---5--------------------------------------------------------|
   -----6---6-------------6---6--------------------------------------------------------|
   -----7---7-------------7---7--------------------------------------------------------|
   -----7---7-------------7---7--------------------------------------------------------|
   -0---5---5---------0---5---5--------------------------------------------------------|


         - [MATTHEW]

    & | 1 & 2 & 3 & 4 & | 1 & 2 & 3 & 4 & |

        E                 D                
e |------------------------------------------------------------------------------------
B |---------12------------10--10-------------------------------------------------------
G |---------13------------11--11-----------5-------5-5-------------5-------5-5---------
D |-0---14--14------------12--12-----------6---6---6-6--6----------6---6---6-6--6------
A |-----14--14------------12--12-----------7---7---7-7----7--------7---7---7-7---------
E |-----12--12------------10--10-------------------------------------------------------

        E                 D                      & | 1 & 2 & 3 & 4 & | 1 & 2 & 3 & 4 & |
e |--------------------------------------------------5---5-------------5---5-----------
B |---------12------------10--10---------------------5---5-------------5---5-----------
G |---------13------------11--11---------------------6---6-------------6---6-----------
D |-0---14--14------------12--12-----------------7---7---7---------7---7---7-----------
A |-----14--14------------12--12-----------------7---7---7---------7---7---7-----------
E |-----12--12------------10--10-----------------0---5---5---------0---5---5-----------

        A                 A
   -----5---5-------------5---5--------------------------------------------------------|
   -----5---5-------------5---5--------------------------------------------------------|
   -----6---6-------------6---6--------------------------------------------------------|
   -7---7---7---------7---7---7--------------------------------------------------------|
   -7---7---7---------7---7---7--------------------------------------------------------|
   -0---5---5---------0---5---5--------------------------------------------------------|



[VERSE 2] - [CALEB]

    & | 1 & 2 & 3 & 4 & | 1 & 2 & 3 & 4 & | 1 & 2 & 3 & 4 & | 1 & 2 & 3 & 4 & |

        A                 A                 A                 A
e |------------------------------------------------------------------------------------
B |------------------------------------------------------------------------------------
G |-----6---6-------------6---6-------------6---6-------------6---6--------------------
D |-----7---7-------------7---7-------------7---7-------------7---7--------------------
A |-----7---7-------------7---7-------------7---7-------------7---7--------------------
E |-----5---5-------------5---5-------------5---5-------------5---5--------------------

        A                 A                 A                 A
   ------------------------------------------------------------------------------------|
   ------------------------------------------------------------------------------------|
   -----6---6-------------6---6-------------6---6-------------6---6--------------------|
   -----7---7-------------7---7-------------7---7-------------7---7--------------------|
   -----7---7-------------7---7-------------7---7-------------7---7--------------------|
   -----5---5-------------5---5-------------5---5-------------5---5--------------------|


        - [MATTHEW] x8

e |------------------------------------------------------------------------------------|
B |-5-------5-5------------------------------------------------------------------------|
G |-6---6---6-6--6---------------------------------------------------------------------|
D |-7---7---7-7----7-------------------------------------------------------------------|
A |------------------------------------------------------------------------------------|
E |------------------------------------------------------------------------------------|



[CHORUS] - [CALEB]

    & | 1 & 2 & 3 & 4 & | 1 & 2 & 3 & 4 & | 1 & 2 & 3 & 4 & | 1 & 2 & 3 & 4 & |

        E                 D                 A                 A
e |-----0---0-------------10--10------------5---5-------------5---5--------------------
B |-----0---0-------------10--10------------5---5-------------5---5--------------------
G |-----1---1-------------11--11------------6---6-------------6---6--------------------
D |-----2---2-------------12--12------------7---7-------------7---7--------------------
A |-----2---2-------------12--12------------7---7-------------7---7--------------------
E |-----0---0-------------10--10------------5---5---------0---5---5--------------------

        E                 D                 A                 A
   -----0---0-------------10-10-------------5---5-------------5---5--------------------
   -----0---0-------------10-10-------------5---5-------------5---5--------------------
   -----1---1-------------11-11-------------6---6-------------6---6--------------------
   -----2---2-------------12-12-------------7---7-------------7---7--------------------
   -----2---2-------------12-12-------------7---7-------------7---7--------------------
   -----0---0-------------10-10-------------5---5---------0---5---5--------------------

        A                 A
   -----5---5-------------5---5--------------------------------------------------------|
   -----5---5-------------5---5--------------------------------------------------------|
   -----6---6-------------6---6--------------------------------------------------------|
   -----7---7-------------7---7--------------------------------------------------------|
   -----7---7-------------7---7--------------------------------------------------------|
   -0---5---5---------0---5---5--------------------------------------------------------|


         - [MATTHEW]

    & | 1 & 2 & 3 & 4 & | 1 & 2 & 3 & 4 & |

        E                 D                
e |------------------------------------------------------------------------------------
B |---------12------------10--10-------------------------------------------------------
G |---------13------------11--11-----------5-------5-5-------------5-------5-5---------
D |-0---14--14------------12--12-----------6---6---6-6--6----------6---6---6-6--6------
A |-----14--14------------12--12-----------7---7---7-7----7--------7---7---7-7---------
E |-----12--12------------10--10-------------------------------------------------------

        E                 D                      & | 1 & 2 & 3 & 4 & | 1 & 2 & 3 & 4 & |
e |--------------------------------------------------5---5-------------5---5-----------
B |---------12------------10--10---------------------5---5-------------5---5-----------
G |---------13------------11--11---------------------6---6-------------6---6-----------
D |-0---14--14------------12--12-----------------7---7---7---------7---7---7-----------
A |-----14--14------------12--12-----------------7---7---7---------7---7---7-----------
E |-----12--12------------10--10-----------------0---5---5---------0---5---5-----------

        A                 A
   -----5---5-------------5---5--------------------------------------------------------|
   -----5---5-------------5---5--------------------------------------------------------|
   -----6---6-------------6---6--------------------------------------------------------|
   -7---7---7---------7---7---7--------------------------------------------------------|
   -7---7---7---------7---7---7--------------------------------------------------------|
   -0---5---5---------0---5---5--------------------------------------------------------|


[SOLO] - [CALEB]

    & | 1 & 2 & 3 & 4 & | 1 & 2 & 3 & 4 & | 1 & 2 & 3 & 4 & | 1 & 2 & 3 & 4 & |

        A                 A                 A                 A
e |-----5---5-------------5---5-------------5---5-------------5---5--------------------
B |-----5---5-------------5---5-------------5---5-------------5---5--------------------
G |-----6---6-------------6---6-------------6---6-------------6---6--------------------
D |-----7---7-------------7---7-------------7---7-------------7---7--------------------
A |-----7---7-------------7---7-------------7---7-------------7---7--------------------
E |-----5---5---------0---5---5---------0---5---5---------0---5---5--------------------

        E                 D                 A                 A
   -----0---0-------------10-10-------10----5---5-------------5---5--------------------
   -----0---0-------------10-10-------10----5---5-------------5---5--------------------
   -----1---1-------------11-11-------11----6---6-------------6---6--------------------
   -----2---2-------------12-12-------12----7---7-------------7---7--------------------
   -----2---2-------------12-12-------------7---7-------------7---7--------------------
   -----0---0-------------10-10-------------5---5---------0---5---5--------------------


        A                 A
   -----5---5-------------5---5--------------------------------------------------------|
   -----5---5-------------5---5--------------------------------------------------------|
   -----6---6-------------6---6--------------------------------------------------------|
   -----7---7-------------7---7--------------------------------------------------------|
   -----7---7-------------7---7--------------------------------------------------------|
   -----5---5---------0---5---5--------------------------------------------------------|


       - [MATTHEW]

e |------------------------------------------------------------------------------------
B |--------------------------------14-------141414-151515-14--1414-15-14--15-14--------
G |-14-14-14-14----14--14-14-14----14-------141414-141414-14--1414-14-----14-----------
D |-14-14-14-14----14--14-14-14----14-------141414-141414-14--1414---------------------
A |--0--0--0--0-----0---0--0--0-----0--------0-0-0--0-0-0--0---------------------------
E |------------------------------------------------------------------------------------

   ------------------------------------------------------------------------------------
   ---------10-10-10---7--7--7-7--7--7-------------------------------------------------
   -7/9-9-9--9--9--9---7--7--7-7--7--7--7---6--------6---6-----------------------------
   --------------------7--7--7-7--7--7---7--7--------7---7-----------------------------
   ---------------------------------------0-7--------7---7-----------------------------
   -----------------------------------------5-----0--5---5-----------------------------

   ------------------------------------------------------------------------------------|
   --7^-----------10sb(13)-------------------------------------------------------------|
   --------9^--------------------------------------------------------------------------|
   ------------------------------------------------------------------------------------|
   ------------------------------------------------------------------------------------|
   ------------------------------------------------------------------------------------|



[OUTRO] - [CALEB] (Matthew stays silent 'til *)

    & | 1 & 2 & 3 & 4 & | 1 & 2 & 3 & 4 & | 1 & 2 & 3 & 4 & | 1 & 2 & 3 & 4 & |

        A                 A                 A                 A
e |------------------------------------------------------------------------------------
B |------------------------------------------------------------------------------------
G |------------------------------------------------------------------------------------
D |-----7-----------------7-----------------7-----------------7------------------------
A |-----7-----------------7-----------------7-----------------7------------------------
E |-----5-----------------5-----------------5-----------------5------------------------

        *
        E                 A
   -----0---0-------------5---5--------------------------------------------------------|
   -----0---0-------------5---5--------------------------------------------------------|
   -----1---1-------------6---6---LET CHORD RING---------------------------------------|
   -----2---2-------------7---7--------------------------------------------------------|
   -----2---2-------------7---7--------------------------------------------------------|
   -----0---0-------------5---5--------------------------------------------------------|
comments
print report bad tab
11 comments total. Showing first comments.
+1 reply
Jolene wrote on March 22 2005, 12:00 am

You make learning Kings' songs a WHOLE lot easier, nice job man! On YAYM too!

0 reply
fingerpkngood wrote on June 17 2005, 12:00 am

Nice job :-)

0 reply
thomas44 wrote on December 4 2005, 03:22 am

That was a fun half hour. could i suggetst going from a g,maj7 to a g6 on the first line of the chorus for the bucket instead of the Em; or as this took 24 days to do should i just keep my suggestions to myself!

I want to post or [tab]
guest
You may want to rate the tab now too:
select rating
Please do not post tabs as comments. Select "correction" instead!