Oops, an error
Loading. Please wait.

Because Of The Times Tab

7,036 views 42 this week
2 commentsread comments
1 2 3 4 5
excellent!
x 2
add to favorites launch autoscroll
font size
0
reset
Autoscroll
+/-
esc
set tempo
stop
Contributor
Difficulty
intermediate
WARNING: You are trying to view
                                    content from Ultimate-Guitar.com
                                    in an unauthorized application,
                                    which is prohibited.

                                    Please use an official Ultimate
                                    Guitar Tabs application for iPhone,
                                    iPad or Android to access legitimate
                                    chords, guitar, bass, and drum tabs
                                    from Ultimate-Guitar.com database.

                                    Type "ultimate guitar tabs" in Apple
                                    App Store's or Android Market's
                                    search to find the application.
This is a compilation of tabs from various users to form a perfect album tab.
All credit will be properly given to each user that contributed to towards the
album's tabs/chords. REMEMBER ALL CREDIT IS GIVEN 
(I only tweak to clean up! This could not have been done without you!)


Artist: Kings Of Leon
Album: Because Of The Times
Tracks:
1. Knocked Up        (Tuning: EADGBE)
2. Charmer
3. On Call
4. McFearless
5. Black Thumbnail
6. My Party
7. True Love Way
8. Ragoo
9. Fans
10.The Runner
11.Trunk
12.Camaro
13.Arizona


-----------------------------------------------------------------------------


1. Knocked Up
   Tuning: EADGBE
Tabbed By: RossMcM87



Bass Intro
G|----------|---------------------|
D|--9-9-----|------13-13----------|
A|-7-7------/----11--11-----------|
E|----------|---------------------|    x4

Intro

Guitar 1 (lots of reverb throughout)
e|--------|
B|-17~----|
G|--------| 0:00 - 0:05
D|--------|
A|--------|
E|--------|

Verse

e|-----19------|
B|-17----19----|
G|-------------| 0:27 - 0:55
D|-------------|
A|-------------|
E|-------------|

e|----19~------|
B|-17----------|
G|-------------|
D|-------------|
A|-------------|
E|-------------|


Guitar 2 (slight distortion and reverb)
e|-------------------------|
B|-------------------------|
G|-------------------------| x2
D|-------------------------|
A|----2-2--2--------4--4-4-|
E|-0------------0-0--------|

e|-------------------------|
B|-------------------------|
G|-------------------------| x2
D|-------------------------|
A|----2-2--2--------4--4-4-|
E|-4------------4-4--------|


Chorus

(Guitars 1 & 2, guitar 1 plays continuously and guitar 2 stops between each bar and PM's 
chord while hitting it)
e|----------------------|
B|-----5--5-5-5-5-5-5-5-|
G|-----6--6-6-6-6-6-6-6-| x2
D|-----6--6-6-6-6-6-6-6-|
A|-----4--4-4-4-4-4-4-4-|
E|----------------------|

e|----------------------|
B|----------------------|
G|-----3--3-3-3-3-3-3-3-| x2
D|-----4--4-4-4-4-4-4-4-|
A|-----4--4-4-4-4-4-4-4-|
E|-----2--2-2-2-2-2-2-2-|

Verse

Chorus

Bridge

Guitar 1
(sorry if this looks a bit confusing, just play it by ear and it sounds ok, ohh and of reverb)
e|-------12------12------7-------7------12-----12------------7-------7---|
B|--/-12------/12--12\-7--------7-7/-12-----/12--12\-7-7b-----7b-7-7b--7b|
G|-----------------------------------------------------------------------|
D|-----------------------------------------------------------------------|
A|-----------------------------------------------------------------------|
E|-----------------------------------------------------------------------|

e|-7/9---9/0--7-0-7/0--------12----7----7------|
B|-----5-----7------------/12----/7----7-7-7b--|
G|---------------------------------------------|
D|---------------------------------------------|
A|---------------------------------------------|
E|---------------------------------------------|


Guitar 2
e|-------------------------|
B|-------------------------|
G|-------------------------| x2
D|-------------------------|
A|----2-2--2--------4--4-4-|
E|-0------------0-0--------|

e|-------------------------|
B|-------------------------|
G|-------------------------| x2
D|-------------------------|
A|----2-2--2--------4--4-4-|
E|-4------------4-4--------|


Guitar 1 Verse every so often and then...
e|-12-12-----7-7-|
B|-12-12-----7-7-|
G|---------------| 5:00 - 5:20
D|---------------|
A|---------------|
E|---------------|



-----------------------------------------------------------------------------


2. Charmer
   Tuning: EADGBE
Tabbed By: Stewartcz098



Intro (bass)
e|------------------------------|
b|------------------------------|
g|------------------------------|
d|------------------------------|
a|--------2-2-2-2---------------|
E|-3-3-3-3-------0-0-0-0-2-2-2-2|

Intro (gtr I)
e|-----------------------|
b|-----------------------|
g|-----------------------|
d|-----------4----------5|
a|------2-4-5-----------5|
E|-0-2-3------0-0-2-2-3-3|


verse

Waw, she's always looking at me...
e|--------------------------------|
b|--------------------------------|
g|---------4-4-4-4----------------|
d|-5-5-5-5-4-4-4-4-2-2-2-2-4-4-4-4|
a|-5-5-5-5-2-2-2-2-2-2-2-2-4-4-4-4|
E|-3-3-3-3---------0-0-0-0-2-2-2-2|


verse 2 (gtr II)

e|-----------|    e|-----14-------|
b|---<7>-----|    b|--------------|
g|-----------|    g|--------------|
d|-----------| or d|--------------|
a|-----------|    a|--------------|
e|-----------|    E|--------------|


verse 2 gtr II

Waw, she's always looking at me..
e|--7-7-7-7-7-|
b|-8-8-8-8-8--|
g|------------|
d|------------|
a|------------|
e|------------|

bridge (gtr I)
e|--10-10--8-8-8---|
b|--12-12-10-7-7---|
g|-----------------|
d|-----------------|
a|-----------------|
e|-----------------|

guitar (II)
e|---------|
b|--12-----|
g|--12-----| - just keep playing that until the solo
d|---------|
a|---------|
e|---------|

solo
e|---------------------------------------------------------|
b|--------------------------------------12p0-0-12p0-0-12p0-|
g|12p0-0-12p0-0-12p0-12p0-0-12p0-0-12p0--------------------|
d|---------------------------------------------------------|
a|---------------------------------------------------------|
e|---------------------------------------------------------|

----------------15-|
-15------15--12----|
----14-12--14------|
-------------------|
-------------------|
-------------------|

e|---------------------------------------------------------|
b|--------------------------------------12p0-0-12p0-0-12p0-|
g|12p0-0-12p0-0-12p0-12p0-0-12p0-0-12p0--------------------|
d|---------------------------------------------------------|
a|---------------------------------------------------------|
e|---------------------------------------------------------|

----------------15-|
-15------15--12----|
----14-12--14------|
-------------------|
-------------------|
-------------------|

e|---------------------------------------|
b|----------12p0-12p0---------15p0-15p0--|
g|-12p0-12p0---------14p0-14p0-----------|
d|---------------------------------------|
a|---------------------------------------|
e|---------------------------------------|




----------------------------------------------------------------------------


3. On Call
   Tuning: EADGBE
Tabbed By: Steve1989


KEYBOARD INTRO		(Can be played on guitar)

e|----10---10--10-------10---10--10-------10----10--10-------10----10--10----|
B|--12---12--12---12--12---12--12---12--12----12--12---12--12----12--12---12-|
G|---------------------------------------------------------------------------|
D|-9----9------------------------------12----12-----------12----12-----------|
A|-------------------10---10-------------------------------------------------|
E|---------------------------------------------------------------------------|


INTRO

Bass
G|--------------------------------------|
D|--------------------------------------| x4
A|------------------2-2-2-2-2-----------|
E|--3-3-3-3-3-0-2-3-----------0-0h2h3---|

Guitar 1
e|----------------------------2-2-2-2---|
B|----------------------------3-3-3-3---|
G|-Second time through play:--4-4-4-4---|
D|----------------------------4-4-4-4---|
A|----------------------------2-2-2-2---|
E|--------------------------------------|

e|----------------------------2-2-2-2------|
B|----------------------------3-3-3-3------| x2
G|---444444444444444-1111111--4-4-4-4------|
D|---555555555555555-2222222--4-4-4-4------|
A|---555555555555555-2222222--2-2-2-2------|
E|---333333333333333-0000000---------------|
     


1ST VERSE

Bass
G|--------------------------------------|
D|--------------------------------------| x3
A|------------------2-2-2-2-2-----------|
E|--3-3-3-3-3-0-2-3-----------0-0h2h3---|

G|--------------------------------------|
D|--------------------------------------|
A|------------------2-------------------|
E|--3-3-3-3-3-0-2-3---------------------|

Guitar 1
                    I'll be there waiting
e|------------------3----------2-----2--2--|
B|------------------3----------3-----3--3--|
G|------------------4----------4-----4--4--|
D|------------------5----------4-----4--4--|
A|------------------5----------2-----2--2--|
E|------------------3----------------------|


CHORUS

Guitar 1
e|-----------------------------2-2-2-2---|
B|-----------------------------3-3-3-3---|
G|---4-4-4-4-4-4-4-4-4-1-1-1-1-4-4-4-4---|     x 2
D|---5-5-5-5-5-5-5-5-5-2-2-2-2-4-4-4-4---|
A|---5-5-5-5-5-5-5-5-5-2-2-2-2-2-2-2-2---|
E|---3-3-3-3-3-3-3-3-3-0-0-0-0-----------|

Guitar 2
e|---15---15---15-15-15-15---15-15---15---15---|
B|---15---15---15-15-15-15---15-15---15---15---|
G|---0----0----0--0--0--0----0--0----0----0----|     x 2
D|---0----0----0--0--0--0----0--0----0----0----|
A|---14---14---14-14-14-14---14-14---14---14---|
E|---15---15---15-15-15-15---15-15---15---15---|
                ________      __
 (   |    |    |  |  |  |    |  |    |    |   )

2ND VERSE

Guitar 1
e|---------------------------2-2-2-2------------------------------33---2-2-2---|
B|---------------------------3-3-3-3------------------------------33---3-3-3---|
G|---4-4-4-4-4-4-4-4-1-1-1-1-4-4-4-4--x 3 then--4-4-4-4-4-4-4-4-xx44---4-4-4---|
D|---5-5-5-5-5-5-5-5-2-2-2-2-4-4-4-4------------5-5-5-5-5-5-5-5-xx55---4-4-4---|
A|---5-5-5-5-5-5-5-5-2-2-2-2-2-2-2-2------------5-5-5-5-5-5-5-5-xx55---2-2-2---|
E|---3-3-3-3-3-3-3-3-0-0-0-0--------------------3-3-3-3-3-3-3-3-xx33-----------|
     


CHORUS

Guitar 1
e|-----------------------------2-2-2-2--|
B|-----------------------------3-3-3-3--|    x 4
G|---4-4-4-4-4-4-4-4-4-1-1-1-1-4-4-4-4--|
D|---5-5-5-5-5-5-5-5-5-2-2-2-2-4-4-4-4--|
A|---5-5-5-5-5-5-5-5-5-2-2-2-2-2-2-2-2--|
E|---3-3-3-3-3-3-3-3-3-0-0-0-0----------|

Guitar 2
e|---15---15---15-15-15-15---15-15---15---15---|
B|---15---15---15-15-15-15---15-15---15---15---|    x 4
G|---0----0----0--0--0--0----0--0----0----0----|
D|---0----0----0--0--0--0----0--0----0----0----|
A|---14---14---14-14-14-14---14-14---14---14---|
E|---15---15---15-15-15-15---15-15---15---15---|



SOLO

Guitar 1

be there laughing

e|-----------------------------------------------------------------------------|
B|-----------------------------------------------------------------------------|
G|--------/12~~-11~~------------------/12~~-11~~------------------/12~~-11~~---|
D|--------------------/99-7-7h9~----7------------/99-7-7h9~----7---------------|
A|-----------------------------------------------------------------------------|
E|-----------------------------------------------------------------------------|

e|-----------------------------------------------------------------------------|
B|-----------------------------------1515------1212----------------15----------|
G|--------/7-9-7-----/12~~-11~~-1212------1414------1414-1212-14b16--16r14-12--|
D|-/99-7-9-------9-7-----------------------------------------------------------|
A|-----------------------------------------------------------------------------|
E|-----------------------------------------------------------------------------|

e|------------------------------------------------------------------------------14b15r14---|
B|------15----15-------15----15----15-----15----15----15----15----15---15----15-15b16r15---|
G|-14b16-14b16-14b14b16-14b16-14b16---14b16-14b16-14b16-14b16-14b16-------16---------------|
D|-----------------------------------------------------------------------------------------|
A|-----------------------------------------------------------------------------------------|
E|-----------------------------------------------------------------------------------------|
	        ( Note double-bend here - listen to the track)

e|----------------------------------------------------------------------------12--12~~-----|
B|--------15--------------------15----15-------15----15----15------15-----15------15b17~~--|
G|-----12---14b16--16r14-12-14b16-14b16-14b14b16-14b16-14b16---14b16-14b16-----------------|
D|-/14-------------------------------------------------------------------------------------|
A|-----------------------------------------------------------------------------------------|
E|-----------------------------------------------------------------------------------------|
					(^^ "double bend")

Guitar 2
e|---15---15---15-15-15-15---15-15---15---15---|
B|---15---15---15-15-15-15---15-15---15---15---|  x 8
G|---0----0----0--0--0--0----0--0----0----0----|
D|---0----0----0--0--0--0----0--0----0----0----|
A|---14---14---14-14-14-14---14-14---14---14---|
E|---15---15---15-15-15-15---15-15---15---15---|



INTERLUDE

Bass
G|--------------------------------------|
D|--------------------------------------|  x 2
A|------------------2-2-2-2-2-----------|
E|--3-3-3-3-3-0-2-3-----------0-0h2h3---|

Guitar 1
e|----------------------------2-2-2-2---|
B|----------------------------3-3-3-3---|  x 2
G|----------------------------4-4-4-4---|
D|----------------------------4-4-4-4---|
A|----------------------------2-2-2-2---|
E|--------------------------------------|


CHORUS

Guitar 1
e|-----------------------------2-2-2-2---|
B|-----------------------------3-3-3-3---|  x 5
G|---4-4-4-4-4-4-4-4-4-1-1-1-1-4-4-4-4---|
D|---5-5-5-5-5-5-5-5-5-2-2-2-2-4-4-4-4---|
A|---5-5-5-5-5-5-5-5-5-2-2-2-2-2-2-2-2---|
E|---3-3-3-3-3-3-3-3-3-0-0-0-0-----------|

Guitar 2
e|---15---15---15-15-15-15---15-15---15---15---|
B|---15---15---15-15-15-15---15-15---15---15---|  x 5
G|---0----0----0--0--0--0----0--0----0----0----|
D|---0----0----0--0--0--0----0--0----0----0----|
A|---14---14---14-14-14-14---14-14---14---14---|
E|---15---15---15-15-15-15---15-15---15---15---|


Guitar 1
e|-------------------33----|
B|-------------------33----|
G|---4-4-4-4-4-4-4-4-44----|
D|---5-5-5-5-5-5-5-5-55----|
A|---5-5-5-5-5-5-5-5-55----|
E|---3-3-3-3-3-3-3-3-33----|

Guitar 2
e|---15---15---15-15-15-15---1515---|
B|---15---15---15-15-15-15---1515---|
G|---0----0----0--0--0--0----0-0----|
D|---0----0----0--0--0--0----0-0----|
A|---14---14---14-14-14-14---1414---|
E|---15---15---15-15-15-15---1515---|



-----------------------------------------------------------------------------


4. McFearless
   Tuning: EADGBE
Tabbed By: Dave_mullen



INTRO/ VERSE

Bass

(Bass starts the song and continues the
 same underneath the lead guitar untill
the chorus)

G|---------7-7-7-7---------7-7-7-7----|
D|------------------------------------|
A|-9-9-9-9---------9-9-9-9------------|
E|------------------------------------|


G|---------7-7-7-7---------7-7-7-7----|
D|-9-9-9-9---------9-9-9-9------------|
A|------------------------------------|
E|------------------------------------|



Lead Guitar

(these notes are played twice as fast as the bass
in the song, and have an effect that goes with it
like a cry baby pedal or something? i dont know?)


e|-----------------------------------------------------|
B|-10-10-10-10-10-10-10-10-/-14-14-14-14-14-14-14-14-\-|
G|-----------------------------------------------------|
D|-----------------------------------------------------|
A|-----------------------------------------------------|
E|-----------------------------------------------------|

e|-----------------------------------------------------|
B|-10-10-10-10-10-10-10-10-/-12-12-12-12-12-12-12-12-\-|
G|-----------------------------------------------------|
D|-----------------------------------------------------|
A|-----------------------------------------------------|
E|-----------------------------------------------------|



CHORUS

(These are the chords of the chorus, but the lead plays
higher notes and the rhythm plays a cool rhythm all the way
through the chorus with one chord)

Lead
(these chords but not played here)
e|---------------------------------------------|
B|---------------------------------------------|
G|-7--------11--------12-----------------------|
D|-7- x 16 -11- x 16 -12-x 32 -----------------|  x 2
A|-5--------9---------10-----------------------|
E|---------------------------------------------|
   D        F#        G

*Rhythm*
e|----------------|
B|----------------|
G|-18-------------|
D|-19-------------|
A|-x--------------|
E|-17-------------|




-----------------------------------------------------------------------------


5. Black Thumbnail
   Tuning: EADGBE
Tabbed By: Touchdown_boy


Verse

This song only uses two chords. It is in the key of E and when he changes chords he 
to D

The E Chord looks like this
e----12---------------|
B----12---------------|
G----13---------------|
D----14---------------|
A----14---------------|
E----12---------------|

The D Chord looks like this
e----10---------------|
B----10---------------|
G----11---------------|
D----12---------------|
A----12---------------|
E----10---------------|

I'm not going to tab out the strum pattern or when the chords change. It's easy enough 
figure out just listening to it.

Chorus

I like playing power chords for the chorus

e-------------------------------------------------------------------|
B-------------------------------------------------------------------|
G-9-9-9-9-9-9-9-9-9-9-9-9-9-9-9-9-9-9-9-9-9-9-9-9-7-7-----7---7-----|
D-9-9-9-9-9-9-9-9-9-9-9-9-9-9-9-9-9-9-9-9-9-9-9-9-7-7-----7---7-----|
A-0-7-0-7-0-7-0-7-0-7-0-7-0-7-0-7-0-7-0-7-0-7-0-7-5-5-----5---5-----|
E-------------------------------------------------------------------|

Solo

e-12b-12b-12b-12b-12b-12b-14b-14b-14b-14b-14b-14b-------|
B-15b-15b-15b-15b-15b-15b-17b-17b-17b-17b-17b-17b-------|
G-------------------------------------------------------|
D-------------------------------------------------------|
A-------------------------------------------------------|
E-------------------------------------------------------|

e-16b-16b-16b-16b-16b-16b-17b-17b-17b-17b-17b-17b-------|
B-19b-19b-19b-19b-19b-19b-20b-20b-20b-20b-20b-20b-------|
G-------------------------------------------------------|
D-------------------------------------------------------|
A-------------------------------------------------------|
E-------------------------------------------------------|

e-------------------------------------------------------|
B-77777777777777777777777-55555555555555555555555-------|
G-------------------------------------------------------|
D-------------------------------------------------------|
A-------------------------------------------------------|
E-------------------------------------------------------|

e------------------------------12b-12b-12b-12b-12b-12b--|
B-101010101010-121212121212-14-15b-15b-15b-15b-15b-15b--|
G-------------------------------------------------------|
D-------------------------------------------------------|
A-------------------------------------------------------|
E-------------------------------------------------------|



-----------------------------------------------------------------------------


6. My Party
   Tuning: EADGBE
Tabbed By: Touchdown_boy



Intro
e-------------------------------------------------------|
B-------------------------------------------------------|
G-------------------------------------------------------|
D-------------------------------------------------------|
A-------------------------------------------------------|
E--9-9-99-0-99-x-999-0--9-9-99-0-99-0-999-0-------------|

Then
e-------------------------------------------------------|
B-------------------------------------------------------|
G-------------------------------------------------------|
D-------------------------------------------------------|
A-------------------------------------------------------|
E--9-9-99-0--9-9-99-0--9-9-99-0--9-9-99-0---------------|

Verse (no guitar)

Pre chorus
e-9--9--9--9--9--9--9--9--------------------------------|
B-9--9--9--9--9--9--9--9--------------------------------|
G-10-10-10-10-10-10-10-10-------------------------------|
D-11-11-11-11-11-11-11-11-------------------------------|
A-11-11-11-11-11-11-11-11-------------------------------|
E-9--9--9--9--9--9--9--9--------------------------------|
	Upstrokes

Chorus
e------------------------------------------------------------|
B------------------------------------------------------------|
G------------------------------------------------------------|
D-11--11-11-11-11-11-7--7-7-7-7-7-4--4-4-4-4-4-4--4-4-4-4-4--|
A-11--11-11-11-11-11-7--7-7-7-7-7-4--4-4-4-4-4-4--4-4-4-4-4--|
E-9---9--9--9--9--0--5--5-5-5-5-0-2--2-2-2-2-0-2--2-2-2-2-0--|
	Palm mute

Second Verse Effects
e-------------------------------------------------------|
B--222-000-222-----222-000------------------------------|
G-------------------------------------------------------|
D-------------------------------------------------------|
A-------------------------------------------------------|
E---------------------------9b--------------------------|

e-------------------------------------------------------|
B--222-000-222-555-121212-777-555-----------------------|
G-------------------------------------------------------|
D-------------------------------------------------------|
A-------------------------------------------------------|
E-------------------------------------------------------|

Pre chorus
Chorus

Solo
e-------------------------------------------------------|
B-------------------------------------------------------|
G-------------------------------------------------------|
D-------------------------------------------------------|
A-------------------------11b---------------------------|
E--9-11-9-2b-------9-11-9-------------------------------|

e-------------------------------------------------------|
B-------------------------------------------------------|
G-------------------------------------------------------|
D------------------------------------------11-----------|
A--12-11-9-7h9---------12-11-9-12-11-9-7h9--------------|
E--------------9----------------------------------------|

Breakdown
e-----------------------------------------------------------|
B-----------------------------------------------------------|
G-----------------------------------------------------------|
D-----------------------------------------------------------|
A-----------------------------------------------------------|
E--99-99-99-9990-55-55-55-5550-22-22-22-2220-22-22-22-2220--|
	Palm Mute

Outro
e-9--9--12-12-9---9--9--12-12-9--------------------------|
B-9--9--12-12-9---9--9--12-12-9--------------------------|
G-10-10-13-13-10--10-10-13-13-10-------------------------|
D-11-11-14-14-11--11-11-14-14-11-------------------------|
A-11-11-14-14-11--11-11-14-14-11-------------------------|
E-9--9--12-12-9---9--9--12-12-9--------------------------|




-----------------------------------------------------------------------------


7. True Love Way
   Tuning: EADGBE
Tabbed By: Unregistered



Guitar 1 - Main Riff / Intro

e-----------------------------------------------------------|
B-----------------------------------------------------------|
G----------7-7------------7-7------------4-4------------4-4-|
D--7-7-7-7-7-7----7-7-7-7-7-7----4-4-4-4-4-4----4-4-4-4-4-4-|
A--5-5-5-5-5-5----5-5-5-5-5-5----2-2-2-2-2-2----2-2-2-2-2-2-|
E-----------------------------------------------------------|

e-----------------------------------------------------------|
B-----------------------------------------------------------|
G----------------------------------------4-4------------4-4-|
D----------5-5------------5-5----4-4-4-4-4-4----4-4-4-4-4-4-|
A--5-5-5-5-5-5----5-5-5-5-5-5----2-2-2-2-2-2----2-2-2-2-2-2-|
E--3-3-3-3-3-3----3-3-3-3-3-3-------------------------------|

Guitar 2 - Harmonics / Intro

e--------------------|
B--------------------|
G----7----------7----|
D--------------------|    I think??? Then hold the above chords
A------5--5-------5--|    on the first beat of the bar.
E--------------------|

Guitar 1 - Verse

e----------|
B----------|
G---7~-----|
D---7~-----|
A---5~-----|
E----------|

Guitar 2 - Verse - Come in After 2 Bars. (Listen to the Strumming pattern.)

e----------------------------------------------------|
B----------------------------------------------------|
G---7---7---7-7/4--4--4-4---4-4---4------------------|
D---7---7---7-7/4--4--4-4---4-4---4---9-9/5--5--5-5--|
A---5---5---5-5/2--2--2-2---2-2---2---9-9/5--5--5-5--|
E-------------------------------------7-7/3--3--3-3--|

Chorus - Both guitars  (I think)

e--------------------------|
B--------------------------|
G--------------------------|
D---9~----5~----7~----12~--|
A---9~----5~----7~----12~--|
E---7~----3~----5~----10~--|


Guitar 1 - Solo

e|-12----12-12----12-12----12-14----14---14----|
B|-15b17----15b17----15b17------15~---15~--15~-|
G|---------------------------------------------|
D|---------------------------------------------|
A|---------------------------------------------|
E|---------------------------------------------|

e|-12----12-12----12-12----12-14----14----14---|
B|-15b17----15b17----15b17------15~---15~--15~-|
G|---------------------------------------------|
D|---------------------------------------------|
A|---------------------------------------------|
E|---------------------------------------------|

e|------2-2-------------------------2-2----------2-2-2-2-|
B|-15/3-----3-3-3---------3-3------------3---3-----------|
G|----------------4-4-4-2------------------4---4---------|
D|-------------------------------------------------------|
A|-------------------------------------------------------|
E|-------------------------------------------------------|

e|-------14-14------------------------14-14------------------------|
B|-15-15-------15-15-17-17-15--15~----------15-15-17-17-15-15--15~-|
G|-----------------------------------------------------------------|
D|-----------------------------------------------------------------|
A|-----------------------------------------------------------------|
E|-----------------------------------------------------------------|

e|-12----12-12----12-12----12-14----14---14----|
B|-15b17----15b17----15b17------15~---15~--15~-|
G|---------------------------------------------|
D|---------------------------------------------|
A|---------------------------------------------|
E|---------------------------------------------|

e|-12----12-12----12-12----12-14----14----14---|
B|-15b17----15b17----15b17------15~---15~--15~-|
G|---------------------------------------------|
D|---------------------------------------------|
A|---------------------------------------------|
E|---------------------------------------------|


Then all you want is some vacant guitar sounds over the bass...

Try slide on the 7th to 9th frets on your D string...

The ending is just those 2 notes repeated.


Ragoo

Guitar 1 - Main Riff

e---2----2----2----2----2--------------------------------|
B----------------------------3----3----3----3----3/2/0---|
G--------------------------------------------------------|
D--4----4----4----4----4----4----4----4----4----4--------|
A-5----5----5----5----5----5----5----5----5----5---------|
E--------------------------------------------------------|

Guitar 2

e--------------------------|
B--------------------------|
G-11-11-11-11-7--7---------|
D-x--x--x--x--x--x----5----|
A-9--9--9--9--9--9----5----|
E-10-10-10-10-10-10---3/10-|

Guitar 1

e-5----------------5---------|
B-7-5-7b(8)b7------7-5-7b8p7-|
G----------------------------| + some variations on those notes.
D----------------------------|
A----------------------------|
E----------------------------|

Chorus
Guitar 2                 Guitar 1

e------------             ------2-------5--|
B------------             -0-2-3--0-2-3----|
G------------             -----------------|
D-9-----5--7-             -----------------|
A-9-----5--7-             -----------------|
E-7-----3--5-             -----------------|




-----------------------------------------------------------------------------


8. Ragoo
   Tuning: EADGBE
Tabbed By: Antroolez



Lead (Matthew)

Intro (Palm Muted)

e--------------------------------------------------|
B--------------------------------------------------|
G------11------11------11------11------11----------| 
D--0-12----0-12----0-12----0-12----0-12------------|
A--------------------------------------------------|
E--------------------------------------------------|

e-------------------------------------------|
B-------------------------------------------|       x4
G------7------7------7/6------6/4-----------| 
D--0-9----0-9----0-9-----0-0-------0--------|
A-------------------------------------------|
E-------------------------------------------|

Verse 1 - Nothing Played

Bridge - Repeat Intro Twice

Verse 2

e------------------------|--------------------------|
B------------------------|--------------------------|
G--11--X-11--X-11b12-----|--11--X-11--X-11--11b12---|
D--12--X-12--X-----------|--12--X-12--X-12----------|    x4
A------------------------|--------------------------|
E------------------------|--------------------------|

Chorus

e----------------|----------------|
B----------------|----------------|
G------------11--|------------14--| 
D--9--11--12-----|--9--11--12-----|    x3
A----------------|----------------|
E----------------|----------------|

Bridge - Repeat Intro Twice

Verse 3

e------------------------|--------------------------|
B------------------------|--------------------------|
G--11--X-11--X-11b12-----|--11--X-11--X-11--11b12---|
D--12--X-12--X-----------|--12--X-12--X-12----------|    x4
A------------------------|--------------------------|
E------------------------|--------------------------|

Chorus

e----------------|----------------|
B----------------|----------------|
G------------11--|------------14--| 
D--9--11--12-----|--9--11--12-----|    x3
A----------------|----------------|
E----------------|----------------|

Solo

e--14-----14-----14-----14-----14-----14-----14-----14----------|
B----15-----15-----15-----15-----15-----15-----15-----15--------|
G------14-----14-----14-----14-----14-----14-----14-----14------|
D---------------------------------------------------------------|
A---------------------------------------------------------------|
E---------------------------------------------------------------|

e--14-----------------12b----------|
B--15---15-15--15-15--15b---15-----|
G-------14-14--14-14--------14-----|
D----------------------------------|
A----------------------------------|
E----------------------------------|

e--14------------------------------|
B--15---15-15--15-15----12---------|
G-------14-14--14-14--------14-----|
D----------------------------------|
A----------------------------------|
E----------------------------------|

e--10------------------------------|
B--10---10-10--10-10--10-----------|
G-------11-11--11-11--11b12r11-----|
D----------------------------------|
A----------------------------------|
E----------------------------------|

e--10----------------------------------------|
B--10---10-10--10-10-------------------------|
G-------11-11--11-11--12p11-9h11p9-7h9p7-----|
D--------------------------------------------|
A--------------------------------------------|
E--------------------------------------------|

Outro

e--14-----14-----14-----14-----14-----14-----14-----14--------------|
B----15-----15-----15-----15-----15-----15-----15-----15------------|
G------14-----14-----14-----14-----14-----14-----14-----14----------|
D-------------------------------------------------------------------|
A-------------------------------------------------------------------|
E-------------------------------------------------------------------|

Rhythm (Caleb)

Intro/Verses/Solo etc

e--3/10--10--10--10--10--10--|
B--3/10--10--10--10--10--10--|
G--4/11--11--11--11--11--11--|
D--5/12--12--12--12--12--12--|
A--5/12--12--12--12--12--12--|
E--3/10--10--10--10--10--10--|

Chorus

e--------------|         
B--------------|
G--------------|
D--9-----5--7--|
A--9-----5--7--|
E--7-----3--5--|




-----------------------------------------------------------------------------


9. Fans
   Tuning: EADBGE
Tabbed By: Stereo92


Verse

Guitar 1 (Acoustic Guitar)

e-0-0-0-0-0--0-0-0-0-0--0-0-0-0-0--|
B-0-0-0-0-0--0-0-0-0-0--0-0-0-0-0--|
G-1-1-1-1-1--6-6-6-6-6--8-8-8-8-8--|
D-2-2-2-2-2--7-7-7-7-7--9-9-9-9-9--|
A-2-2-2-2-2--7-7-7-7-7--9-9-9-9-9--|
E-0-0-0-0-0--5-5-5-5-5--7-7-7-7-7--|

Guitar 2 (Electric)

Either plays The Above Or Just Acquires Feedback.

Chorus

Guitar 1 (Acoustic)

e-0-0-0-0-0--0-0-0-0-0--0-0-0-0-0--|
B-0-0-0-0-0--0-0-0-0-0--0-0-0-0-0--|
G-1-1-1-1-1--6-6-6-6-6--8-8-8-8-8--|
D-2-2-2-2-2--7-7-7-7-7--9-9-9-9-9--|
A-2-2-2-2-2--7-7-7-7-7--9-9-9-9-9--|
E-0-0-0-0-0--5-5-5-5-5--7-7-7-7-7--|

Guitar 2 (Electric)

e-0-0-0-0-0--0-0-0-0-0--0-0-0-0-0--|
B-0-0-0-0-0--0-0-0-0-0--0-0-0-0-0--|
G-1-1-1-1-1--6-6-6-6-6--8-8-8-8-8--|
D-2-2-2-2-2--7-7-7-7-7--9-9-9-9-9--|
A-2-2-2-2-2--7-7-7-7-7--9-9-9-9-9--|
E-0-0-0-0-0--5-5-5-5-5--7-7-7-7-7--|

Solo

Guitar 1 (Acoustic)

e-0-0-0-0-0--0-0-0-0-0--0-0-0-0-0--|
B-0-0-0-0-0--0-0-0-0-0--0-0-0-0-0--|
G-1-1-1-1-1--6-6-6-6-6--8-8-8-8-8--|
D-2-2-2-2-2--7-7-7-7-7--9-9-9-9-9--|
A-2-2-2-2-2--7-7-7-7-7--9-9-9-9-9--|
E-0-0-0-0-0--5-5-5-5-5--7-7-7-7-7--|

Guitar 2 (Electric)

e-------0-0-0-0-0-0-0-0----------------------------|
B-0/////9h10-9h10-9h10br--0-0-0-0-0-0-0-0-0-0-0-0--|
G-------------------------8-8-9-8-8-8-9-8-8-8-9-9--| 
D--------------------------------------------------| 
A--------------------------------------------------|
E--------------------------------------------------| 

Guitar 2 Slides on from no where and plays the open strings with the other notes.



-----------------------------------------------------------------------------


10.The Runner
   Tuning: EADGBE
Tabbed By: Touchdown_boy



Intro

Rhythm
e|-------------------------------------------------|
B|-------------------------------------------------|
G|-------------------------------------------------|
D|-------------------------------------------------|
A|----2--2--2--2--2--2--2--2--2--2--2--2--2--2-----|
E|---0--0--4--4--5--5--4--4--5--5--4--4--4--4--0---|

Lead 
e|---0---4---7---12---7---12---7---7---5---4-------|
B|-------------------------------------------------|
G|-------------------------------------------------|
D|---2---6---9---14---9---14---9---9---7---6-------|
A|-------------------------------------------------|
E|-------------------------------------------------|

Bass Line
e|-------------------------------------------------|
B|-------------------------------------------------|
G|-------------------------------------------------|
D|-------------------------------------------------|
A|-------------------------------------------------|
E|---0---4---7---12---7---12---7---7---5---4-------|

Then
e|---5/7-7-7/5-5-5/7-7-7/5---|
B|---5/7-7-7/5-5-5/7-7-7/5---|
G|---6/8-8-8/6-6-6/8-8-8/6---|
D|---7/9-9-9/7-7-7/9-9-9/7---|
A|---7/9-9-9/7-7-7/9-9-9/7---|
E|---5/7-7-7/5-5-5/7-7-7/5---|
Emphasize the bottom strings

Build Up
why she say she's on her own
e|-------------------------------------|
B|-------------------------------------|
G|---1-1-1-1-1-1-1-1-1-1-1-1-1-1-1-----|
D|---2-2-2-2-2-2-2-2-2-2-2-2-2-2-2-----|
A|---2-2-2-2-2-2-2-2-2-2-2-2-2-2-2-----|
E|---0-0-0-0-0-0-0-0-0-0-0-0-0-0-0-----|
Palm Mute 

e|---5/7-7-7/5-5-5/7-7-7/5---|
B|---5/7-7-7/5-5-5/7-7-7/5---|
G|---6/8-8-8/6-6-6/8-8-8/6---|
D|---7/9-9-9/7-7-7/9-9-9/7---|
A|---7/9-9-9/7-7-7/9-9-9/7---|
E|---5/7-7-7/5-5-5/7-7-7/5---|

I'll be pacing on the phone
e|-------------------------------------|
B|-------------------------------------|
G|---1-1-1-1-1-1-1-1-1-1-1-1-1-1-1-----|
D|---2-2-2-2-2-2-2-2-2-2-2-2-2-2-2-----|
A|---2-2-2-2-2-2-2-2-2-2-2-2-2-2-2-----|
E|---0-0-0-0-0-0-0-0-0-0-0-0-0-0-0-----|

e|---5/7-7-7/5-5-5/7-7-7/5---|
B|---5/7-7-7/5-5-5/7-7-7/5---|
G|---6/8-8-8/6-6-6/8-8-8/6---|
D|---7/9-9-9/7-7-7/9-9-9/7---|
A|---7/9-9-9/7-7-7/9-9-9/7---|
E|---5/7-7-7/5-5-5/7-7-7/5---|




-----------------------------------------------------------------------------


11.Trunk
   Tuning: EADGBE
Tabbed By: Vjudith


Intro

Guitar 1.
e -----------------------------------------------------------------|
b -----------------------------------------------------------------|
g -----------------------------------------------------------------|
d -----------------------------------------------------------------|  Until
a ----10---10---10---10---10---10---10---10------------------------|  1.verse
E --0----0----0----0----0----0----0----0---------------------------|

Guitar 2.
e -----------------------------------------------------------------|
b -----------------------------------------------------------------|
g -----------------------------------------------------------------| X4
d -----------------------------------------------------------------|
a --10-10--9-9--5-5--5-5--5-5--------------------------------------|
E -----------------------------------------------------------------|

Chorus

Guitar 1.
e ---------------0---------------------------------------------------|
b ---------0-------0-------------------------------------------------|
g -------1-----------1-----------------------------------------------|
d -----2---------------2---------------------------------------------|
a ---2-------------------2-------------------------------------------|
E -0-----------------------------------------------------------------|

Guitar 2.

e --------------0----------------------------------------------------|
b -----7/9b-------0--------------------------------------------------|
g ------------------1------------------------------------------------|
d --------------------2----------------------------------------------|
a ----------------------2--------------------------------------------|
E -------------------------------------------------------------------|

Guitar 1.
e ---------------0---------------------------------------------------|
b -----------------0-------------------------------------------------|
g -------6-----------6-----------------------------------------------|
d -----7---------------7---------------------------------------------|
a ---7-------------------7-------------------------------------------|
E -5-----------------------------------------------------------------|

Guitar 2.

e ---------------0---------------------------------------------------|
b -----4/5---------0-------------------------------------------------|
g -------------------6-----------------------------------------------|
d ---------------------7---------------------------------------------|
a -----------------------7-------------------------------------------|
E -------------------------------------------------------------------|

Guitar 1.
e ---------------0---------------------------------------------------|
b ---------0-------0-------------------------------------------------|
g -------1-----------1-----------------------------------------------|
d -----2---------------2---------------------------------------------|
a ---2-------------------2-------------------------------------------|
E -0-----------------------------------------------------------------|

Guitar 2.

e --------------0----------------------------------------------------|
b -----7/9b-------0--------------------------------------------------|
g ------------------1------------------------------------------------|
d --------------------2----------------------------------------------|
a ----------------------2--------------------------------------------|
E -------------------------------------------------------------------|

Guitar 1.

e ---------------0---------------------------------------------------|
b -----------------0-------------------------------------------------|
g -------6-----------6-----------------------------------------------|
d -----7---------------7---------------------------------------------|
a ---7-------------------7-------------------------------------------|
E -5-----------------------------------------------------------------|

Guitar 2.

e ---------------0---------------------------------------------------|
b -----4/5---------0-------------------------------------------------|
g -------------------6-----------------------------------------------|
d ---------------------7---------------------------------------------|
a -----------------------7-------------------------------------------|
E -------------------------------------------------------------------|

Guitar 1.

e ----------------0-------------------------------------------------|
b ---------0--------0-----------------------------------------------|
g -------8------------8---------------------------------------------|
d -----9----------------9-------------------------------------------|
a ---9--------------------9-----------------------------------------|
E -7----------------------------------------------------------------|

Guitar 2.

e ----------------0-------------------------------------------------|
b ---5/7------------0-----------------------------------------------|
g --------------------8---------------------------------------------|
d ----------------------9-------------------------------------------|
a ------------------------9-----------------------------------------|
E ------------------------------------------------------------------|

Outro
e -----------------------------------------------------------------|
b -----------------------------------------------------------------|
g -----------------------------------------------------------------| X4
d -----------------------------------------------------------------|
a --10-10--9-9--5-5--5-5--5-5--------------------------------------|
E -----------------------------------------------------------------|




-----------------------------------------------------------------------------


12.Camaro
   Tuning: EADGBE
Tabbed By: Skirvy



Bass Intro


Guitar 1 0:19-0:41
|-------------------|
|-------------------|
|-------------------|  X12
|-------------------|
|-------------------|
|-5-5-5-5-5-5-5-5-5-|

Guitar 2  0:28-0:41
|-------------------------|
|---2-----2-----2-----2---|
|2-----2-----2-----2------|   X2
|-------------------------|
|-------------------------|
|-------------------------|


Verse


Guitar 1 + 2 0:41-0:55
|-----------------------------|
|-----------------------------|
|-----------------------------|   X1
|-----7~-----7~-----7~-----7~-|
|-----7~-----7~-----7~-----7~-|
|-----5~-----5~-----5~-----5~-|


Riff


Guitar 1 0:55-1:10                X3                                     X1
|15b17r15-12------------------------¦15b17r15-12---------------------------|
|-----------12v~---15b17r15-14------¦-----------12v~--15b7r15-14-14b15r14--|
|---------------12-------------14-12¦---------------12-------------------12|
|-----------------------------------¦--------------------------------------|
|-----------------------------------¦--------------------------------------|
|-----------------------------------¦--------------------------------------|


Guitar 2 0:55-1:10
|-------------------------|
|---2v~---2v~---2v~---2v~-|
|2v~---2v~---2v~---2v~----|   X2
|-------------------------|
|-------------------------|
|-------------------------|


Verse


Guitar 1 + 2 1:10-1:23
|-----------------------------|
|-----------------------------|
|-----------------------------|   X1
|-----7~-----7~-----7~-----7~-|
|-----7~-----7~-----7~-----7~-|
|-----5~-----5~-----5~-----5~-|


Riff


Guitar 1 1:23-1:36                X3                                     X1
|15b17r15-12------------------------¦15b17r15-12---------------------------|
|-----------12v~---15b17r15-14------¦-----------12v~--15b7r15-14-14b15r14--|
|---------------12-------------14-12¦---------------12-------------------12|
|-----------------------------------¦--------------------------------------|
|-----------------------------------¦--------------------------------------|
|-----------------------------------¦--------------------------------------|

Guitar 2 1:23-1:36
|-------------------------|
|---2v~---2v~---2v~---2v~-|
|2v~---2v~---2v~---2v~----|   X2
|-------------------------|
|-------------------------|
|-------------------------|


Solo 


Guitar 1 1:37-1:51
|-------------------------------------------------------¦
|-------------------------------------------------------¦
|-14p12-14--14p12-14--14p12-14--14p12-14--14p12-14p12---¦
|-------------------------------------------------------¦
|-------------------------------------------------------¦
|-------------------------------------------------------¦

|-------------------------------------------------------¦
|-----------------------------------------15b17r15-14---¦
|-14p12-14--14p12-14--14p12-14--14p12-14-------------14-¦
|-------------------------------------------------------¦
|-------------------------------------------------------¦
|-------------------------------------------------------¦

|-------------------------------------------------------¦
|-------------------------------------------------------¦
|-14p12-14--14p12-14--14p12-14--14p12-14--14p12-14p12---¦
|-------------------------------------------------------¦
|-------------------------------------------------------¦
|-------------------------------------------------------¦

|-------------------------------------------------------¦
|-----------------------------------------15b17r15-14---¦
|-14p12-14--14p12-14--14p12-14--14p12-14-------------14-¦
|-------------------------------------------------------¦
|-------------------------------------------------------¦
|-------------------------------------------------------¦

|-------------------------------------------------------¦
|-15p13-15--15p13-15--15p13-15--15p13-15--15p13-15p13---¦
|-------------------------------------------------------¦
|-------------------------------------------------------¦
|-------------------------------------------------------¦
|-------------------------------------------------------¦

|-----------------------------------------15b17-15------¦
|-15p13-15--15p13-15--15p13-15--15p13-15-----------14---¦
|-------------------------------------------------------¦
|-------------------------------------------------------¦
|-------------------------------------------------------¦
|-------------------------------------------------------¦

|-------------------------------------------------------¦
|-------------------------------------------------------¦
|-14p12-14--14p12-14--14p12-14--14p12-14--14p12-14p12---¦
|-------------------------------------------------------¦
|-------------------------------------------------------¦
|-------------------------------------------------------¦

|------------------------------------------------------------¦
|-----------------------------------------15b17r15-14-14b17--¦
|-14p12-14--14p12-14--14p12-14--14p12-14---------------------¦
|------------------------------------------------------------¦
|------------------------------------------------------------¦
|------------------------------------------------------------¦


Guitar 2 1:37-1:51
|-----------------------------|
|-----------------------------|
|-----------------------------|   X1
|-----7~-----7~-----7~-----7~-|
|-----7~-----7~-----7~-----7~-|
|-----5~-----5~-----5~-----5~-|


Bass Interlude 1:52-2:33


Riff


Guitar 1 2:33-2:43                                                  
|15b17r15-12------------------------¦15b17r15-12---------------------------|
|-----------12v~---15b17r15-14------¦-----------12v~--15b7r15-14-14b15r14--|
|---------------12-------------14-12¦---------------12-------------------12|
|-----------------------------------¦--------------------------------------|
|-----------------------------------¦--------------------------------------|
|-----------------------------------¦--------------------------------------|


Verse


Guitar 1 + 2 2:43-2:56
|-----------------------------|
|-----------------------------|
|-----------------------------|   X1
|-----7~-----7~-----7~-----7~-|
|-----7~-----7~-----7~-----7~-|
|-----5~-----5~-----5~-----5~-|


Outro 2:56-3:07(End)


|-----------------------------|
|-----------------------------|
|-----------------------------|   X1    
|-----5~-----5~----7-7--------|
|-----5~-----5~----7-7--------|
|-----3~-----3~----5-5--------|




-----------------------------------------------------------------------------


13.Arizona
   Tuning: EADGBE
Tabbed By: Vetorocks


Rythm intro: play this in the whole song. 

e----------------------------------------------------------|
b----------------------------------------------------------|
g----------------------------------------------------------|
d-6--6-6/7--7-7/9---9--9--9-/11--11-11/9--9---4-4-4-4/6--6-| 
a-7--7-7/9--9-9/11--11-11-11/12--12-12/11-11--6-6-6-6/7--7-|
E-0--0-0/0--0-0/0---0--0--0-/0---0--0-/0--0---0-0-0-0/0--0-|

Lead guitar 

e---------------------------------------------------------|
b-2~--5--2--5--5/9~-10--9--10--9--10/12~--5b--7b----------|
g---------------------------------------------------------|
d---------------------------------------------------------|
a---------------------------------------------------------|
E---------------------------------------------------------|

Lead guitar second time

e-----------------------------------------------------------|
b-2~--5--2--5--5/9~-10--9--10--9--10/12~--17b--19b----------|
g-----------------------------------------------------------|
d-----------------------------------------------------------|
a-----------------------------------------------------------|
E-----------------------------------------------------------|


e---------------------------------------------------------|
b-2~--5--2--5--5/9~-10--9--10--9--10/12~--5b--7b----------|
g---------------------------------------------------------|
d---------------------------------------------------------|
a---------------------------------------------------------|
E---------------------------------------------------------|

e-----------------------------------------------------------|
b-2~--5--2--5--5/9~-10--9--10--9--10/12~--17b--19b----------|
g-----------------------------------------------------------|
d-----------------------------------------------------------|
a-----------------------------------------------------------|
E-----------------------------------------------------------|


lead guitar- the three first notes (3-0-0) you hardly recognize, but tabbed them anyway.   
e--------------------------------------------------------------|
b---0-0--4-3--2~--5--2--5--5/9~-10--9--10--9--10-/12~--5b--7b--|
g--------3-2---------------------------------------------------|
d--------------------------------------------------------------|
a--------------------------------------------------------------|
E-3------------------------------------------------------------|

lead guitar first time
e----------------------------------------------------------|
b-2~--5--2--5--5/9~-10--9--10--9--10/12~--17b--19b---------|
g----------------------------------------------------------|
d----------------------------------------------------------|
a----------------------------------------------------------|
E----------------------------------------------------------|

palm mute all these notes, except the last six (17-17-17-19-19-19).
e------------------------------------------------------------------------|
b-2-2-2-2-2-2-5-5-5-5-5-5-9-9-9-9-9-9-12-12-12-12-12-12-5-5-5-5-5-7-7-7-7|
g------------------------------------------------------------------------|
d------------------------------------------------------------------------|x2
a------------------------------------------------------------------------|
E------------------------------------------------------------------------|

e------------------------------------------------------------------------|
b-2-2-2-2-2-2-5-5-5-5-5-5-9-9-9-9-9-9-12-12-12-12-12-12-17-17-17-17-191919|
g------------------------------------------------------------------------|
d------------------------------------------------------------------------|x2
a------------------------------------------------------------------------|
E------------------------------------------------------------------------|



lead guitar second time
e-----------------------------------------------------------|
b-2~--5--2--5--5/9~-10--9--10--9--/12~--5b--7b--------------|
g-----------------------------------------------------------|
d-----------------------------------------------------------|
a-----------------------------------------------------------|
E-----------------------------------------------------------|

e----------------------------------------------------------|
b-2~--5--2--5--5/9~-10--9--10--9--10/12~--17b--19b---------|
g----------------------------------------------------------|
d----------------------------------------------------------|
a----------------------------------------------------------|
E----------------------------------------------------------|

the solo part is here, but i was unsure about if it was correct, so i didn't tab it. 


this is played lower, but it goes higher and higher
e----------------------------------------------------------|
b-2~--5--2--5--5/9~-10--9--10--9--10/12~--17b--19b---------|
g----------------------------------------------------------|
d----------------------------------------------------------|
a----------------------------------------------------------|
E----------------------------------------------------------|

Caled plays this little part forefore the end of the song.

e------------------------------------------------------------|
b------------------------------------------------------------|
g------------------------------------------------------------|
d---6---6/7--7-------9----9/11--11-------9--------4/6--6-----|
a-7---7--------9/11----11----------12/11----6-6-6------------|
E------------------------------------------------------------|


e-----------------------------------------------------------|
b-2~--5--2--5--5/9~-10--9--10--9--/12~--5b--7b--------------|
g-----------------------------------------------------------|
d-----------------------------------------------------------|
a-----------------------------------------------------------|
E-----------------------------------------------------------|


e----------------------------------------------------------|
b-2~--5--2--5--5/9~-10--9--10--9--10--10/12~--17b--19b-----|
g----------------------------------------------------------|
d----------------------------------------------------------|
a----------------------------------------------------------|
E----------------------------------------------------------|




-----------------------------------------------------------------------------


END!!!
comments
We did not receive enough feedback on this tab! Please rate:
1 2 3 4 5
2 comments total.
0 reply
kings_of_leon wrote on November 26 2011, 11:35 am

its pretty good but theres still quite a few mistakes in it. like the intro to knocked up is played with harmonics

0 reply
Macheeoo wrote on November 27 2011, 10:22 pm

Thanks! I am aware that there are mistakes. Also, I am more than upfront with the fact that these tabs are by other people. I think that if you did a decent job tabbing a song, or if you have at least part of a song correct and nobody else has offered anything better, that you should get some credit. The best tabs that can be found on this website for the songs on this album are arranged by me and everyone that tabbed a song if fully responsible for their work. I would not even have the opportunity to share this work with out them.

I want to post or [tab]
guest
You may want to rate the tab now too:
select rating
Please do not post tabs as comments. Select "correction" instead!