Oops, an error
Loading. Please wait.

Come Around Sundown Tab

9,318 views 30 this week
2 commentsread comments
1 2 3 4 5
excellent!
x 1
Autoscroll
+/-
esc
set tempo
stop
Contributor
Difficulty
intermediate
Hey! There's an official Ultimate Guitar app which is ideal
for learning songs when you're away from computer. Get the app
WARNING: You are trying to view
                                    content from Ultimate-Guitar.com
                                    in an unauthorized application,
                                    which is prohibited.

                                    Please use an official Ultimate
                                    Guitar Tabs application for iPhone,
                                    iPad or Android to access legitimate
                                    chords, guitar, bass, and drum tabs
                                    from Ultimate-Guitar.com database.

                                    Type "ultimate guitar tabs" in Apple
                                    App Store's or Android Market's
                                    search to find the application.
This is a compilation of tabs from various users to form a perfect album tab.
All credit will be properly given to each user that contributed to towards the
album's tabs/chords. REMEMBER ALL CREDIT IS GIVEN 
(I only tweak to clean up! This could not have been done without you!)


Artist: Kings Of Leon
Album: Come Around Sundown
Tracks:
1. The End          (Tuning: EADGBE)
2. Radioactive      (Tuning: EADGBE)
3. Pyro             (Tuning: EADGBE)
4. Mary             (Tuning: EADGBE)
5. The Face         (Tuning: EADGBE)
6. The Immortals    (Tuning: EADGBE)
7. Back Down South  (Tuning: EADGBE) 
8. Beach Side       (Tuning: EADGBE)
9. No Money         (Tuning: EADGBE)
10.Pony Up          (Tuning: EADGBE)
11.Birthday         (Tuning: EADGBE)
12.Mi Amigo         (Tuning: EADGBE)
13.Pickup Truck     (Tuning: EADGBE)



-----------------------------------------------------------------------------


1. The End
   Tuning: EADGBE
Tabbed By: Jashua92


[INTRO]

  Jared bass
G|----------------------------------|
D|----------------------------------| \ plays (you only do the slide)
A|-----9-----9---------9-----9-9s13-| / twice (when you switch positions)
E|-7-7---7-7---7-7-7-7---7-7--------|

G|------------------------------------------------|
D|------------------------------------------------| \ plays
A|-------13-------13-------------13-------13-13s9-| / twice
E|-11-11----11-11----11-11-11-11----11-11---------|

  Matthew left guitar
e|---------------------------------------------------|
B|-2h4-4s7-4s11~-------------------------------------|
G|---------------------------------------------------|
D|---------------------------------------------------|
A|---------------------------------------------------|
E|---------------------------------------------------|

  Chris Coleman tremolo background guitar
e|---------------------------------------------------|
B|-4t/12t-11t----------------------------------------|
G|---------------------------------------------------|
D|------------13t\-----------------------------------|
A|---------------------------------------------------|
E|---------------------------------------------------|

[VERSE]

  Jared bass
G|---------------------------------------------------|
D|---------------------------------------------------|
A|-------9-----9---------------9-----9---------------|
E|-2s7-7---7-7---7-7k----2s7-7---7-7---7-7k----------|

G|----------------------------------------------------------|
D|----------------------------------------------------------|
A|---------13-------13-------------------13-------13--------|
E|-7s11-11----11-11----11-11k----7s11-11----11-11----11-11k-|

  Caleb right guitar
  He plays this right before chorus
   This     could be the  end (switches chord on this, could and the)
e|----------------------------------------------------------|
B|----------------------------------------------------------|
G|----------------------------------------------------------|
D|-13-------11-------9--------------------------------------|
A|-13-------11-------9--------------------------------------|
E|-11-------9--------7--------------------------------------|

[BRIDGE]

  Jared bass
G|--------------------------|
D|--------------------------|
A|------9---------9-----11\-|
E|-7-------/11--------------|

  Caleb guitar
e|--------------------------|
B|--------------------------|
G|--------------------------|
D|-9-------9s13---13s14-14\-|
A|-9-------9s13---13s14-14\-|
E|-7-------7s11---11s12-12\-|

[CHORUS]

  Jared bass
G|----------------------------------|
D|----------------------------------| \ plays
A|-----9-----9---------9-----9-9s13-| / twice
E|-7-7---7-7---7-7-7-7---7-7--------|

G|------------------------------------------------|
D|------------------------------------------------| \ plays
A|-------13-------13-------------13-------13-13s9-| / twice
E|-11-11----11-11----11-11-11-11----11-11---------|

  Chris Coleman tremolo background guitar
e|---------------------------------------------------|
B|-4t/12t-11t----------------------------------------|
G|---------------------------------------------------|
D|------------13t\-----------------------------------|
A|---------------------------------------------------|
E|---------------------------------------------------|

  Matthew left guitar
e|---------------------------------------------------|
B|-2h4-4s7-4s11~-------------------------------------|
G|---------------------------------------------------|
D|---------------------------------------------------|
A|---------------------------------------------------|
E|---------------------------------------------------|

  Caleb right guitar
  He climbs the neck with the chord shape as Jared does
  on the bass, when Jared plays Bm, so does caleb, etc.
  It's on every "this could be the end".
e|---------------------------------------------------|
B|---------------------------------------------------|
G|---------------------------------------------------|
D|-9-9-9-9-11-13-13-13-13----------------------------|
A|-9-9-9-9-11-13-13-13-13----------------------------|
E|-7-7-7-7-9--11-11-11-11----------------------------|

  He finishes up with going down the neck to the Bm,
  getting right into the verse
e|---------------------------------------------------|
B|---------------------------------------------------|
G|---------------------------------------------------|
D|-13-11-9-------------------------------------------|
A|-13-11-9-------------------------------------------|
E|-11-9--7-------------------------------------------|

[BRIDGE/SOLO/OUTRO]

  Jared bass
G|----------------------------------|
D|----------------------------------| \ plays
A|-----9-----9---------9-----9-9s13-| / twice
E|-7-7---7-7---7-7-7-7---7-7--------|

G|------------------------------------------------|
D|------------------------------------------------| \ plays
A|-------13-------13-------------13-------13-13s9-| / twice
E|-11-11----11-11----11-11-11-11----11-11---------|

  Matthew left guitar
e|---------------------------------------------------|
B|-4t/12t-11t-------------------4t/12t-11t-----------|
G|---------------------------------------------------|
D|------------13t\-------------------------13t\------|
A|---------------------------------------------------|
E|---------------------------------------------------|

  Matthew solo
  He uses effects to play this but you can just bend/pull-hammer
  The whole solo is played with tremolo-technique so i wont
  put up t's, it will just make it confusing
e|----------------------------------------------------------------------------------|
B|----------------------------------------------------------------------------------|
G|-11h13-11h13-11h13----11h13-11h13-11h13----11h13-11h13-11h13----11h13-11h13-11h13-|
D|----------------------------------------------------------------------------------|
A|----------------------------------------------------------------------------------|
E|----------------------------------------------------------------------------------|

e|----------------------------------------------------------------------------------|
B|----------------------11-13-------------------------------------------------------|
G|-11b13r11b13r11----13---------11h13-11h13-11h13----11h13-11h13-11h13---11b13------|
D|----------------------------------------------------------------------------------|
A|----------------------------------------------------------------------------------|
E|----------------------------------------------------------------------------------|

e|--------------------------------------------------------------------------------------|
B|---------------------------------------11-13------------------------------------------|
G|-11h13-11h13-11h13---11h13-11h13-11h13---------11h13-11h13-11h13----11h13-11h13-11h13-|
D|--------------------------------------------------------------------------------------|
A|--------------------------------------------------------------------------------------|
E|--------------------------------------------------------------------------------------|

e|--------|
B|--------|
G|-11h13~-|
D|--------|
A|--------|
E|--------|



---------------------------------------------------------------------------------------------


2. Radioactive
   Tuning: EADGBE
Tabbed By: Savy7



Matthew:

Pre-Verse:
e|-17p13----15p13----17p13----15p13----17p13---------------------------------|
B|-------13-------13-------13-------13-------13------------------------------|
G|---------------------------------------------------------------------------|
D|---------------------------------------------------------------------------|
A|---------------------------------------------------------------------------|
E|---------------------------------------------------------------------------|

There is a leading '13' on the B-string, on the + (and) of 4, going into this lead line, 
the lick first happens during the intro.

Verse:
e|--------------------|------------------------------------------------------|
B|--------------------|------------------------------------------------------|
G|-10-7---10---7----7-|-7------7---------------------------------------------|
D|---------------10---|---10-------10-7-7------------------------------------|
A|--------------------|------------------------------------------------------|
E|--------------------|------------------------------------------------------|
    + 2    a   + 4 +    + 2    a   + 4 +        <-- This is the counting for the verse.

Chorus:
e|-13-13-13-13-|13-13-13-13-|13-13-13-13-|15-15-15-15------------------------|
B|-13-13-13-13-|13-13-13-13-|13-13-13-13-|13-13-13-13------------------------|
G|-------------|------------|------------|-----------------------------------|
D|-------------|------------|------------|-----------------------------------|
A|-------------|------------|------------|-----------------------------------|
E|-------------|------------|------------|-----------------------------------|

Caleb:

Pre-Verse:
e|-----------------------------------------------------|----------------------|
B|-----------------------------------------------------|----------------------|
G|-----------------------------------------------------|----------------------|
D|-----------------------------------------------------|----------------------|
A|-----------------------------------------------------|----------------------|
E|-5/-13--13-13-13-13-13-13-1313--13-13-13-13-13-13--5-|----------------------|

Here is the counting for the '5' leading into the '13', and all of the basic accent hits 
the '13':
+ 1    2   a(3) + (4)e   1e  2   a(3) + (4) +

The slide from '5' to '13' happens on count 1, all the way into count 2. And when going 
the verse, simply slide all the way down the bridge (into nothingness...)

Verse:
There isn't a verse on the official recording, but when played live, I always see Caleb 
do a palm-mutted version of the pre-verse

Chorus:
e|-------------------------------------------------------|--------------------|
B|-------------------------------------------------------|--------------------|
G|-------------------------------------------------------|--------------------|
D|-7/-15-15-15-15-15-15-15-15-15-15-15-15-15-15-15-15--7-|--------------------|
A|-7/-15-15-15-15-15-15-15-15-15-15-15-15-15-15-15-15--7-|--------------------|
E|-5/-13-13-13-13-13-13-13-13-13-13-13-13-13-13-13-13--5-|--------------------|




---------------------------------------------------------------------------------------------


3. Pyro
   Tuning: EADGBE
Tabbed By: Jashua92



***
INTRO
***


[MATTHEW - LEFT GUITAR]

   1    &    2    &    3    &    4    &    
e|-----------------------------------------|
B|------4---------4---------4---------4----|
G|---4------4--4------4--4------4--4-----4-|
D|-6---6-----6---6-----6---6-----6---6-----|
A|-----------------------------------------|\
E|-----------------------------------------| \
                                              \ repeat
   5    &    6    &    7    &    8    &       / twice
e|-----------------------------------------| /
B|------4---------4---------4---------4----|/
G|---6------6--6------6--6------6--6-----6-|
D|-6---6-----6---6-----6---6-----6---6-----|
A|-----------------------------------------|
E|-----------------------------------------|

   (sorry   for   the    tight   space)
   1    &    2    &    3    &    4    &    
e|-----------------------------------------| -- repeat
B|------12--------12--------12--------12---| -- four
G|---13----13--13----13--13----13--13----13| -- times
D|/14--14----14--14----14--14----14--14----|
A|-----------------------------------------|
E|-----------------------------------------|


[CALEB - RIGHT GUITAR]
[the picking pattern is the
same as in matthews lick above,
watch link above for guidance]

   1    &    2    &    3    &    4    &    
e|-----------------------------------------|
B|-----------------------------------------|
G|-----------------------------------------|
D|-----------------------------------------|
A|------14--------14--------14--------14---|\
E|-0---------0---------0---------11--------| \
                                              \ repeat
   5    &    6    &    7    &    8    &       / twice
e|-----------------------------------------| /
B|-----------------------------------------|/
G|-----------------------------------------|
D|-----------------------------------------|
A|------14--------14--------14--------14---|
E|-0---------0---------0---------11--------|

   1    &    2    &    3    &    4    &     
e|-----------------------------------------|
B|-----------------------------------------|
G|-----------------------------------------|
D|-11-------------11-s-7--------------7----|
A|-11-------------11-s-7--------------7----|\
E|-9---------------9-s-5--------------5----| \
                                              \ repeat
   5    &    6    &    7    &    8    &       / twice
e|-----------------------------------------| /
B|-----------------------------------------|/
G|-----------------------------------------|
D|-14--------------------------------------|
A|-14---14--------14--------14--------14---|
E|-0---------0---------0---------0---------|


***
1st VERSE
***


[MATTHEW]

   1    &    2    &    3    &    4    &    
e|-----------------------------------------|
B|----0------------------------------------|
G|-----------------------------------------|
D|-1h2-------------------------------------|
A|-----------------------------------------|
E|-----------------------------------------|

   5    &    6    &    7    &    8    &    
e|-----------------------------------------|
B|-----------------------------------------|
G|---------doesnt-play-anything------------|
D|-----------------------------------------|
A|-----------------------------------------|
E|-----------------------------------------|

   1    &    2    &    3    &    4    &    
e|-----------------------------------------|
B|----0-----------------------------0------|
G|-----------------------------------------|
D|-1h2---------------------------1h2-------|
A|-----------------------------------------|
E|-----------------------------------------|

   5    &    6    &    7    &    8    &    
e|-----------------------------------------|
B|-----------------------------------------|
G|-----------------------------------------|
D|-1~--------------------------------------|
A|-----------------------------------------|
E|-----------------------------------------|

   1    &    2    &    3    &    4    &    
e|-----------------------0-----------------|
B|----0-----------------0------------------|
G|---------------------1-------------------|
D|-1h2-------------------------------------|
A|-----------------------------------------|
E|-----------------------------------------|

   5    &    6    &    7    &    8    &    
e|-----------------------------------------|
B|-----------0-----------------------------|
G|-----------------------------------------|
D|-2--------------1------------------------|
A|-----------------------------------------|
E|-----------------------------------------|

   1    &    2    &    3    &    4    &    
e|-----------------------------------------|
B|----0-----------------------------0------|
G|-----------------------------------------|
D|-1h2---------------------------1h2-------|
A|-----------------------------------------|
E|-----------------------------------------|

   5    &    6    &    7    &    8    &    
e|-----------------------------------------|
B|-----------------------------------------|
G|-----------------------------------------|
D|-1~--------------------------------------|
A|-----------------------------------------|
E|-----------------------------------------|


[CALEB]
[again, same picking pattern as matthews intro]

   1    &    2    &    3    &    4    &    
e|-----------------------------------------|
B|-----------------------------------------|
G|-----------------------------------------|
D|-----------------------------------------|
A|------11--------11--------7---------7----|
E|-9---------9---------5---------5---------|

   5    &    6    &    7    &    8    &    
e|-----------------------------------------|
B|-----------------------------------------|
G|-----------------------------------------|
D|-----------------------------------------|
A|------14--------14--------14--------14---|
E|-0---------0---------0---------0---------|

   1    &    2    &    3    &    4    &    
e|-----------------------------------------|
B|-----------------------------------------|
G|-----------------------------------------|
D|-----------------------------------------|
A|------11--------11--------7---------7----|
E|-9---------9---------5---------5---------|

   5    &    6    &    7    &    8    &    
e|-----------------------------------------|
B|-----------------------------------------|
G|-----------------------------------------|
D|-----------------------------------------|
A|------14--------14--------14--------14---|
E|-0---------0---------0---------0---------|

   1    &    2    &    3    &    4    &    
e|-----------------------------------------|
B|-----------------------------------------|
G|-----------------------------------------|
D|-----------------------------------------|
A|------11--------11--------7---------7----|
E|-9---------9---------5---------5---------|

   5    &    6    &    7    &    8    &    
e|-----------------------------------------|
B|-----------------------------------------|
G|-----------------------------------------|
D|-----------------------------------------|
A|------14--------14--------14--------14---|
E|-0---------0---------0---------0---------|

   1    &    2    &    3    &    4    &    
e|-----------------------------------------|
B|-----------------------------------------|
G|-----------------------------------------|
D|-----------------------------------------|
A|------11--------11--------7---------7----|
E|-9---------9---------5---------5---------|

   5    &    6    &    7    &    8    &    
e|-----------------------------------------|
B|-----------------------------------------|
G|-----------------------------------------|
D|-----------------------------------------|
A|------14--------14--------14--------14---|
E|-0---------0---------0---------0---------|


***
1st CHORUS
***


[MATTHEW]

   1    &    2    &    3    &    4    &    
e|-----------------------------------------| -- repeat
B|------12--------12--------12--------12---| -- four
G|---13----13--13----13--13----13--13----13| -- times
D|/14--14----14--14----14--14----14--14----|
A|-----------------------------------------|
E|-----------------------------------------|


[CALEB]

   1    &    2    &    3    &    4    &     
e|-----------------------------------------|
B|-----------------------------------------|
G|-----------------------------------------|
D|-11-------------11-s-7--------------7----|
A|-11-------------11-s-7--------------7----|\
E|-9---------------9-s-5--------------5----| \
                                              \ repeat
   5    &    6    &    7    &    8    &       / twice
e|-----------------------------------------| /
B|-----------------------------------------|/
G|-----------------------------------------|
D|-14--------------------------------------|
A|-14---14--------14--------14--------14---|
E|-0---------0---------0---------0---------|


***
2nd VERSE
***


[MATTHEW]
[this is basically the same as the first verse,
except one octave higher]

   1    &    2    &    3    &    4    &    
e|-----------------------------------------|
B|-----12----------------------------12----|
G|-----------------------------------------|
D|-13h14-------------------------13h14-----|
A|-----------------------------------------|
E|-----------------------------------------|

   5    &    6    &    7    &    8    &    
e|-----------------------------------------|
B|----------------9~-----------------------|
G|-----------------------------------------|
D|-----------------------------------------|
A|-----------------------------------------|
E|-----------------------------------------|

   1    &    2    &    3    &    4    &    
e|-----------------------------------------|
B|----12-----------------------------12----|
G|-----------------------------------------|
D|-13h14-------------------------13h14-----|
A|-----------------------------------------|
E|-----------------------------------------|

   5    &    6    &    7    &    8    &    
e|-----------------------------------------|
B|-----------------------------------------|
G|-----------------------------------------|
D|-13~-------------------------------------|
A|-----------------------------------------|
E|-----------------------------------------|

   1    &    2    &    3    &    4    &    
e|-----------------------------------------|
B|-----12----------------------------------|
G|-----------------------------------------|
D|-13h14-----------------------------------|
A|-----------------------------------------|
E|-----------------------------------------|

   5    &    6    &    7    &    8    &    
e|-9----9----4----4~-----------------------|
B|-----------------------------------------|
G|-----------------------------------------|
D|-----------------------------------------|
A|-----------------------------------------|
E|-----------------------------------------|

   1    &    2    &    3    &    4    &    
e|-----------------------------------------|
B|-----12----------------------------12----|
G|-----------------------------------------|
D|-13h14-------------------------13h14-----|
A|-----------------------------------------|
E|-----------------------------------------|

   5    &    6    &    7    &    8    &    
e|-----------------------------------------|
B|-----------------------------------------|
G|-----------------------------------------|
D|-13~-------------------------------------|
A|-----------------------------------------|
E|-----------------------------------------|


[CALEB]
[again, same picking pattern as matthews intro]

   1    &    2    &    3    &    4    &    
e|-----------------------------------------|
B|-----------------------------------------|
G|-----------------------------------------|
D|-----------------------------------------|
A|------11--------11--------7---------7----|
E|-9---------9---------5---------5---------|

   5    &    6    &    7    &    8    &    
e|-----------------------------------------|
B|-----------------------------------------|
G|-----------------------------------------|
D|-----------------------------------------|
A|------14--------14--------14--------14---|
E|-0---------0---------0---------0---------|

   1    &    2    &    3    &    4    &    
e|-----------------------------------------|
B|-----------------------------------------|
G|-----------------------------------------|
D|-----------------------------------------|
A|------11--------11--------7---------7----|
E|-9---------9---------5---------5---------|

   5    &    6    &    7    &    8    &    
e|-----------------------------------------|
B|-----------------------------------------|
G|-----------------------------------------|
D|-----------------------------------------|
A|------14--------14--------14--------14---|
E|-0---------0---------0---------0---------|

   1    &    2    &    3    &    4    &    
e|-----------------------------------------|
B|-----------------------------------------|
G|-----------------------------------------|
D|-----------------------------------------|
A|------11--------11--------7---------7----|
E|-9---------9---------5---------5---------|

   5    &    6    &    7    &    8    &    
e|-----------------------------------------|
B|-----------------------------------------|
G|-----------------------------------------|
D|-----------------------------------------|
A|------14--------14--------14--------14---|
E|-0---------0---------0---------0---------|

   1    &    2    &    3    &    4    &    
e|-----------------------------------------|
B|-----------------------------------------|
G|-----------------------------------------|
D|-----------------------------------------|
A|------11--------11--------7---------7----|
E|-9---------9---------5---------5---------|

   5    &    6    &    7    &    8    &    
e|-----------------------------------------|
B|-----------------------------------------|
G|-----------------------------------------|
D|-----------------------------------------|
A|------14--------14--------14--------14---|
E|-0---------0---------0---------0---------|


***
2nd CHORUS
***


[MATTHEW]

   1    &    2    &    3    &    4    &    
e|-----------------------------------------|
B|------4---------4---------4---------4----|
G|---4------4--4------4--4------4--4-----4-|
D|-6---6-----6---6-----6---6-----6---6-----|
A|-----------------------------------------|\
E|-----------------------------------------| \
                                              \ repeat
   5    &    6    &    7    &    8    &       / twice
e|-----------------------------------------| /
B|------4---------4---------4---------4----|/
G|---6------6--6------6--6------6--6-----6-|
D|-6---6-----6---6-----6---6-----6---6-----|
A|-----------------------------------------|
E|-----------------------------------------|

   (sorry   for   the    tight   space)
   1    &    2    &    3    &    4    &    
e|-----------------------------------------| -- repeat
B|------12--------12--------12--------12---| -- four
G|---13----13--13----13--13----13--13----13| -- times
D|/14--14----14--14----14--14----14--14----|
A|-----------------------------------------|
E|-----------------------------------------|


[CALEB]

   1    &    2    &    3    &    4    &     
e|-----------------------------------------|
B|-----------------------------------------|
G|-----------------------------------------|
D|-11-------------11-s-7--------------7----|
A|-11-------------11-s-7--------------7----|\
E|-9---------------9-s-5--------------5----| \
                                              \ repeat
   5    &    6    &    7    &    8    &       / four times
e|-----------------------------------------| /
B|-----------------------------------------|/
G|-----------------------------------------|
D|-14--------------------------------------|
A|-14---14--------14--------14--------14---|
E|-0---------0---------0---------0---------|


***
BRIDGE
***


[MATTHEW]

   1    &    2    &    3    &    4    &    
e|-----------------------------------------|
B|------9----7-----------------------------|
G|-9-------------------6----9---------6\---|
D|----------------9------------------------|
A|-----------------------------------------|
E|-----------------------------------------|

   5    &    6    &    7    &    8    &    
e|-----------------------------------------|
B|-----------------------------------------|
G|-1--2-1--2-1~----------------------------|
D|-----------------------------------------|
A|-----------------------------------------|
E|-----------------------------------------|

   1    &    2    &    3    &    4    &    
e|-----------------------------------------|
B|------9----7-----------------------------|
G|-9-------------------6----9---------6/---|
D|----------------9------------------------|
A|-----------------------------------------|
E|-----------------------------------------|

   5    &    6    &    7    &    8    &    
e|-----------------------------------------|
B|-----------------------------------------|
G|-13-1413-1413~---------------------------|
D|-----------------------------------------|
A|-----------------------------------------|
E|-----------------------------------------|

>> here goes the *watch her roll* part >>

   1    &    2    &    3    &    4    &    
e|-----------------------------------------|
B|------4---------4---------4---------4----|
G|---4------4--4------4--4------4--4-----4-|
D|-6---6-----6---6-----6---6-----6---6-----|
A|-----------------------------------------|
E|-----------------------------------------|

   5    &    6    &    7    &    8    &     
e|-----------------------------------------|
B|------4---------4---------4---------4----|
G|---6------6--6------6--6------6--6-----6-|
D|-6---6-----6---6-----6---6-----6---6-----|
A|-----------------------------------------|
E|-----------------------------------------|

   1    &    2    &    3    &    4    &    
e|-----------------------------------------|
B|------4---------4---------4---------4----|
G|---4------4--4------4--4------4--4-------|
D|-6---6-----6---6-----6---6-----6---6-----|
A|-----------------------------------------|
E|-----------------------------------------|

   5    &    6    &    7    &    8    &    
e|-----------------------------------------|
B|-----------------------------------------|
G|---------doesnt-play-anything------------|
D|-----------------------------------------|
A|-----------------------------------------|
E|-----------------------------------------|



[CALEB]

   1    &    2    &    3    &    4    &    
e|-5--------------5----4--------------4----|
B|-5--------------5----4--------------4----|
G|-6--------------6----5--------------5----|
D|-7--------------7----6--------------6----|
A|-7--------------7----6--------------6----|\
E|-5--------------5----4--------------4----| \
                                              \ repeat
   5    &    6    &    7    &    8    &       / twice
e|-2---------------------------------------| /
B|-2---------------------------------------|/
G|-3---------------------------------------|
D|-4---------------------------------------|
A|-4---------------------------------------|
E|-2---------------------------------------|

>> here goes the *watch her roll* part >>

...in which Caleb doesnt play anithing


***
3rd CHORUS
***


[MATTHEW]

   1    &    2    &    3    &    4    &
e|-----------------------------------------| -- repeat
B|------12--------12--------12--------12---| -- eleven
G|---13----13--13----13--13----13--13----13| -- times
D|/14--14----14--14----14--14----14--14----|
A|-----------------------------------------|
E|-----------------------------------------|

   1    &    2    &    3    &    4    &
e|-----------------------------------------|
B|------4---------4---------4---------4----|
G|---4------4--4------4--4------4--4-----4-|
D|-6---6-----6---6-----6---6-----6---6-----|
A|-----------------------------------------|
E|-----------------------------------------|

   5    &    6    &    7    &    8    &
e|-----------------------------------------|
B|------4---------4---------4---------4----|
G|---6------6--6------6--6------6--6-----6-|
D|-6---6-----6---6-----6---6-----6---6-----|
A|-----------------------------------------|
E|-----------------------------------------|

   1    &    2    &    3    &    4    &
e|-----------------------------------------|
B|------4---------4---------4---------4----|
G|---4------4--4------4--4------4--4-----4-|
D|-6---6-----6---6-----6---6-----6---6-----|
A|-----------------------------------------|
E|-----------------------------------------|

   5    &    6    &    7    &    8    &
e|-----------------------------------------|
B|------4----------------------------------|
G|------6----------------------------------|
D|-6---------------------------------------|
A|-----------------------------------------|
E|-----------------------------------------|


[CALEB]
[for strumming pattern check the bottom of the page]

   1    &    2    &    3    &    4    & 
e|-0---0---0---0---0---0---0---0---0---0---|
B|-0---0---0---0---0---0---0---0---0---0---|
G|-13--13--13--13--13--13--13--13--13--13--|
D|-14--14--14--14--14--14--14--14--14--14--|
A|-14--14--14--14--14--14--14--14--14--14--|\
E|-0---0---0---0---0---0---0---0---0---0---| \
                                              \ repeat
   5    &    6    &    7    &    8    &       / two times
e|-0---0---0---0---0---0---0---0---0---0---| /
B|-0---0---0---0---0---0---0---0---0---0---|/
G|-13--13--13--13--13--13--13--13--13--13--|
D|-14--14--14--14--14--14--14--14--14--14--|
A|-14--14--14--14--14--14--14--14--14--14--|
E|-0---0---0---0---0---0---0---0---0---0---|

   1    &    2    &    3    &    4    & 
e|-----------------------------------------|
B|-----------------------------------------|
G|---------------------6---6---6---6---6---|
D|-11--11--11--11--11--7---7---7---7---7---|
A|-11--11--11--11--11--7---7---7---7---7---|\
E|-9---9---9---9---9---5---5---5---5---5---| \
                                              \ repeat
   5    &    6    &    7    &    8    &       / three times
e|-----------------------------------------| /
B|-----------------------------------------|/
G|-13--13--13--13--13--13--13--13--13--13--|
D|-14--14--14--14--14--14--14--14--14--14--|
A|-14--14--14--14--14--14--14--14--14--14--|
E|-0---0---0---0---0---0---0---0---0---0---|

   1    &    2    &    3    &    4    &     
e|-----------------------------------------|
B|-----------------------------------------|
G|---------------------6---6---6---6---6---|
D|-11--11--11--11--11--7---7---7---7---7---|
A|-11--11--11--11--11--7---7---7---7---7---|
E|-9---9---9---9---9---5---5---5---5---5---|

   5    &    6    &    7    &    8    &
e|-----------------------------------------|
B|-----------------------------------------|
G|-----------------------------------------|
D|-----------------------------------------|
A|------14--------14--------14--------14---|
E|-0---------0---------0---------11--------|

   1    &    2    &    3    &    4    & 
e|-----------------------------------------|
B|-----------------------------------------|
G|-----------------------------------------|
D|-----------------------------------------|
A|------14--------14--------14--------14---|
E|-0---------0---------0---------11--------|

   5    &    6    &    7    &    8    &
e|-----------------------------------------|
B|-----------------------------------------|
G|-----------------------------------------|
D|-----------------------------------------|
A|------14--------14--------14--------14---|
E|-0---------0---------0---------11--------|

   1    &    2    &    3    &    4    & 
e|-----------------------------------------|
B|-----------------------------------------|
G|(13)-------------------------------------|
D|-14--------------------------------------|
A|-14--------------------------------------|
E|-0---------------------------------------|




---------------------------------------------------------------------------------------------


4. Mary
   Tuning: EADGBE
Tabbed By: Antroolez & Hbwold



Intro riff - 

G|-----------------|
D|--/9---6--4--6---|
A|-----------------|
E|-----------------|

Bluesy triplets! (I've just realised the bit below, each part should be twice as long)

         B                 B              E              F#  

e|----------------|----------------|--------------|--------------|
B|----------------|----------------|--------------|--------------|
G|----------------|----------------|--------------|--------------|
D|--9--9--9---9---|--9--9--9---9---|--2--2--2--2--|--4--4--4--4--|
A|--9--9--11--11--|--9--9--11--11--|--2--2--4--4--|--4--4--6--6--|
E|--7--7--7---7---|--7--7--7---7---|--0--0--0--0--|--2--2--2--2--|


Intro - B, B, E, F# 

I don't know the lyrics....

Verse

B
   Mary, if you want it
      E        F#
I'll wave, my right
 B
I'll be here on the corner
      E        F#
Just passin', time

Pre-Chorus

Ebm      Ebm    Ebm       Ebm
    No I won't,     Never once,
         B
Make you cryyyy  

Ebm      Ebm     Ebm       Ebm
    Just to kiss,    how I'll miss 
         F#
your goodbye


We'll go to the disco
We'll be the sight
oh and we'll dance like a boyfriends
in sheer delight

Pre-chorus
Chorus


E|-7-7-7-7-7-7--------7--------7--------------------7-------------------------------------|
B|-7-7-7-7-7-7--------7--------7--------------------7---10(b)14---------14-14-14-14-14-14-|
G|-------------9(b)11---9(b)11----9--7--9(b)11--------------------------------------------|
D|----------------------------------------------------------------------------------------|
A|----------------------------------------------------------------------------------------|
E|----------------------------------------------------------------------------------------|

E|-----------------------------------------------7--10--9--10(b)12~~---------------|
B|--10(b)12--10(b)12(r)10----7--9--7--10(b)12~~-----------------------7--10--9--10-|
G|---------------------------------------------------------------------------------|
D|---------------------------------------------------------------------------------|
A|---------------------------------------------------------------------------------|
E|---------------------------------------------------------------------------------|

E|-------------------------------------------------------------------------------|
B|-7--------10--------10--------10------10----10----10----10----10----10------10-|
G|----9/11------9/11------9/11------9/11--9/11--9/11--9/11--9/11--9/11--9/11-----|
D|-------------------------------------------------------------------------------|
A|-------------------------------------------------------------------------------|
E|-------------------------------------------------------------------------------|


E|---------------------------------------------------------------------------|
B|-----10----10----10----10------10------------------------------------------|
G|-9/11--9/11--9/11--9/11--9/11------9--7--9--9(b)11--11(r)9-----------------|
D|------------------------------------------------------------7--9(b)11----7-|
A|---------------------------------------------------------------------------|
E|---------------------------------------------------------------------------|


E|-----------------------7-7-----------|
B|-----------------------7-7-----------|
G|------------7--9(b)11-------9(b)11~~-|
D|------7--9---------------------------|
A|-7/9---------------------------------|
E|-------------------------------------|

Prechorus
Chorus



---------------------------------------------------------------------------------------------


5. The Face
   Tuning: EADGBE
Tabbed By: Pmccormack



INTRO: (MATTHEW)


E|-------9v--12\4v-------------9v--12\4v----4~-|
B|-10v--------------5v---10v---------------5~--|
G|----------------------------------------6~---|
D|---------------------------------------------|
A|---------------------------------------------|
E|---------------------------------------------|



E|-------------9---9-|
B|-10-9-10-9-10--10--|
G|-------------------|   <--- (Play 8 Times)
D|-------------------|
A|-------------------|
E|-------------------|



E|--------------9-9-\0-|
B|-10-9-10-9-10---10---|
G|---------------------|    <---  (9th Time play this)
D|---------------------|
A|---------------------|
E|---------------------|


VERSE: (CALEB)


E|-----------------------------------------------------|
B|-----------------------------------------------------|
G|-----------------------------------------------------|
D|-7-----4-----12-12-12-----12-12\11-11-11-----11-11\7-|
A|-7-----4-----12-12-12-----12-12\11-11-11-----11-11\7-|
E|-5-----2-----10-10-10-----10-10\9--9--9------9--9-\5-|


VERSE: (MATTHEW)


E|-----------2------9-------4~----|
B|---2------2------10------5~-----|
G|--2------2------11------6~------|
D|-2------------------------------|
A|--------------------------------|
E|--------------------------------|



E|-------9v--12\4v-------------9v--12\4v----4~-|
B|-10v--------------5v---10v---------------5~--|
G|----------------------------------------6~---|
D|---------------------------------------------|
A|---------------------------------------------|
E|---------------------------------------------|



E|-----------2------9----12----4~-----|
B|---2------2------10---------5~------|
G|--2------2------11---------6~-------|    <--- (Play twice)
D|-2----------------------------------|
A|------------------------------------|
E|------------------------------------|



E|----------9--9--9------------9--9------|
B|----------10-10-10-9-9-------10-10-9-9-|
G|---------------------------------------|
D|---------------------------------------|
A|-12-12-12--------------12-12-----------|
E|---------------------------------------|



E|-----------9--9--9----------9--9------|
B|-----------10-10-10-9-9-----10-10-9-9-|
G|-9-9----------------------------------|
D|--------------------------------------|
A|-----9-9-9--------------9-9-----------|
E|--------------------------------------|



E|--------------9--9--9------------9--9------|
B|--------------10-10-10-9-9-------10-10-9-9-|
G|-9-9---------------------------------------|
D|-----12-12-12--------------12-12-----------|
A|-------------------------------------------|
E|-------------------------------------------|



E|--------------9--9--9------------9--9----------|
B|--------------10-10-10-9-9-------10-10-9-9-----|
G|-9-9---------------------------------------9-9-|
D|-----11-11-11--------------11-11---------------|
A|-----------------------------------------------|
E|-----------------------------------------------|



E|-------9v--12\4v-------------9v--12\4v----4~-|
B|-10v--------------5v---10v---------------5~--|
G|----------------------------------------6~---|
D|---------------------------------------------|
A|---------------------------------------------|
E|---------------------------------------------|


PRE-BRIDGE: (CALEB)


E|-5-|
B|-5-|
G|-6-|
D|-7-|  <---  (Strum this chord many, many times)
A|---|
E|---|


PRE-BRIDGE: (MATTHEW)


E|-10--9v---------|
B|---------10--9v-|
G|----------------|
D|----------------|
A|----------------|
E|----------------|



E|-12--9v--14--9v---------|
B|-----------------10--9v-|
G|------------------------|
D|------------------------|
A|------------------------|
E|------------------------|


BRIDGE: (CALEB)


E|-9--|
B|-10-|
G|----|
D|----|   <---  (Strum this chord until 2:50 then play intro riff)
A|----|
E|----|


BRIDGE: (MATTHEW)

"RIDE OUT THE WAVE"

E|-19--21v-21v-21v-21v-21v-21v-21v-21v-|
B|-------------------------------------|
G|-------------------------------------|   <---  (Play 4 times)
D|-------------------------------------|
A|-------------------------------------|
E|-------------------------------------|



E|-9v-9v-9v---9v-9v-9v---14-9v-9v-9v---12-9v-9v-9v-|
B|-------------------------------------------------|
G|-------------------------------------------------|
D|-------------------------------------------------|
A|-------------------------------------------------|
E|-------------------------------------------------|

"THE ONE AND ONLY FACE"

E|-14v--10-9v-----------10-9v-----------12-9v---14-9v-|
B|--------------10-9v-----------10-9v-----------------|
G|----------------------------------------------------|
D|----------------------------------------------------|
A|----------------------------------------------------|
E|----------------------------------------------------|



E|---------19v--21~---|
B|-10-9v--------------|
G|--------------------|
D|--------------------|
A|--------------------|
E|--------------------|


OUTRO: (MATTHEW)


E|-------9v--12\4v-------------9v--12\4v----------4~---|
B|-10v--------------5v---10v--------------5v-----5~----|
G|-------------------------------------------6--6~-----|
D|-----------------------------------------------------|
A|-----------------------------------------------------|
E|-----------------------------------------------------|




---------------------------------------------------------------------------------------------


6. The Immortals
   Tuning: EADGBE
Tabbed By: Mcfearless3133


Guitar 1
e|--7---7---7-7----7---7---7----7---7---7-7----7---7---|
B|----9---9----------9---9--------9---9----------9---9-|
G|-----------------------------------------------------|
D|-----------------------------------------------------|
A|-----------------------------------------------------|
E|-----------------------------------------------------|

Verse :

Now the delay kicks in.

e|-----------11-----------------11---------------------|
B|--9--------12--------9--------12---------------------|
G|--9------------------9-------------------------------|
D|-----------------------------------------------------|
A|-----------------------------------------------------|
E|-----------------------------------------------------|

The open road
The path of greatness
It´s at your fingers
Go be the one that keeps on fighting
Go be the stranger

Gently strum the chords for this next part.

e|-----------------------------------------------------|
B|--9-------10----12----9-------10----12---------------|
G|--9--------9-----9----9--------9-----9---------------|
D|-----------------------------------------------------|
A|-----------------------------------------------------|
E|-----------------------------------------------------|

Just put your foot in front the other
Crow like the rooster
Be all and all
Together something
Fear's a danger
I say

Chorus :

Keep the delay for depth, but add some distortion.

e|-----------------------------------------------------|
B|--5(16x)--7(8x)--9(8x)--4(16x)--0(16x)---------------|
G|-----------------------------------------------------|
D|-----------------------------------------------------|
A|-----------------------------------------------------|
E|-----------------------------------------------------|


If you want to mix it up, you can also play the bass riff :

e|-----------------------------------------------------|
B|-----------------------------------------------------|
G|-----------------------------------------------------|
D|--9h11--7h9--6h7--4h6--2h4--1(8x)--2(8x)-------------|
A|-----------------------------------------------------|
E|-----------------------------------------------------|

Spill out on the streets of stars
Ride away
Find out what you are
Face to face

Repeat verse (you'll figure it out)

The windows are the perfect picture
They're always changing
Go on get lost, jump in the waters
When they are raging
I say

Chorus

Spill out on the streets of stars
Ride away
Find out what you are
Face to face
Once you've had enough
Carry on
Don't forget to love
Before you've gone

Repeat verse (again, you'll figure out exactly how many times you have to strum)

e|---------------------------------------------------------|
B|--5(16x)--7(8x)--9(8x)--4(16x)--0(16x)-------------------|
G|---------------------------------------------------------|  4x
D|---------------------------------------------------------|
A|---------------------------------------------------------|
E|---------------------------------------------------------|

Solo :

e|------------------------------------------------------|
B|--12h14--12h14--12----14b-(14)----12h14--12h14--12----|
G|-------------------13----------13------------------13-|
D|------------------------------------------------------|
A|------------------------------------------------------|
E|------------------------------------------------------|

e|-----------------------------------------------------|
B|-----------------------------------------------------|
G|--(13)-11-(11)---------------------------------------|
D|-----------------------------------------------------|
A|-----------------------------------------------------|
E|-----------------------------------------------------|


e|------------------------------------------------------|
B|--12h14--12h14--12----14b-(14)----12h14--12h14--12----|
G|-------------------13----------13------------------13-|
D|------------------------------------------------------|
A|------------------------------------------------------|
E|------------------------------------------------------|

e|-----------------------------------------------------|
B|-----------------------------------------------------|
G|--11--13--9------------------------------------------|
D|-----------------------------------------------------|
A|-----------------------------------------------------|
E|-----------------------------------------------------|


Spill out on the streets of stars
Ride away
Find out what you are
Face to face
Once you've had enough
Carry on
Don't forget to love
Before you've gone



---------------------------------------------------------------------------------------------


7. Back Down South
   Tuning: EADGBE
Tabbed By: Jashua92


INTRO]

  Matthew left guitar (finger picking)
e|------0------0----------0-----0---------0-----0-------0---------0-----|
B|-12-----12-----12---7-----7-----7---5-----5-----0-------0---------0---| \
G|----0------0------0---0-----0-----0---0-----0-------0-----0-4h5-----0-|  \ play
D|----------------------------------------------------------------------|  / twice
A|----------------------------------------------------------------------| /
E|----------------------------------------------------------------------|

  Jared bass (comes in on second round)
G|---12--12-----12--12-----12--12-----12--12----|
D|--12--12--12-12--12--12-12--12--12-12--12--12-|
A|-10--10--10-10--10--10-10--10--10-10--10--10--|
E|----------------------------------------------|

[VERSE 1]

  Jared bass
G|---12--12-----12--12-----12--12-----12--12----|
D|--12--12--12-12--12--12-12--12--12-12--12--12-|
A|-10--10--10-10--10--10-10--10--10-10--10--10--|
E|----------------------------------------------|

[BRIDGE 1]

  Jared bass
G|---12--12-----12--12-----12--12-----12--12----|
D|--12--12--12-12--12--12-12--12--12-12--12--12-|
A|-10--10--10-10--10--10-10--10--10-10--10--10--|
E|----------------------------------------------|

  Caleb right guitar acoustic
e|-3---------------------------------------------3--------------------3-|
B|-3---------------------------------------------3--------------------3-|
G|-0---------------------------------------------0--------------------0-|
D|-0---------------------------------------------2--------------------0-|
A|-2---------------------------------------------3--------------------2-|
E|-3------------------------------------------------------------------3-|

  Matthew left guitar
  play four times, on the fourth round
  skip last part and jump into bridge
e|------0------0----------0-----0---------0-----0---|----0---------0-----|
B|-12-----12-----12---7-----7-----7---5-----5-----0-|------0---------0---|
G|----0------0------0---0-----0-----0---0-----0-----|--0-----0-4h5-----0-|
D|--------------------------------------------------|--------------------|
A|--------------------------------------------------|--------------------|
E|--------------------------------------------------|--------------------|

[VERSE 2]

  Jared bass
G|---12--12-----12--12-----12--12-----12--12----|
D|--12--12--12-12--12--12-12--12--12-12--12--12-|
A|-10--10--10-10--10--10-10--10--10-10--10--10--|
E|----------------------------------------------|

  Caleb right guitar acoustic
   Underneath the stars, where we park the cars, aint showin signs of stopin'
e|-3---------------------------------------------3--------------------3-|
B|-3---------------------------------------------3--------------------3-|
G|-0---------------------------------------------0--------------------0-|
D|-0---------------------------------------------2--------------------0-|
A|-2---------------------------------------------3--------------------2-|
E|-3------------------------------------------------------------------3-|

  Matthew left guitar
e|------0------0----------0-----0---------0-----0-------0---------0-----|
B|-12-----12-----12---7-----7-----7---5-----5-----0-------0---------0---|
G|----0------0------0---0-----0-----0---0-----0-------0-----0-4h5-----0-|
D|----------------------------------------------------------------------|
A|----------------------------------------------------------------------|
E|----------------------------------------------------------------------|

[BRIDGE 2]

  Jared bass
G|---12--12-----12--12-----12--12-----12--12----|
D|--12--12--12-12--12--12-12--12--12-12--12--12-|
A|-10--10--10-10--10--10-10--10--10-10--10--10--|
E|----------------------------------------------|

  Caleb right guitar acoustic
e|-3---------------------------------------------3--------------------3-|
B|-3---------------------------------------------3--------------------3-|
G|-0---------------------------------------------0--------------------0-|
D|-0---------------------------------------------2--------------------0-|
A|-2---------------------------------------------3--------------------2-|
E|-3------------------------------------------------------------------3-|

  Matthew left guitar (using pick)
e|-----------------------------------------|
B|-----------------------------------------|
G|-2s4-2-0---0-----------0-0---2s4-2-0---0-|
D|---------2----0--0-0-0-2-2-0---------2---|
A|--------------2--2-2-2-3-3-2-------------|
E|-------------3--3--3-3-----3-------------|

[VERSE 3]

  Jared bass
G|---12--12-----12--12-----12--12-----12--12----|
D|--12--12--12-12--12--12-12--12--12-12--12--12-|
A|-10--10--10-10--10--10-10--10--10-10--10--10--|
E|----------------------------------------------|

  Caleb right guitar acoustic
e|-3---------------------------------------------3--------------------3-|
B|-3---------------------------------------------3--------------------3-|
G|-0---------------------------------------------0--------------------0-|
D|-0---------------------------------------------2--------------------0-|
A|-2---------------------------------------------3--------------------2-|
E|-3------------------------------------------------------------------3-|

  Matthew left guitar (comes in on third count)
  play twice, on the second round skip last part
  and jump into chorus
e|------0------0----------0-----0---------0-----0---|----0---------0-----|
B|-12-----12-----12---7-----7-----7---5-----5-----0-|------0---------0---| 
G|----0------0------0---0-----0-----0---0-----0-----|--0-----0-4h5-----0-|
D|--------------------------------------------------|--------------------|
A|--------------------------------------------------|--------------------|
E|--------------------------------------------------|--------------------|

[CHORUS - I'm going back down south now]

  Jared bass
G|---12--12-----12--12-----12--12-----12--12----|
D|--12--12--12-12--12--12-12--12--12-12--12--12-|
A|-10--10--10-10--10--10-10--10--10-10--10--10--|
E|----------------------------------------------|

  Caleb right guitar acoustic
e|-3---------------------------------------------3--------------------3-|
B|-3---------------------------------------------3--------------------3-|
G|-0---------------------------------------------0--------------------0-|
D|-0---------------------------------------------2--------------------0-|
A|-2---------------------------------------------3--------------------2-|
E|-3------------------------------------------------------------------3-|

  Matthew left guitar (using pick)
e|-----------------------------|
B|-----------------------------|
G|-2s4-2-0---0-----------0-0---| \ play
D|---------2----0--0-0-0-2-2-0-| / twice
A|--------------2--2-2-2-3-3-2-|
E|-------------3--3--3-3-----3-|

[BRIDGE]

  Jared bass
G|-----------------------------------------------------------------|
D|-----------------------------------------------------------------| \ play
A|-----------------------------------------------------------------| / throughout
E|-3-3-3-3-3-3-3-3-7-7-7-7-7-7-7-7-8-8-8-8-8-8-8-8-3-3-3-3-3-3-3-3-|

  Caleb right guitar acoustic
e|-3---------------------------------------------3--------------------3-|
B|-3---------------------------------------------3--------------------3-|
G|-0---------------------------------------------0--------------------0-|
D|-0---------------------------------------------2--------------------0-|
A|-2---------------------------------------------3--------------------2-|
E|-3------------------------------------------------------------------3-|

  Matthew left guitar
e|---------------------------------------------17-----------|
B|------------------------------------------------15--------|
G|---------------------------------------------------14b15~-|
D|----------------------------------------------------------|
A|----------------------------------------------------------|
E|----------------------------------------------------------|

e|-------------17-------------------------------------------|
B|----------------15b17--------------12-------12------------|
G|--------------------------------------12---------12-------|
D|-----------------------------------------12---------12~---|
A|----------------------------------------------------------|
E|----------------------------------------------------------|

e|-------------------------------------------------|
B|-12-------12-------------12-------12-------------|
G|----12-------12----12-------12-------12----12----| \ play
D|-------12-------12----12-------12-------12----12-| / twice
A|-------------------------------------------------|
E|-------------------------------------------------|

[OUTRO]

  Jared bass
G|-----------------------------------------------------------------|
D|-----------------------------------------------------------------|
A|-----------------------------------------------------------------|
E|-3-3-3-3-3-3-3-3-7-7-7-7-7-7-7-7-8-8-8-8-8-8-8-8-3-3-3-3-3-3-3-3-|

  Caleb right guitar acoustic
e|-3---------------------------------------------3--------------------3-|
B|-3---------------------------------------------3--------------------3-|
G|-0---------------------------------------------0--------------------0-|
D|-0---------------------------------------------2--------------------0-|
A|-2---------------------------------------------3--------------------2-|
E|-3------------------------------------------------------------------3-|

  Matthew left guitar (using pick)
e|-----------------------------------------|
B|-----------------------------------------|
G|-2s4-2-0---0-----------0-0---2s4-2-0---0-| \ play
D|---------2----0--0-0-0-2-2-0---------2---| / twice
A|--------------2--2-2-2-3-3-2-------------|
E|-------------3--3--3-3-----3-------------|

e|------------------------------------------------------------|
B|-12-12-x-12--12-12-x-12--13-13-x-13--12-x-------------------|
G|-12-12-x-12--12-12-x-12--12-12-x-12--12-x-14s16-14-12----12-| \ play
D|-12-12-x-12--12-12-x-12--14-14-x-14--12-x-------------14----| / twice
A|------------------------------------------------------------|
E|------------------------------------------------------------|

e|--------|
B|----12~-|
G|----12~-|
D|-12-12~-|
A|--------|
E|--------|



---------------------------------------------------------------------------------------------


8. Beach Side
   Tuning: EADGBE
Tabbed By: Samtheman476



Intro
e|-----------------------------------------------------------------|
B|-----------------------------------------------------------------|
G|------6~-------/------8~--------8~-------------------------------|
D|---7~----7~----/----9~---9~--------9~(x2)------------------------|
A|-9~------------/-11~--------11~----------------------------------|
E|-----------------------------------------------------------------|

Post-verse (dunno what to call it)
e|-----------------------------------------------------------------|
B|-12\9~-------------12\9\-7/9-------------------------------------|
G|---------8~--(x3)------------8~--(x2)----------------------------|
D|-----------------------------------------------------------------|
A|-----------------------------------------------------------------|
E|-----------------------------------------------------------------|

e|--------9~---------9~------/-------12~---------12~-----------|
B|----11~----11~--------11~--/----13~----13~---------11~--(x2)-|
G|-12~-----------12~---------/-14~-----------14~---------------|
D|-------------------------------------------------------------|
A|-------------------------------------------------------------|
E|-------------------------------------------------------------|


Second Verse
e|------------------------------------------------------|
B|--------------------------12\9\-7/9-9/12~-14\7~-------|
G|-11^13r11~-----------(x4)-----------------------(x2)--|
D|------------9^11r9------------------------------------|
A|------------------------------------------------------|
E|------------------------------------------------------|

e|------------------------------------------------------|
B|-12\9\-7/9----12\9--12\9\-7/9---------9~--------9~----|
G|-----------8~-----------------8~-(x2)------8~---------|
D|------------------------------------------------------|
A|------------------------------------------------------|
E|------------------------------------------------------|


e|--------9~---------9~------/-------12~---------12~-----------|
B|----11~----11~--------11~--/----13~----13~---------11~--(x2)-|
G|-12~-----------12~---------/-14~-----------14~---------------|
D|-------------------------------------------------------------|
A|-------------------------------------------------------------|
E|-------------------------------------------------------------|

Outro
e|------------------------------|
B|-12\9\-7/9-9/12~-14\7~--(x2)--|
G|------------------------------|
D|------------------------------|
A|------------------------------|
E|------------------------------|


e|-------------------------------------------------------------|
B|-12\9\-7/9----12\9--12\9\-7/9-----------12\9--12\9\-7/9------|
G|-----------8~-----------------8~--(x2)------------------8~---|
D|-------------------------------------------------------------|
A|-------------------------------------------------------------|
E|-------------------------------------------------------------|

e|-------------------------------------------------------------|
B|-9~---------7^9r7p-------------------------------------------|
G|------8~-----------------------------------------------------|
D|-------------------------------------------------------------|
A|-------------------------------------------------------------|
E|-------------------------------------------------------------|



---------------------------------------------------------------------------------------------


9. No Money
   Tuning: EADGBE
Tabbed By: Itsjamessss


e|---------------------------------------------------------------------------|
B|---------------------------------------------------------------------------|
G|---------------------------------------------------------------------------|
D|---------------------------------------------------------------------------|
A|---------------------------------------------------------------------------|
E|--7---9\----4--------------------------------------------------------------|

e|---------------------------------------------------------------------------|
B|---------------------------------------------------------------------------|
G|---------------------------------------------------------------------------|
D|---------------------------------------------------------------------------|
A|---------------------------------------------------------------------------|
E|-7---9--00000000000000000000000000 X42-------------------------------------|

e|---------------------------------------------------------------------------|
B|---------------------------------------------------------------------------|
G|---------------------------------------------------------------------------|
D|---------------------------------------------------------------------------|
A|---------------------------------------------------------------------------|
E|-7---9\--44444444444 X42---------------------------------------------------|

e|---------------------------------------------------------------------------|
B|---------------------------------------------------------------------------|
G|---------------------------------------------------------------------------|
D|---------------------------------------------------------------------------|
A|---------------------------------------------------------------------------|
E|-7--9----0-----------------------------------------------------------------|

e|---------------------------------------------------------------------------|
B|---------------------------------------------------------------------------|
G|---------------------------------------------------------------------------|
D|---------------------------------------------------------------------------|
A|---------------------------------------------------------------------------|
E|-7--9--4-------------------------------------------------------------------|
REPEAT UNTIL SOLO


SOLO

e|---------------------------------------------------------------------------|
B|---------------------------------------------------------------------------|
G|---------------------------------------------------------------------------|
D|---------------------------------------------------------------------------|
A|---------------------------------------------------------------------------|
E|-7---9\--44444444444 X42---------------------------------------------------|


e|-11--------14---11---------------------------------------------------------|
B|----14--12---------14-----12-----9~----------------------------------------|
G|---------------------------------------------------------------------------|
D|---------------------------------------------------------------------------|
A|---------------------------------------------------------------------------|
E|---------------------------------------------------------------------------|

e|---------------------------------------------------------------------------|
B|-/17-16-12--14(HOLD)----9~-------------------------------------------------|
G|---------------------------------------------------------------------------|
D|---------------------------------------------------------------------------|
A|---------------------------------------------------------------------------|
E|---------------------------------------------------------------------------|

e|-12---11-------------------------------------------------------------------|
B|---------14--12------------------------------------------------------------|
G|---------------14b---------17b---------------------------------------------|
D|---------------------------------------------------------------------------|
A|---------------------------------------------------------------------------|
E|---------------------------------------------------------------------------|

e|-12--11--------------------------------------------------------------------|
B|--------14---12------------------19----------------------------------------|
G|----------------14b--16b--18b-20-------------------------------------------|
D|---------------------------------------------------------------------------|
A|---------------------------------------------------------------------------|
E|---------------------------------------------------------------------------|

e|---------------------------------------------------------------------------|
B|---------------------------------------------------------------------------|
G|---------------------------------------------------------------------------|
D|---------------------------------------------------------------------------|
A|---------------------------------------------------------------------------|
E|-000000000000000000000000000000-----7--9\---444444444444444444444----------|

e|---------------------------------------------------------------------------|
B|---------------------------------------------------------------------------|
G|---------------------------------------------------------------------------|
D|---------------------------------------------------------------------------|
A|---------------------------------------------------------------------------|
E|-7--9-00000000000000000000000000000----------------------------------------|
REPEAT UNTIL "and i want, and i want...

e|---------------------------------------------------------------------------|
B|---------------------------------------------------------------------------|
G|----------------------99999-x-999999999--xxx-------------------------------|
D|----------------------99999-x-999999999--xxx-------------------------------|
A|----------------------77777-x-777777777--xxx-------------------------------|
E|-44444444444444--7-9-------------------------------------------------------|

e|---------------------------------------------------------------------------|
B|---------------------------------------------------------------------------|
G|---------------------------------------------------------------------------|
D|66666----------------------------------------------------------------------|
A|66666----------------------------------------------------------------------|
E|44444----------------------------------------------------------------------|



---------------------------------------------------------------------------------------------


10.Pony Up
   Tuning: EADGBE
Tabbed By: Imrankhalique



Effects: Slight delay and of course reverb. Boost mids and treble for twangyness :)

Intro: Guitar 1
e|-0------12------10-------------------------(0)---/12----10----------------|
B|----15-----0--------12--0--12-------10b12------------------12-------------|
G|--------------------------------------------------------------------------|
D|--------------------------------------------------------------------------|
A|--------------------------------------------------------------------------|
E|--------------------------------------------------------------------------|


e|-0------12------10-------------------------(0)--/10-----------------------|
B|----15-----0--------12--0--12-------10b12--------------12--10~~~~~~-------|
G|--------------------------------------------------------------------------|
D|--------------------------------------------------------------------------|
A|--------------------------------------------------------------------------|
E|--------------------------------------------------------------------------|

Intro: Guitar 2 - strum chords accordingly. HINT: listen to right headphone
e|--------------------------------------------------------------------------|
B|-10--------------5------3-------------------------------------------------|
G|-11--------------6------4-------------------------------------------------|
D|-12--------------7------5-------------------------------------------------|
A|-12--------------7------5-------------------------------------------------|
E|--------------------------------------------------------------------------|



Verse: listen to the left headphone for pattern
e|--X----X--X-X---X---X----X---X-X-----X--X-X-------------------------------|
B|--X----X--X-X---X---X----X---X-X-----X--X-X-------------------------------|
G|--X----X--X-X---X---X----X---X-X-----X--X-X-------------------------------|
D|--X----X--X-X---X---X----X---X-X-----X--X-X-------------------------------|
A|--5----5-------5----5----5---5-------5--5---------------------------------|
E|--------------------------------------------------------------------------|


Next Part:            |pm            pm|
e|--------------------------------------------------------------------------|
B|--10-10--8-8--7-7---------------------------------------------------------|
G|-------------------7-7-7-7--9-9-7-7---------------------------------------|
D|--------------------------------------------------------------------------|
A|--------------------------------------------------------------------------|
E|--------------------------------------------------------------------------|

Intro: Guitar 1
e|-0------12------10-----------------------------/12----10------------------|
B|----15-----0--------12--0--12-------10b12--(0)-------------12-------------|
G|--------------------------------------------------------------------------|
D|--------------------------------------------------------------------------|
A|--------------------------------------------------------------------------|
E|--------------------------------------------------------------------------|


e|-0------12------10------------------------------/10-----------------------|
B|----15-----0--------12--0--12-------10b12--(0)---------12--10~~~~~~-------|
G|--------------------------------------------------------------------------|
D|--------------------------------------------------------------------------|
A|--------------------------------------------------------------------------|
E|--------------------------------------------------------------------------|

outro: listen for variatiom
e|-0------12------10------------------7-------10-------------------------------|
B|----15-----0--------12--0--12-------10b12---12b15----------------------------|
G|-----------------------------------------------------------------------------|
D|-----------------------------------------------------------------------------|
A|-----------------------------------------------------------------------------|
E|-----------------------------------------------------------------------------|




---------------------------------------------------------------------------------------------


11.Birthday
   Tuning: EADGBE
Tabbed By: Jashua92


[INTRO]

  Caleb right guitar
e|-0-0-14-0-0--x-x--0-0-14-0-0--x-x-------------------------------------|
B|-0-0-15-0-0--x-x--0-0-15-0-0--x-x-------10-10----------10-10----------|
G|-0-0-14-0-0--x-x--0-0-14-0-0--x-x-----0-11-11-x-x----0-11-11----------|
D|-----------------------------------12-0-12-12-x-x-12-0-12-12----------|
A|-----------------------------------12-0-12-12-x-x-12-0-12-12----------|
E|-----------------------------------10-------------10------------------|

  Matthew left guitar (comes in on second count)
e|-------------0-14-0-----------0-14-0----------------------------------|
B|-------------0-15-0-----------0-15-0---------------10--------------10-|
G|-------------0-0--0-----------0-0--0-------------0-11------------0-11-|
D|----------------------------------------------12-0-12---------12-0-12-|
A|----------------------------------------------12---12---------12---12-|
E|----------------------------------------------------------------------|

e|-----2-2--------2-2--------2-2--------2-2---|
B|-3-3-----3--3-3-----3--3-3-----3--3-3-----3-|
G|--------------------------------------------|
D|--------------------------------------------|
A|--------------------------------------------|
E|--------------------------------------------| \
                                                  play twice
e|-----5-5--------5-5--------5-5--------5-5---| /
B|-7-7-----7--7-7-----7--7-7-----7--7-7-----7-|
G|--------------------------------------------|
D|--------------------------------------------|
A|--------------------------------------------|
E|--------------------------------------------|

e|-------14-|
B|-14s15----|
G|----------|
D|----------|
A|----------|
E|----------|

  Jared bass (comes in on third count)
G|-------------------------------------------------|
D|-------------------------------------------------|
A|-----------------5-7-------5-7----9-9-7-5--9-7-5-|
E|-10-slide-down-7-------7-7-----------------------|

[VERSE 1]

  Caleb right guitar
e|-0-0-14-0-0--x-x--0-0-14-0-0--x-x-------------------------------------|
B|-0-0-15-0-0--x-x--0-0-15-0-0--x-x-------10-10----------10-10----------|
G|-0-0-14-0-0--x-x--0-0-14-0-0--x-x-----0-11-11-x-x----0-11-11----------|
D|-----------------------------------12-0-12-12-x-x-12-0-12-12----------|
A|-----------------------------------12-0-12-12-x-x-12-0-12-12----------|
E|-----------------------------------10-------------10------------------|

  Jared bass
G|-----------------------------------|
D|-----------------------------------|
A|---5-7-------5-7----9-9-7-5--9-7-5-|
E|-7-------7-7-----------------------|

  Matthew left guitar (0:45)
e|---------------------------------------------------------------------|
B|------------------------------------------------------------------10-|
G|----------------------------------------------------------------0-11-|
D|-------------------------------------------------------------12-0-12-|
A|-------------------------------------------------------------12---12-|
E|-------------------------------------------------------------10------|

e|--------------------------------------2---2-2-------5----------------|
B|-------------------------------------------------s7------------------|
G|---------------------------------------------------------------------|
D|---------------------------------------------------------------------|
A|---------------------------------------------------------------------|
E|---------------------------------------------------------------------|

e|--------------------------------------10-------10--------------------|
B|-----------------------------------------12-10-----------------------|
G|---------------------------------------------------------------------| \ this part
D|---------------------------------------------------------------------| / palm muted
A|---------------------------------------------------------------------|
E|---------------------------------------------------------------------|

[CHORUS]

  Caleb right guitar
e|-14-x-14-x-14-x-14-x-14...etc-|
B|-15-x-15-x-15-x-15-x-15...----|
G|-14-x-14-x-14-x-14-x-14...----|
D|------------------------------|
A|------------------------------|
E|------------------------------|

  Jared bass
G|---------------------------------|
D|---------------------------------|
A|---------------------------------|
E|-3-3-3-3-3-3-3-3-3-3-3-3-3-3-3-3-|

G|---------------------------------|
D|---------------------------------|
A|---------------------------------|
E|-7-7-7-7-7-7-7-7-7-7-7-7-7-7-7-7-|

G|---------------------------------|
D|---------------------------------|
A|---------------------------------|
E|-3-3-3-3-3-3-3-3-3-3-3-3-3-3-3-3-|

G|---------------------------------|
D|---------------------------------|
A|---------------------7s9-7-5-7-5-|
E|-7-7-7-7-7-7-7-7-7-7-------------|

  Matthew left guitar
e|-------------------|
B|-------15-15-15----|
G|-12-12-12-12-12-12-| \ four
D|-14-14----------14-| / times
A|-------------------|
E|-------------------|

e|-------------|
B|-----7-7-7---|
G|-7-7-7-7-7-7-| \ four
D|-9-9-------9-| / times
A|-------------|
E|-------------|

e|-------------------|
B|-------15-15-15----|
G|-12-12-12-12-12-12-| \ four
D|-14-14----------14-| / times
A|-------------------|
E|-------------------|

e|-------------|
B|-----7-7-7---|
G|-7-7-7-7-7-7-| \ four
D|-9-9-------9-| / times
A|-------------|
E|-------------|

[PRE VERSE 2]

  Caleb right guitar
e|-0-0-14-0-0--x-x--0-0-14-0-0--x-x-------------------------------------|
B|-0-0-15-0-0--x-x--0-0-15-0-0--x-x-------10-10----------10-10----------|
G|-0-0-14-0-0--x-x--0-0-14-0-0--x-x-----0-11-11-x-x----0-11-11----------|
D|-----------------------------------12-0-12-12-x-x-12-0-12-12----------|
A|-----------------------------------12-0-12-12-x-x-12-0-12-12----------|
E|-----------------------------------10-------------10------------------|

  Jared bass
G|-------------------------------------|
D|-------------------------------7-7h9-|
A|---5-7-------5-7----9-9-7-5--9-------|
E|-7-------7-7-------------------------|

  Matthew left guitar
e|-----2-2--------2-2--------2-2--------2-2---|
B|-3-3-----3--3-3-----3--3-3-----3--3-3-----3-|
G|--------------------------------------------|
D|--------------------------------------------|
A|--------------------------------------------|
E|--------------------------------------------|

e|-----5-5--------5-5--------5-5--------5-5---|
B|-7-7-----7--7-7-----7--7-7-----7--7-7-----7-|
G|--------------------------------------------|
D|--------------------------------------------|
A|--------------------------------------------|
E|--------------------------------------------|

e|-------14-|
B|-14s15----|
G|----------|
D|----------|
A|----------|
E|----------|

[VERSE 2]

  Caleb right guitar
e|-0-0-14-0-0--x-x--0-0-14-0-0--x-x-------------------------------------|
B|-0-0-15-0-0--x-x--0-0-15-0-0--x-x-------10-10----------10-10----------|
G|-0-0-14-0-0--x-x--0-0-14-0-0--x-x-----0-11-11-x-x----0-11-11----------|
D|-----------------------------------12-0-12-12-x-x-12-0-12-12----------|
A|-----------------------------------12-0-12-12-x-x-12-0-12-12----------|
E|-----------------------------------10-------------10------------------|

  Jared bass
G|-----------------------------------|
D|-----------------------------------|
A|---5-7-------5-7----9-9-7-5--9-7-5-|
E|-7-------7-7-----------------------|

  Matthew left guitar (1:40)
e|--------------------------------------------------10----------------10-|
B|--------------------------------------15-12-10-12---12-----15-12-10----|
G|-----------------------------------------------------------------------|
D|-----------------------------------------------------------------------|
A|-----------------------------------------------------------------------|
E|-----------------------------------------------------------------------|
                                        (1:50)
e|-----------------------------------------14-------------------14-------|
B|--------------------------------------15-------------------15----15----|
G|-----------------------------------------------------------------------|
D|-----------------------------------------------------------------------|
A|-----------------------------------------------------------------------|
E|-----------------------------------------------------------------------|

[PRE BRIDGE]

  Caleb right guitar
e|-0-0-14-0-0--x-x--0-0-14-0-0--x-x-------------------------------------|
B|-0-0-15-0-0--x-x--0-0-15-0-0--x-x-------10-10----------10-10----------|
G|-0-0-14-0-0--x-x--0-0-14-0-0--x-x-----0-11-11-x-x----0-11-11----------|
D|-----------------------------------12-0-12-12-x-x-12-0-12-12----------|
A|-----------------------------------12-0-12-12-x-x-12-0-12-12----------|
E|-----------------------------------10-------------10------------------|

  Jared bass
G|------------------------------------------|
D|----------------------------7-7h9---------|
A|---5-7-------5-7--------9-9-------9-9-7-5-|
E|-7-------7-7------------------------------|

G|--------------------------------------------------------|
D|----------------------------7-7h9-----------------------|
A|---5-7-------5-7s9s7----9-9-------9-9-7-5--7-slide-down-|
E|-7-------7-7---------------------------------3----------| the last note begins 
the pre chorus (2:32)

  Matthew left guitar
e|-----------------10--------------------14-----|
B|-15-x-12-x-10-12----12-10-15-x-12-x-10---12---|
G|----------------------------------------------|
D|----------------------------------------------|
A|----------------------------------------------|
E|----------------------------------------------|

e|-----------------10--------------------10-----|
B|-15-x-12-x-10-12----12-10-15-x-12-x-10---12---|
G|----------------------------------------------|
D|----------------------------------------------|
A|----------------------------------------------|
E|----------------------------------------------|

e|-----------------10--------------------14-----|
B|-15-x-12-x-10-12----12-10-15-x-12-x-10---12---|
G|----------------------------------------------|
D|----------------------------------------------|
A|----------------------------------------------|
E|----------------------------------------------|

e|-----------------10-----------------------10----10~-| let last note ring
B|-15-x-12-x-10-12----12-10-15-x-12-x-10h12----12-----|
G|----------------------------------------------------|
D|----------------------------------------------------|
A|----------------------------------------------------|
E|----------------------------------------------------|

[PRE CHORUS]

  Caleb right guitar
e|-14-x-14-x-14-x-14-x-14...etc-|
B|-15-x-15-x-15-x-15-x-15...----|
G|-14-x-14-x-14-x-14-x-14...----|
D|------------------------------|
A|------------------------------|
E|------------------------------|

  Matthew left guitar (comes in on second count)
e|------------------------------|
B|-15-x-15-x-15-x-15-x-15...etc-|
G|-12-x-12-x-12-x-12-x-12...----|
D|-14-x-14-x-14-x-14-x-14...----|
A|------------------------------|
E|------------------------------|

  Jared bass (2:36)
G|--------------------------------|
D|--------------------------------|
A|--------------------------------|
E|-3s7----------------------------|

[CHORUS]

  Caleb right guitar
e|-14-x-14-x-14-x-14-x-14...etc-|
B|-15-x-15-x-15-x-15-x-15...----|
G|-14-x-14-x-14-x-14-x-14...----|
D|------------------------------|
A|------------------------------|
E|------------------------------|

  Matthew left guitar
e|------------------------------|
B|-15-x-15-x-15-x-15-x-15...etc-|
G|-12-x-12-x-12-x-12-x-12...----|
D|-14-x-14-x-14-x-14-x-14...----|
A|------------------------------|
E|------------------------------|

G|-----------------------------------------------|
D|-----------------------------------------------|
A|-----------------------------------------------|
E|-10-slide-down-3-3-3-3-3-3-3-3-3-3-3-3-3-3-3-3-|

G|---------------------------------|
D|---------------------------------|
A|---------------------------------|
E|-7-7-7-7-7-7-7-7-7-7-7-7-7-7-7-7-|

G|---------------------------------|
D|---------------------------------|
A|---------------------------------|
E|-3-3-3-3-3-3-3-3-3-3-3-3-3-3-3-3-|

G|---------------------------------|
D|---------------------------------|
A|---------------------------------|
E|-7-7-7-7-7-7-7-7-7-7-7-7-7-7-7-7-|

G|---------------------------------|
D|---------------------------------|
A|-5-5-5-5-5-5-5-5-5-5-5-5-5-5-5-5-|
E|---------------------------------|

G|---------------------------------|
D|---------------------------------|
A|-7-7-7-7-7-7-7-7-7s9--7--5-7-5---|
E|-------------------------------7-|

[OUTRO]

  Caleb right guitar
e|-0-0-14-0-0--x-x--0-0-14-0-0--x-x------------|
B|-0-0-15-0-0--x-x--0-0-15-0-0--x-x---------10-|
G|-0-0-14-0-0--x-x--0-0-14-0-0--x-x-------0-11-|
D|-------------------------------------12-0-12-|
A|-------------------------------------12-0-12-|
E|-------------------------------------10------|

  Matthew left guitar (comes in on second count)
e|-------------0-14-0-----------0-14-0---------|
B|-------------0-15-0-----------0-15-0------10-|
G|-------------0-0--0-----------0-0--0----0-11-|
D|-------------------------------------12-0-12-|
A|-------------------------------------12---12-|
E|---------------------------------------------|

  Jared bass
G|----------------------------------|
D|----------------------------7-7h9-|
A|---5-7-------5-7--------9-9-------|
E|-7-------7-7----------------------|



---------------------------------------------------------------------------------------------


12.Mi Amigo
   Tuning: EADGBE
Tabbed By: Jamesmckee92



Intro:
e|-----------------------------------------|
b|--------7------8-s10-----10--------------|
g|--------7------9-s11-----11--------------|
d|--------0------0-s0------0---------------|
a|-----------------------------------------|
e|-----------------------------------------|

e|--------------------------------------|
b|--------10s8--7----3------------------|
g|--------11s9--7----4------------------|
d|---------0s0--0----5------------------|
a|--------------------------------------|
e|--------------------------------------|

Rhythm: Comes in at start of "Shows me all the good times"

e|--3----------------10----------------------------------------------------|
B|--3----------------10----------------------------------------------------|
G|--4----------------11----------------------------------------------------|
D|--5----------------12----------------------------------------------------|
A|--5----------------12----------------------------------------------------|
E|--3----------------10----------------------------------------------------|
  G chord         D chord

For "Sings  a song" part play an A barre chord followed by a G barre chord:
e|-----5----------3----|
B|-----5----------3----|
G|-----6----------4----|
D|-----7----------5----|
A|-----7----------5----|
E|-----5----------3----|

Strum pattern is pretty easy, just listen to the song.

Lead: (Following last "Gone" of 1st verse and into chorus)
e|--------------------------|
B|---7-7--12-10-------------|
G|--------------------------|    x4
D|--------------------------|
A|--------------------------|
E|--------------------------|

e|------------------------------------------------------|
B|---------------15---------------15--------------------|
G|----------14h16------------14h16--16------------------|    x2
D|-----14h16------------14h16---------------------------|
A|------------------------------------------------------|
E|------------------------------------------------------|



---------------------------------------------------------------------------------------------


13.Pickup Truck
   Tuning: EADGBE
Tabbed By: Jamesmckee92



Intro:

Lots of reverb-y effect on lead guitar, this is played a total of 7 maybe 8 times before 
starts.

e|---------------------------------------------------------------|
B|--17\13~~~~~~~~------------------------------------------------|
G|---------------------------------------------------------------|
D|---------------------------------------------------------------|
A|---------------------------------------------------------------|
E|---------------------------------------------------------------|

Matthew (lead) plays this twice before bass comes in, then a further 4 times before 
starts playing.

Caleb plays  two chords throughout
e|-0----------0------------------| These chords are arpeggiated
B|-1----------1------------------| Listen to the song for the pattern
G|-0----------2------------------|
D|-2----------3------------------|
A|-3----------3------------------|
E|-3----------0------------------|

RIFF:
lead guitar - matthew
e|---------------------------------------------------------------|
B|---------------------------------------------------------------|
G|--10~--9--------------------------9----------------------------|
D|----------------12--10~~-----------------10~~------------------|
A|-----------10--------------------------------------------------|
E|---------------------------------------------------------------|

Bass: (repeated throughout song)
G|---------------------------------------------------------------|
D|---------------------------------------------------------------|
A|---------------------------------------------------------------|
E|-88888-10-5-3h55555p3-0h1--------------------------------------|

Thanks to muckymouse for helping with the bass in this!

Lyrics:

1st verse
Walk you home to see

Where your living around

And i know this place

Pour yourself on me and you know i'm the one

That you wont forget


And in your dear mind i see something (aint) right

And i know your weak

When he comes around i see your fixing a shot and my faith wont keep


Chorus
Everything's so emotional

I didnt think it'd get physical

But when you pull in and rev it up

I see you crawl outta pickup truck

And in the moonlight i run him down

All kickin', screamin', and rollin' around

A little piece of a bloody tooth

Just so you know i'll be thinkin of you

Just so you know ohhhhhh

RIFF

2nd Verse
Trim and misery

And as cold as a hole,

I hurt your bones and skin,

Crackling wood dont bite,

And my eyes swolled up now,

I can see the light

Chorus x2

Just so you know ohhhh
Just so you know ohhhh



---------------------------------------------------------------------------------------------


END!!!
comments
We did not receive enough feedback on this tab! Please rate:
print report bad tab
1 2 3 4 5
2 comments total.
0 reply
itsjamessss wrote on November 30 2011, 02:31 pm

Check my cover out from my tab .. http://www.youtube.com/watch?v=km3uY2QPTs8

0 reply
Macheeoo wrote on November 30 2011, 07:29 pm

^^ Pretty good cover, love that song!

I want to post or [tab]
guest
You may want to rate the tab now too:
select rating
Please do not post tabs as comments. Select "correction" instead!