Oops, an error
Loading. Please wait.

Mary Bass Tab

5,605 views 18 this week
1 commentread comment
1 2 3 4 5
excellent!
x 4
Autoscroll
+/-
esc
set tempo
stop
Contributor
Difficulty
intermediate
WARNING: You are trying to view
                                    content from Ultimate-Guitar.com
                                    in an unauthorized application,
                                    which is prohibited.

                                    Please use an official Ultimate
                                    Guitar Tabs application for iPhone,
                                    iPad or Android to access legitimate
                                    chords, guitar, bass, and drum tabs
                                    from Ultimate-Guitar.com database.

                                    Type "ultimate guitar tabs" in Apple
                                    App Store's or Android Market's
                                    search to find the application.
G|-------------------------|
D|--16/21--18-16-18--------|
A|-------------------------|
E|-------------------------|


G|---------------------------------------------------------------|
D|---------------------------------------------------------------|
A|--------11-11-11-9-9-9-11-11-11---------11-11-11-9-9-9-11-9----|
E|-7-7-7---------------------------7-7-7----------------------11-|


G|------------------------------------------------------------------------------|
D|------------------------------------------------------------------------------|
A|-----------16-16-16-14-14-14-16-16-16------------18-18-18-16-16-16------------|
E|-12-12-12------------------------------14-14-14---------------------2-/7------|


G|------------------------------------------------------------------------------|
D|------------------------------------------------------------------------------|
A|------------------------------------------------------------------------------|
E|-7-7--7-7--7-7--7-7--7-7--7-7--7-7--7/12--0--0-0--0-0--0-0--0--2--------------|

G|------------------------------------------------------------------------------|
D|------------------------------------------------------------------------------|
A|------------------------------------------------------------------------------|
E|-2-2--2-2--2-2--2/7-----------------------------------------------------------|

G|------------------------------------------------------------------------------|
D|------------------------------------------------------------------------------|
A|------------------------------------------------------------------------------|
E|-7-7--7-7--7-7--7-7--7-7--7-7--7-7--7/12--0--0-0--0-0--0-0--0--2--------------|

G|------------------------------------------------------------------------------|
D|------------------------------------------------------------------------------|
A|------------------------------------------------------------------------------|
E|-2-2--2-2--2-2--2-------------------------------------------------------------|


G|-------------------------------------------------------------------------------|
D|--------------------------------------------9------------9-------------9-------|
A|--6-6-6-6--6-6-6-6--6-6-6-6--6-6-6-6------------9------------9-------------9---|
E|--------------------------------------7-7-7---7----7-7-7---7----7-7-7---7------|

G|----------------------------------------------------------------------------|
D|----9-------9---------------------------------------------------------------|
A|--------9------6-6-6-6--6-6-6-6--6-6-6-6--6-6-6-6-6\------------------------|
E|--7---7---7-----------------------------------------------------------------|

G|------------------------------------|
D|--------4-------------4-------------|
A|------------4-------------4---------|
E|-2-2-2----2----2-2-2----2---2-------|

G|-------------------------------------------------------------------------------|
D|--16/21--18-16-18-16---------16/21--18-16-18-16------16/21--18-16-18-----------|
A|---------------------18-------------------------18-----------------------------|
E|-------------------------------------------------------------------------------|


G|-------------------------------------------------------------------------------|
D|-18-18-18-18-18-18-18-18-18--21-18-16--21-21-21-21-21-21-21-21-21-21\----------|
A|------------------------------------------------------------------21\----------|
E|-------------------------------------------------------------------------------|


G|-------------------------------------------------------------------------------|
D|-------------------------------------------------------------------------------|
A|-------------------------------------------------------------------------------|
E|-7-7-7-7-7-7-7-7-7-7-7-7-7-7-7-7-7-7-7-7-7-7-7-7-7/12--0-0-0-0-0-0-0-0-0-0-0-0-|

G|-------------------------|
D|-------------------------|
A|-------------------------|
E|-2-2-2-2-2-2-2-2-2-2-2-2-|


G|------------------------------------------------------------------------------------------|
D|-------------------------------------------------------------------------------------------|
A|-------------------------------------------------------------------------------------------|
E|-7-7-7-7-7-7-7-7-7-7-7-7-7-7-7-7-7-7-7-7-7-7-7-7-7/12--12-12-12-12-12-12-12-12-12-12-12-12-|

G|-------------------------|
D|-------------------------|
A|-------------------------|
E|-2-2-2-2-2-2-2-2-2-2-2-2-|


G|-------------------------------------------------------------------------------|
D|--------------------------------------------9------------9-------------9-------|
A|--6-6-6-6--6-6-6-6--6-6-6-6--6-6-6-6------------9------------9-------------9---|
E|--------------------------------------7-7-7---7----7-7-7---7----7-7-7---7------|

G|----------------------------------------------------------------------------|
D|----9-------9---------------------------------------------------------------|
A|--------9------6-6-6-6--6-6-6-6--6-6-6-6--6-6-6-6-6\------------------------|
E|--7---7---7-----------------------------------------------------------------|

G|------------------------------------|
D|--------4-------------4-------------|
A|------------4-------------4---------|
E|-2-2-2----2----2-2-2----2---2-------|

G|------------------------------------|
D|---4/9p7----------------------------|
A|----------7-9p7\4-------------------|
E|------------------------------------|

G|-------------------------------------------------------------------------------|
D|-------------------------------------------------------------------------------|
A|-------------------------------------------------------------------------------|
E|-7-7-7-7-7-7-7-7-7-7-7-7-7-7-7-7-7-7-7-7-7-7-7-7-7/12--0-0-0-0-0-0-0-0-0-0-0-0-|

G|--------------------------|
D|--------------------------|
A|--------------------------|
E|-2-2-2-2-2-2-2-2-2-2-2-2/-|


G|------------------------------------------------------------------------------|
D|------------------------------------------------------------------------------|
A|------------------------------------------------------------------------------|
E|-7--7-7--7-7--7-7--7-7--7-7--7-7--7-7-7--0--0-0--0-0--0-0--5-7p5--2-----------|

G|--------------------------|
D|--------------------------|
A|--------------------------|
E|-2-2--2-2--2-2/-----------|


G|-------------------------------------------------------------------------------|
D|--------------------------------------------9------------9-------------9-------|
A|--6-6-6-6--6-6-6-6--6-6-6-6--6-6-6-6------------9------------9-------------9---|
E|--------------------------------------7-7-7---7----7-7-7---7----7-7-7---7------|

G|----------------------------------------------------------------------------|
D|----9-------9---------------------------------------------------------------|
A|--------9------6-6-6-6--6-6-6-6--6-6-6-6--6-6-6-6-6\------------------------|
E|--7---7---7-----------------------------------------------------------------|

G|------------------------------------|
D|--------4-------------4-------------|
A|------------4-------------4---------|
E|-2-2-2----2----2-2-2----2---2-------|

G|-------------------------|
D|--16/21--18-16-18--------|
A|-------------------------|
E|-------------------------|

G|---------------------------------------------------------------------------------|
D|---------------------------------------------------------------------------------|
A|--------11-11-11-9-9-9-11-11-11---------11-11-11-9-9-9-11-9----------------------|
E|-7-7-7---------------------------7-7-7----------------------11-------------------|

G|---------------------------------------------------------------------------------|
D|---------------------------------------------------------------------------------|
A|-----------16-16-16-14-14-14-16-16-16------------18-18-18-16-16-16-14-14-14------|
E|-12-12-12------------------------------14-14-14----------------------------------|

G|---------------------------------------------------------------------------------|
D|---------------------------------------------------------------------------------|
A|--------11-11-11-9-9-9-11-11-11---------11-11-11-9-9-9-11-9----------------------|
E|-7-7-7---------------------------7-7-7----------------------11-------------------|

G|---------------------------------------------------------------------------------|
D|---------------------------------------------------------------------------------|
A|-----------16-16-16-14-14-14-16-16-16------------18-18-18-16-16-16-14-14---------|
E|-12-12-12------------------------------14-14-14----------------------------------|

G|---------------------------------------------------------------------------------|
D|------------------------------------------------------------14-------------------|
A|--------11-11-11-9--9-11-11-11---------11-11-11-9-9-9-11/16----14----------------|
E|-7-7-7---------------------------7-7-7-------------------------------------------|

G|---------------------------------------------|
D|---------------------------------------------|
A|-----------16-16-16-14-14-14-16-16-16--------|
E|-12-12-12------------------------------14\---|
	
comments
print report bad tab
1 comment total.
0 reply
rkwakman wrote on July 25 2011, 02:04 pm

jared has a gibson thunderbird(so do i), and does not have fred 21 so i play it like this

intro:
G|-11/16--13--11---13------|
D|-------------------------|
A|-------------------------|
E|-------------------------|

after chorus :

G|-11/16--13--11---13-11-----|
D|-----------------------13--| 2x then
A|---------------------------|
E|---------------------------|

G|11/16-13-11-13-11-14-14-14-14-14-14-14-13-13-15-15-15-15-15-15-15|
D|------------------------------------------------------------------|
A|------------------------------------------------------------------|
E|------------------------------------------------------------------|

I want to post or [tab]
guest
You may want to rate the tab now too:
select rating
Please do not post tabs as comments. Select "correction" instead!