Oops, an error
Loading. Please wait.

Mollys Chambers Tab

ver5
ver5

Solo

Whole song

More versions @911Tabs.com
7,156 views 9 this week
no commentswrite comment
1 2 3 4 5
worth learning
x 2
Autoscroll
+/-
esc
set tempo
stop
Contributor
WARNING: You are trying to view
                                    content from Ultimate-Guitar.com
                                    in an unauthorized application,
                                    which is prohibited.

                                    Please use an official Ultimate
                                    Guitar Tabs application for iPhone,
                                    iPad or Android to access legitimate
                                    chords, guitar, bass, and drum tabs
                                    from Ultimate-Guitar.com database.

                                    Type "ultimate guitar tabs" in Apple
                                    App Store's or Android Market's
                                    search to find the application.
I take no credit, but there needs to be an accurate Molly's Chambers on
this website that's easily accessible. See tab credit below. I took this
from the 5 star full album tab of Youth and Young Manhood. I've seen it
played with B A and D power chords as opposed to barre chords, and I think
either way sounds good. The distinctive riff of this song comes from
removing your index finger from the F# barre and placing it back on and off
again to the proper rhythm. Play it hard!

****************************************************************************
Group/Singer Name:      Kings Of Leon
Song:                   "Molly's Chambers"
Additional Info:        Youth & Young Manhood - Track 08
Tuning:                 Standard - [EADGBe]
Tabbed By:              Dean Hill - the.scotsman@blueyonder.co.uk

[Chords Used]   F#(244322); B(799877); A(577655); D(10 12 12 11 10 10)

[Intro]         [SEE LEAD TAB FOR INTRO RIFF](further down)

[Verse 1]------>[PLAY INTRO RIFF ALL WAY THROUGH]

F#
Free, that's all that she could be, that's why she'll never stay,
White, barenaked in the night, and lookin' for some play
Just another girl, that wants to rule the world, any time or place
And when, she gets into your head, you know she's there to stay.

[Chorus]
B              A
  You want it,    Well she's got it,
F#
  Molly's Chambers gonna change your mind,
B                 D
  She's got your,   your pistol,
F#
  Molly's Chambers gonna change your mind,
  Molly's Chambers gonna change your mind.

[Verse 2]------>[PLAY INTRO RIFF ALL WAY THROUGH]

F#
Slow, she's burnin' in your soul, with whispers in your ear,
It's okay, I'll give it anyway, just get me out of here,
You'll plead, you'll get down on your knees, for just another taste,
And when, you think she's let you in, that's when she fades away.

[Chorus]
B              A
  You want it,    Well she's got it,
F#
  Molly's Chambers gonna change your mind,
B                 D
  She's got your,   your pistol,
F#
  Molly's Chambers gonna change your mind,
  Molly's Chambers gonna change your mind.

[Solo]
                |  B   D  |  F#     |
                |  B   D  |  F#     |
                |  B   D  |  F#     |
                |  A      |  B      |

[Outro]
B               A
  You want it,    Well she's got it,
F#
  Molly's Chambers gonna change your mind,
B                   D
  She's got your,   your pistol,
F#
  Molly's Chambers gonna change your mind.
B              A
  You want it,    Well she's got it,
F#
  Molly's Chambers gonna change your mind,
B                 D
  She's got your,   your pistol.


            *********************************************
            *KINGS OF LEON - MOLLY'S CHAMBERS LEAD PARTS*
            *********************************************

[INTRO] - THERE'S 2 PARTS TO THIS.
CALEB (RHYTHM), PLAYS:

   1 & 2 & 3 & 4 & 1 & 2 & 3 & 4 & 1 & 2 & 3 & 4 & 1 & 2 & 3 & 4 &
e ------------------------------------------------------------------|
B ---------------------------------------------------------------22-|
G ---------------------------------------------------------------33-|
D -4-----4---4---4-4-----4---4---4-4-----4---4---4-4-----4---4---44-|
A -4-----4---4---4-4-----4---4---4-4-----4---4---4-4-----4---4---44-|
E -2-----0---0---0-2-----0---0---0-2-----0---0---0-2-----0---0---00-|

   1 & 2 & 3 & 4 & 1 & 2 & 3 & 4 & 1 & 2 & 3 & 4 & 1 & 2 & 3 & 4 &
  -----------------------------------------------------------------|
  -2---------------------------------------------------------------|
  -3---------------------------------------------------------------|
  -4-----4---4---4-4-----4---4---4-4-----4---4---4-4-----4---4---4-|
  -4-----4---4---4-4-----4---4---4-4-----4---4---4-4-----4---4---4-|
  -2-----0---0---0-2-----0---0---0-2-----0---0---0-2-----0---0---0-|


NOTE:- AFTER EVERY: -4- IS PLAYED, CALEB RESTS HIS INDEX FINGER ON THE 6TH STRING
                    -4- AT THE 2ND FRET, NOT ACTUALLY FRETTING IT, JUST DAMPING IT!
                    -0-

...AND MATTHEW (LEAD), PLAYS:

   1 & 2 & 3 & 4 & 1 & 2 & 3 & 4 & 1 & 2 & 3 & 4 & 1 & 2 & 3 & 4 &
e -----------------------------------------------------------------|
B -----------------------------------------------------------------|
G -----------------------------------------------------------------|
D -4---4-4-4-4-4-4-4---4-4-4-4-4-4-4---4-4-4-4-4-4-4---4-4-4-4-4-4-|
A -4---4-4-4-4-4-4-4---4-4-4-4-4-4-4---4-4-4-4-4-4-4---4-4-4-4-4-4-|
E -2---2-0-2-0-2-0-2---2-0-2-0-2-0-2---2-0-2-0-2-0-2---2-0-2-0-2-0-|

   1 & 2 & 3 & 4 & 1 & 2 & 3 & 4 & 1 & 2 & 3 & 4 & 1 & 2 & 3 & 4 &
  -----------------------------------------------------------------|
  -----------------------------------------------------------------|
  -----------------------------------------------------------------|
  -4---4-4-4-4-4-4-4---4-4-4-4-4-4-4---4-4-4-4-4-4-4---4-4-4-4-4-4-|
  -4---4-4-4-4-4-4-4---4-4-4-4-4-4-4---4-4-4-4-4-4-4---4-4-4-4-4-4-|
  -2---2-0-2-0-2-0-2---2-0-2-0-2-0-2---2-0-2-0-2-0-2---2-0-2-0-2-0-|

[VERSE 1] - ONLY CALEB PLAYS, AND HE PLAYS THIS:
   1 & 2 & 3 & 4 & 1 & 2 & 3 & 4 & 1 & 2 & 3 & 4 & 1 & 2 & 3 & 4 &
  -----------------------------------------------------------------|
  -----------------------------------------------------------------|
  -----------------------------------------------------------------|
  -4-----4---4---4-4-----4---4---4-4-----4---4---4-4-----4---4---4-|
  -4-----4---4---4-4-----4---4---4-4-----4---4---4-4-----4---4---4-|
  -2-----0---0---0-2-----0---0---0-2-----0---0---0-2-----0---0---0-|

[CHORUS]
   1 & 2 & 3 & 4 & 1 & 2 & 3 & 4 & 1 & 2 & 3 & 4 & 1 & 2 & 3 & 4 &
e -7---7---7---7---5---5---5---5----------------------------------|
B -7---7---7---7---5---5---5---5----------------------------------|
G -8---8---8---8---6---6---6---6----------------------------------|
D -9---9---9---9---7---7---7---7---4---4-4-4-4-4-4-4---4-4-4-4-4--|
A -9---9---9---9---7---7---7---7---4---4-4-4-4-4-4-4---4-4-4-4-4--|
E -7---7---7---7---5---5---5---5---2---2-0-2-0-2-0-2---2-0-2-0-2--|

   1 & 2 & 3 & 4 & 1  & 2  & 3  & 4
  -7---7---7---7---10---10---10---10-|
  -7---7---7---7---10---10---10---10-|
  -8---8---8---8---11---11---11---11-|
  -9---9---9---9---12---12---12---12-|
  -9---9---9---9---12---12---12---12-|
  -7---7---7---7---10---10---10---10-|

   1 & 2 & 3 & 4 & 1 & 2 & 3 & 4 & 1 & 2 & 3 & 4 & 1 & 2 & 3 & 4 &
  -----------------------------------------------------------------|
  -----------------------------------------------------------------|
  -----------------------------------------------------------------|
  -4---4-4-4-4-4-4-4---4-4-4-4-4-4-4---4-4-4-4-4-4-4---4-4-4-4-4-4-|
  -4---4-4-4-4-4-4-4---4-4-4-4-4-4-4---4-4-4-4-4-4-4---4-4-4-4-4-4-|
  -2---2-0-2-0-2-0-2---2-0-2-0-2-0-2---2-0-2-0-2-0-2---2-0-2-0-2-0-|

[VERSE 2]
LET RING-------------*-------------*
"...whispers in your ear"
e -------------------0-------------0------------------------------------|
B -------------------7---5-7-5-7-5-7---5-7-5-7-5------------------------|
G ----------------------------------------------------------------------|
D ----------------------------------------------------------------------|
A ----------------------------------------------------------------------|
E ----------------------------------------------------------------------|

LET RING-------------*-------------*
"...get me out of    here"
e -------------------0-------------0------------------------------------|
B -------------------7---5-7-5-7-5-7---5-7-5-7-5------------------------|
G ----------------------------------------------------------------------|
D ----------------------------------------------------------------------|
A ----------------------------------------------------------------------|
E ----------------------------------------------------------------------|

LET RING-------------*-------------*
"...just another    taste"
e -------------------0-------------0------------------------------------|
B -------------------7---5-7-5-7-5-7---5-7-5-7-5------------------------|
G ----------------------------------------------------------------------|
D ----------------------------------------------------------------------|
A ----------------------------------------------------------------------|
E ----------------------------------------------------------------------|

LET RING-------------*-------------*
"...when she fades away"
e -------------------0-------------0------------------------------------|
B -------------------7---5-7-5-7-5-7---5-7-5-7-5------------------------|
G ----------------------------------------------------------------------|
D ----------------------------------------------------------------------|
A ----------------------------------------------------------------------|
E ----------------------------------------------------------------------|

[CHORUS 2]
LET RING-------------*-------------*

e -5-5-5-5-3-3-3-3---0-------------0-------------------------------------|
B -5-5-5-5-3-3-3-3---7---5-7-5-7-5-7---5-7-5-7-5-------------------------|
G -----------------------------------------------------------------------|
D -----------------------------------------------------------------------|
A -----------------------------------------------------------------------|
E -----------------------------------------------------------------------|

LET RING-----------------*------------*------------*------------*

e -7-7-7-7-10-10-10-10---0------------0------------0------------0------------|
B -7-7-7-7-10-10-10-10---7--5-7-5-7-5-7--5-7-5-7-5-7--5-7-5-7-5-7--5-7-5-7-5-|
G ---------------------------------------------------------------------------|
D ---------------------------------------------------------------------------|
A ---------------------------------------------------------------------------|
E ---------------------------------------------------------------------------|

[SOLO]
e ----------------------------------------------------------------------|
B -17b(19)-17b(19)-17b(19)-17b(19)-17b(19)r17-14------------------------|
G -----------------------------------------------16b(18)r16-14-14-14-16-|
D ----------------------------------------------------------------------|
A ----------------------------------------------------------------------|
E ----------------------------------------------------------------------|

  ----------------------------------------------------------------------|
  -17-----------17-17-----------17-17---------17-17---------------------|
  -16b(18)-(18)----16b(18)-(18)----16b(18)r16-14-16b(18)----------------|
  ----------------------------------------------------------------------|
  ----------------------------------------------------------------------|
  ----------------------------------------------------------------------|

  ----------------------------------------------------------------------|
  ----------------------------------------------------------------------|
  -4b(6)r4-2---2-4-4b(6)r4-2---2-4-4b(6)r4-4b(6)r4-2---2-4--------------|
  -----------4---------------4-----------------------4------------------|
  ----------------------------------------------------------------------|
  ----------------------------------------------------------------------|

  ----------------------------------------------------------------------|
  ----------------------------------------------------------------------|
  -4b(6)-4b(6)--(6)(6)(6)(6)(6)r4/6-------------------------------------|
  ----------------------------------------------------------------------|
  ----------------------------------------------------------------------|
  ----------------------------------------------------------------------|

[OUTRO]
LET RING-------------*-------------*

e -------------------0-------------0-------------------------------------|
B -------------------7---5-7-5-7-5-7---5-7-5-7---------------------------|
G -----------------------------------------------------------------------|
D -----------------------------------------------------------------------|
A -----------------------------------------------------------------------|
E -----------------------------------------------------------------------|

LET RING-----------------*-------------*

e -7-7-7-7-10-10-10-10---0-------------0---------------------------------|
B -7-7-7-7-10-10-10-10---7---5-7-5-7-5-7---5-7-5-7-5---------------------|
G -----------------------------------------------------------------------|
D -----------------------------------------------------------------------|
A -----------------------------------------------------------------------|
E -----------------------------------------------------------------------|

LET RING-------------*-------------*

e -5-5-5-5-3-3-3-3---0-------------0-------------------------------------|
B -5-5-5-5-3-3-3-3---7---5-7-5-7-5-7---5-7-5-7-5-------------------------|
G -----------------------------------------------------------------------|
D -----------------------------------------------------------------------|
A -----------------------------------------------------------------------|
E -----------------------------------------------------------------------|

DOUBLE TIME|------------|

e -7-7-777-10-10-10-10-10------------------------------------------------|
B -7-7-777-10-10-10-10-10------------------------------------------------|
G -----------------------------------------------------------------------|
D -----------------------------------------------------------------------|
A -----------------------------------------------------------------------|
E -----------------------------------------------------------------------|

****************************************************************************

b  -  Bend
() -  Bracketed numbers are the note you bend up to
h  -  Hammer On
p  -  Pull Off
r  -  Return
/  -  Slide Up
\  -  Slide Down
d  -  Strum Down
u  -  Strum Up
PM -  Palm Mute
NH -  Natural Harmonics
^  -  Vibrato
comments
We did not receive enough feedback on this tab! Please rate:
1 2 3 4 5
I want to post or [tab]
guest
You may want to rate the tab now too:
select rating
Please do not post tabs as comments. Select "correction" instead!