Oops, an error
Loading. Please wait.

Only By The Night Tab

9,452 views 48 this week
no commentswrite comment
1 2 3 4 5
excellent!
x 1
Autoscroll
+/-
esc
set tempo
stop
Contributor
Difficulty
intermediate
Hey! There's an official Ultimate Guitar app which is ideal
for learning songs when you're away from computer. Get the app
WARNING: You are trying to view
                                    content from Ultimate-Guitar.com
                                    in an unauthorized application,
                                    which is prohibited.

                                    Please use an official Ultimate
                                    Guitar Tabs application for iPhone,
                                    iPad or Android to access legitimate
                                    chords, guitar, bass, and drum tabs
                                    from Ultimate-Guitar.com database.

                                    Type "ultimate guitar tabs" in Apple
                                    App Store's or Android Market's
                                    search to find the application.
This is a compilation of tabs from various users to form a perfect album tab.
All credit will be properly given to each user that contributed to towards the
album's tabs/chords. REMEMBER ALL CREDIT IS GIVEN 
(I only tweak to clean up! This could not have been done without you!)


Artist: Kings Of Leon
Album: Only By The Night
Tracks:
1. Closer                 (Tuning: EADGBE)
2. Crawl                  (Tuning: EADGBE)
3. Sex On Fire            (Tuning: EADGBE)
4. Use Somebody           (Tuning: EADGBE)
5. Manhattan              (Tuning: EADGBE)
6. Revelry                (Tuning: EADGBE)
7. 17                     (Tuning: EADGBE)
8. Notion                 (Tuning: EADGBE)
9. I Want You             (Tuning: EADGBE)
10.Be Somebody            (Tuning: DADGBE)
11.Cold Desert            (Tuning: EADGBE)
-- BONUS --
12.Beneath The Surface    (Tuning: EADGBE)



-----------------------------------------------------------------------------


1. Closer
   Tuning: EADGBE
Tabbed By: Qatwar



RHYTHM GUITAR: THIS IS WHAT THE RHYTHM GUITAR PLAYS THROUGHOUT THE WHOLE SONG

RIFF A:

           *                 *                *
E|---------------------------------------------------------------------------|
B|---------12----------------15---------------14-----------------------------|
G|---------------------------------------------------------------------------|
D|-9---------------12---------------11---------------------------------------|:x2
A|---------------------------------------------------------------------------|
E|---------------------------------------------------------------------------|

The notes with the * on top are what you'd play if you don't have a whammy, otherwise
play the same note before that but use the octave up function on the Whammy.

RIFF A1: PLAYED WHENEVER LEAD GUITAR PLAYS ITS 12b15 on B string

           *                 *                *
E|---------------------------------------------------------------------------|
B|---------12----------------15---------------14-----------------------------|
G|----------------------11---------------------------------------------------|
D|-9---------------12---------------11---------------------------------------|:x2
A|---------------------------------------------------------------------------|
E|---------------------------------------------------------------------------|

LEAD GUITAR: PLAYS WITH QUITE A WEIRD TONE, IF SOMEONE COULD TELL ME WHAT IT IS, I'LL BE 
TO UPDATE
THIS

As this song is rhythmically quite different I think its best when I tell you what time 
lead component
 comes
in so you can see for yourself

 (0:19)
E|---------------------|
B|-12b14--------r12----|
G|---------------------|:x3 - The timings quite random and awkward but its obvious when 
plays
D|---------------------|
A|---------------------|
E|---------------------|

 (0:59)
E|---------------------|
B|---------------------|
G|------7--------------|
D|---------------------|
A|---------------------|
E|---------------------|

 (1:07)
E|---------------------|
B|-12b14--------r12----|
G|---------------------|:x3
D|---------------------|
A|---------------------|
E|---------------------|

 (1:24)
E|---------------------|
B|---------------------|
G|---------------------|
D|---------------------|
A|----0----------------|
E|---------------------|

 (1:31)
E|------------0------0------0------0--------|
B|--/10-(x14)-5-(x5)-3-(x3)-5-(x4)-2-(x14)--|
G|------------------------------------------|:x3 -
D|------------------------------------------|
A|------------------------------------------|
E|------------------------------------------|
I'm not sure about how many times the notes are played
but this is a rough estimate

 (1:58)
E|----------------------------------------------------------------------|
B|-------12---------12----------15----------15----------10--------10----|
G|----11----11---11----------14----14----14----14----9-----9----9----9--|
D|-/9----------9--------9/12----------12----------11---------11---------|: Repeat As necessary
A|----------------------------------------------------------------------|
E|----------------------------------------------------------------------|

Then at (2:24), the riff that played at (1:31) is played again

 (2:43)
E|----------------|
B|-15/13----------|
G|----------------|
D|----------------|
A|----------------|
E|----------------|

Then the chorus cascade riff (1:58) plays again at (2:50)

Then at (3:17) theres a guitar solo, which is just basically a louder version of the one that
appears at (1:31)



-----------------------------------------------------------------------------


2. Crawl
   Tuning: EADGBE
Tabbed By: Tonedeafidiot



Gtr I (E A D G B E) - 'Guitar '
Gtr II (E A D G B E) - 'Guitar 2'

 Intro
  Q=90
 4/4
  Gtr I
                                         >
    TP~~~~~~~~~~~~~~~~~~~~~~~~~~~~~~~~~~~~~~~
    Q     +H.           +W              +W
|-------------------|---------------|----------------------|
|-------------------|---------------|----------------------|
|-<12>--(<12>)------|-(<12>)--------|----------------------|
|-<12>--(<12>)------|-(<12>)--------|-(<12>)---------------|
|-<12>--(<12>)------|-(<12>)--------|-(<12>)---------------|
|-<12>--(<12>)------|-(<12>)--------|-(<12>)---------------|
|
| Gtr II
|                                              TP
|   W                    W               Q     H     e  E
|-------------------|---------------|---------17----17\----|
|-------------------|---------------|----------------------|
|-------------------|---------------|----------------------|
|-------------------|---------------|----------------------|
|-------------------|---------------|----------------------|
|-------------------|---------------|----------------------|


  Wx3                            H.      S e S
|------------------------------|------------------|
|------------------------------|-----------3-3----|
|------------------------------|-----------4-4----|
|------------------------------|-----------5-5----|
|------------------------------|-----------5-5----|
|------------------------------|-----------3-3----|


  +S  S S S E E Q  S e S   +S  S S S E E Q  S e S
|------------------------|------------------------|
|-(3)S5-5-5-5s3------3-3-|-(3)S5-5-5-5s3------3-3-|
|-(4)S6-6-6-6s4------4-4-|-(4)S6-6-6-6s4------4-4-|
|-(5)S7-7-7-7s5------5-5-|-(5)S7-7-7-7s5------5-5-|
|-(5)S7-7-7-7s5------5-5-|-(5)S7-7-7-7s5------5-5-|
|-(3)S5-5-5-5-3------3-3-|-(3)S5-5-5-5-3------3-3-|


  +S  S S S E E Q  S e S   +S  S S S E S  E  E  E E S
|------------------------|----------------------------|
|-(3)S5-5-5-5s3------3-3-|-(3)S5-5-5-5-5--8-10--8-5-3-|
|-(4)S6-6-6-6s4------4-4-|-(4)S6-6-6-6-6--9-11--9-6-4-|
|-(5)S7-7-7-7s5------5-5-|-(5)S7-7-7-7-7-10-12-10-7-5-|
|-(5)S7-7-7-7s5------5-5-|-(5)S7-7-7-7-7-10-12-10-7-5-|
|-(3)S5-5-5-5-3------3-3-|-(3)S5-5-5-5-5--8-10--8-5-3-|


    S S S S E E Q  S e S   +S  S S S E E Q  S e S
||-----------------------|------------------------|
||o-3S5-5-5-5s3------3-3-|-(3)S5-5-5-5s3------3-3-|
||--4S6-6-6-6s4------4-4-|-(4)S6-6-6-6s4------4-4-|
||--5S7-7-7-7s5------5-5-|-(5)S7-7-7-7s5------5-5-|
||o-5S7-7-7-7s5------5-5-|-(5)S7-7-7-7s5------5-5-|
||--3S5-5-5-5-3------3-3-|-(3)S5-5-5-5-3------3-3-|
|
|   Gtr II
|   TP                      TP
|   W                       W
||-----------------------|------------------------|
||o----------------------|------------------------|
||--x--------------------|--x---------------------|
||--7--------------------|--7---------------------|
||o-x--------------------|--x---------------------|
||-----------------------|------------------------|


  +S  S S S E E Q  S e S   +S  S S S E S  E  E  E E S
|------------------------|---------------------------|
|-(3)S5-5-5-5s3------3-3-|-(3)S5-5-5-5-5--8-10--8-5-5|
|-(4)S6-6-6-6s4------4-4-|-(4)S6-6-6-6-6--9-11--9-6-6|
|-(5)S7-7-7-7s5------5-5-|-(5)S7-7-7-7-7-10-12-10-7-7|
|-(5)S7-7-7-7s5------5-5-|-(5)S7-7-7-7-7-10-12-10-7-7|
|-(3)S5-5-5-5-3------3-3-|-(3)S5-5-5-5-5--8-10--8-5-5|
|
|  TP                       TP
|  W                        W
|------------------------|---------------------------|
|------------------------|---------------------------|
|--x---------------------|--x------------------------|
|--7---------------------|--7------------------------|
|--x---------------------|--x------------------------|
|------------------------|---------------------------|


  +W           +W
|------------|--------||
|-(5)--------|-(5)----||
|-(6)--------|-(6)----||
|-(7)--------|-(7)----||
|-(7)--------|-(7)----||
|-(5)--------|-(5)----||
|
|               ~~~
|  W           +W
|------------|--------||
|------------|--------||
|------------|--------||
|--7---------|-(7)----||
|------------|--------||
|------------|--------||


 Verses 1 & 2
               1.                2.
  Wx7          H.      S e S     W
|------------|----------------||------|
|------------|-----------3-3-o||------|
|------------|-----------4-4--||------|
|------------|-----------5-5--||------|
|------------|-----------5-5-o||------|
|------------|-----------3-3--||------|


 Chorus 1
  W          +W           W          +W
|----------|------------|----------|--------|
|-0--------|-(0)--------|-5--------|-(5)----|
|-1--------|-(1)--------|-6--------|-(6)----|
|-2--------|-(2)--------|-7--------|-(7)----|
|-2--------|-(2)--------|-7--------|-(7)----|
|-0--------|-(0)--------|-5--------|-(5)----|


  W          +W           W          H.      S e S
|----------|------------|----------|----------------|
|-0--------|-(0)--------|-5--------|-----------3-3--|
|-1--------|-(1)--------|-6--------|-----------4-4--|
|-2--------|-(2)--------|-7--------|-----------5-5--|
|-2--------|-(2)--------|-7--------|-----------5-5--|
|-0--------|-(0)--------|-5--------|-----------3-3--|


 Interlude
  S S S S E E Q  S e S   +S  S S S E E Q  S e S
|----------------------|------------------------|
|-3S5-5-5-5s3------3-3-|-(3)S5-5-5-5s3------3-3-|
|-4S6-6-6-6s4------4-4-|-(4)S6-6-6-6s4------4-4-|
|-5S7-7-7-7s5------5-5-|-(5)S7-7-7-7s5------5-5-|
|-5S7-7-7-7s5------5-5-|-(5)S7-7-7-7s5------5-5-|
|-3S5-5-5-5-3------3-3-|-(3)S5-5-5-5-3------3-3-|


  +S  S S S E E Q  S e S   +S  S S S E S  E  E  E E S
|------------------------|----------------------------|
|-(3)S5-5-5-5s3------3-3-|-(3)S5-5-5-5-5--8-10--8-5-3-|
|-(4)S6-6-6-6s4------4-4-|-(4)S6-6-6-6-6--9-11--9-6-4-|
|-(5)S7-7-7-7s5------5-5-|-(5)S7-7-7-7-7-10-12-10-7-5-|
|-(5)S7-7-7-7s5------5-5-|-(5)S7-7-7-7-7-10-12-10-7-5-|
|-(3)S5-5-5-5-3------3-3-|-(3)S5-5-5-5-5--8-10--8-5-3-|


  S S S S E E Q  S e S   +S  S S S E E Q  S e S
|----------------------|------------------------|
|-3S5-5-5-5s3------3-3-|-(3)S5-5-5-5s3------3-3-|
|-4S6-6-6-6s4------4-4-|-(4)S6-6-6-6s4------4-4-|
|-5S7-7-7-7s5------5-5-|-(5)S7-7-7-7s5------5-5-|
|-5S7-7-7-7s5------5-5-|-(5)S7-7-7-7s5------5-5-|
|-3S5-5-5-5-3------3-3-|-(3)S5-5-5-5-3------3-3-|
|
| Gtr II
| TP                      TP
| W                       W
|----------------------|------------------------|
|----------------------|------------------------|
|-x--------------------|--x---------------------|
|-7--------------------|--7---------------------|
|-x--------------------|--x---------------------|
|----------------------|------------------------|


  +S  S S S E E Q  S e S   +S  S S S E S  E  E  E E S
|------------------------|----------------------------|
|-(3)S5-5-5-5s3------3-3-|-(3)S5-5-5-5-5--8-10--8-5-5-|
|-(4)S6-6-6-6s4------4-4-|-(4)S6-6-6-6-6--9-11--9-6-6-|
|-(5)S7-7-7-7s5------5-5-|-(5)S7-7-7-7-7-10-12-10-7-7-|
|-(5)S7-7-7-7s5------5-5-|-(5)S7-7-7-7-7-10-12-10-7-7-|
|-(3)S5-5-5-5-3------3-3-|-(3)S5-5-5-5-5--8-10--8-5-5-|
|
|  TP                       TP
|  W                        W
|------------------------|----------------------------|
|------------------------|----------------------------|
|--x---------------------|--x-------------------------|
|--7---------------------|--7-------------------------|
|--x---------------------|--x-------------------------|
|------------------------|----------------------------|


  W          +W
|----------|--------|
|-5--------|-(5)----|
|-6--------|-(6)----|
|-7--------|-(7)----|
|-7--------|-(7)----|
|-5--------|-(5)----|
|
|             ~~~
| W          +W
|----------|--------|
|----------|--------|
|----------|--------|
|-7--------|-(7)----|
|----------|--------|
|----------|--------|


 Verse 3
  Wx8
|--------|
|--------|
|--------|
|--------|
|--------|
|--------|


 Chorus 2
  W          +W           W          +W
|----------|------------|----------|--------|
|-0--------|-(0)--------|-5--------|-(5)----|
|-1--------|-(1)--------|-6--------|-(6)----|
|-2--------|-(2)--------|-7--------|-(7)----|
|-2--------|-(2)--------|-7--------|-(7)----|
|-0--------|-(0)--------|-5--------|-(5)----|


  W          +W           W          H.      S e S
|----------|------------|----------|----------------|
|-0--------|-(0)--------|-5--------|-----------3-3--|
|-1--------|-(1)--------|-6--------|-----------4-4--|
|-2--------|-(2)--------|-7--------|-----------5-5--|
|-2--------|-(2)--------|-7--------|-----------5-5--|
|-0--------|-(0)--------|-5--------|-----------3-3--|


 Guitar Solo
   S     S S S E E   Q       S e S   +S    S  S  S E     E  Q         S  e   S
|----------------------------------|--------------------------------------------|
|--3S====5-5-5-5s3-------------3-3-|-(3)S==5--5--5-5s====3---------------3---3--|
|--4S====6-6-6-6s4-------------4-4-|-(4)S==6--6--6-6s====4---------------4---4--|
|--5S====7-7-7-7s5-------------5-5-|-(5)S==7--7--7-7s====5---------------5---5--|
|--5S====7-7-7-7s5-------------5-5-|-(5)S==7--7--7-7s====5---------------5---5--|
|--3S====5-5-5-5-3-------------3-3-|-(3)S==5--5--5-5-----3---------------3---3--|
|
| Gtr II
|                         TP          TP      TP TP   TP    TP TP  TP    TP  TP
|  H                +E    Q.          E       S  E    E.    S  E   E     E   S
|-17b19============(17)r-12--------|--------------------------------------------|
|-------------------------x--------|------------12---------12-12-<12>---12-<12>-|
|----------------------------------|-14b16---14------12----------<12>------<12>-|
|----------------------------------|--------------------------------------------|
|----------------------------------|--------------------------------------------|
|----------------------------------|--------------------------------------------|


   +S  S   S  S  E   E    Q         S   e  S   +S   S    S S  E     S  E       E     E E S
|--------------------------------------------|-----------------------------------------------|
|--(3)S5---5--5--5s==3------------------3--3-|-(3)S=5----5-5--5-----5--8------10-----8-5-3---|
|--(4)S6---6--6--6s==4------------------4--4-|-(4)S=6----6-6--6-----6--9------11-----9-6-4---|
|--(5)S7---7--7--7s==5------------------5--5-|-(5)S=7----7-7--7-----7-10------12----10-7-5---|
|--(5)S7---7--7--7s==5------------------5--5-|-(5)S=7----7-7--7-----7-10------12----10-7-5---|
|--(3)S5---5--5--5---3------------------3--3-|-(3)S=5----5-5--5-----5--8------10-----8-5-3---|
|
|   TP     TP    TP  TP   TP  TP    TP
|   E      E     E   E    E   E    +E.     S    S   E.        S  S  S  s   E     Q.
|---------------------------<12>-(<12>)------|---------------------------<12>----------------|
|-/12----<12>---12-<12>-/12-<12>-(<12>)---12-|---------------------------<12>----------------|
|--------------------------------------------|-----14b16-----14p12----12---------------------|
|------------------------/9------------------|---------------------14------------------------|
|--------------------------------------------|-----------------------------------------------|
|--------------------------------------------|-----------------------------------------------|


    S S  S S  E    E  Q               S  e      S   +S   S    S S  E E  Q           S  e      S
|-------------------------------------------------|---------------------------------------------|
|---3S5--5-5--5s===3---------------------3------3-|-(3)S=5----5-5--5s3-----------------3------3-|
|---4S6--6-6--6s===4---------------------4------4-|-(4)S=6----6-6--6s4-----------------4------4-|
|---5S7--7-7--7s===5---------------------5------5-|-(5)S=7----7-7--7s5-----------------5------5-|
|---5S7--7-7--7s===5---------------------5------5-|-(5)S=7----7-7--7s5-----------------5------5-|
|---3S5--5-5--5----3---------------------3------3-|-(3)S=5----5-5--5-3-----------------3------3-|
|
|                              ~~~~~~~~~~                          ~~~
|   E    E    Q       S  S  S  S     +E     +E    S   E.        Q    E     S  S     +E     +E
|-------------------------------------------------|---------------------------------------------|
|-/14---15---17b19---15-14-15-17b19-(17)---(17)---|---------------------------------------------|
|-------------------------------------------------|-12b14-----12---12b14-12-12b14-(12)---(12)---|
|-------------------------------------------------|---------------------------------------------|
|-------------------------------------------------|---------------------------------------------|
|-------------------------------------------------|---------------------------------------------|


  +S    S S S E    E    Q    S e    S   +S   S    S S E       S  E    E     E    E    S
|-------------------------------------|---------------------------------------------------|
|-(3)S==5-5-5-5s===3-----------3----3-|-(3)S=5----5-5-5-------5--8---10-----8----5----3---|
|-(4)S==6-6-6-6s===4-----------4----4-|-(4)S=6----6-6-6-------6--9---11-----9----6----4---|
|-(5)S==7-7-7-7s===5-----------5----5-|-(5)S=7----7-7-7-------7-10---12----10----7----5---|
|-(5)S==7-7-7-7s===5-----------5----5-|-(5)S=7----7-7-7-------7-10---12----10----7----5---|
|-(3)S==5-5-5-5----3-----------3----3-|-(3)S=5----5-5-5-------5--8---10-----8----5----3---|
|
|  Q          E   +S  S S E. S S S  S    S   E      S S  E       S S  E     S S  E.
|-------------------------------------|---------------------------------------------------|
|-------------------------------------|-----------------------------------------12b14-----|
|--5tr7-------7b9r(7)p5-7-5--x-x-x-12-|-12--12b14---x-x-12b14----x-x-14b16--x-x-----------|
|----------------------------x-x-x----|-------------x-x----------x-x--------x-x-----------|
|-------------------------------------|---------------------------------------------------|
|-------------------------------------|---------------------------------------------------|


  S    S S S E E Q  S     e   S   +S  S   S   S E   E   Q  S e   S
|-------------------------------|----------------------------------|
|-3S===5-5-5-5s3----------3---3-|-(3)S5---5---5-5s==3--------3---3-|
|-4S===6-6-6-6s4----------4---4-|-(4)S6---6---6-6s==4--------4---4-|
|-5S===7-7-7-7s5----------5---5-|-(5)S7---7---7-7s==5--------5---5-|
|-5S===7-7-7-7s5----------5---5-|-(5)S7---7---7-7s==5--------5---5-|
|-3S===5-5-5-5-3----------3---3-|-(3)S5---5---5-5---3--------3---3-|
|
|                                  |---3----|
| H.                S     S S S    E    E   E   E.    S Q  S S S S
|-------------------5b5.5-------|----------------------------------|
|-------------------------------|----------------------------------|
|-5tr7--------------------7-7---|--7----5---7---7b9r==5-5----------|
|-------------------------------|--------------------------------5-|
|-------------------------------|----------------------------7-7---|
|-------------------------------|----------------------------------|


  +S  S S S E   E       Q       S e S   +S  S    S S  E  S  E  E  E   E     S
|-------------------------------------|------------------------------------------|
|-(3)S5-5-5-5s==3-----------------3-3-|-(3)S5----5-5--5--5--8-10--8---5-----5----|
|-(4)S6-6-6-6s==4-----------------4-4-|-(4)S6----6-6--6--6--9-11--9---6-----6----|
|-(5)S7-7-7-7s==5-----------------5-5-|-(5)S7----7-7--7--7-10-12-10---7-----7----|
|-(5)S7-7-7-7s==5-----------------5-5-|-(5)S7----7-7--7--7-10-12-10---7-----7----|
|-(3)S5-5-5-5---3-----------------3-3-|-(3)S5----5-5--5--5--8-10--8---5-----5----|
|
|           TP
|  S  S E   E.    S    +E.    S Q        S  E.       +H             E   +E
|-------------------------------------|------------------------------------------|
|-------------------------------------|------------------------------------------|
|-----------7b9r==5tr7-(5tr7)---5-----|-----7b9======(7)------------7r==(7)------|
|--7--5-5---------------------7-------|------------------------------------------|
|-------------------------------------|------------------------------------------|
|-------------------------------------|------------------------------------------|


  W          +H.      Q
|----------|---------------*|
|-5--------|-(5)-----------*|
|-6--------|-(6)-----------*|
|-7--------|-(7)-----------*|
|-7--------|-(7)-----------*|
|-5--------|-(5)-----------*|
|
| ~~~~~~~~~~~~~~~
| W          +H.      E  E
|----------|---------------*|
|----------|---------------*|
|----------|---------------*|
|-7--------|-(7)------x\---*|
|----------|---------------*|
|----------|---------------*|




-----------------------------------------------------------------------------


3. Sex On Fire
   Tuning: EADGBE
Tabbed By: _Pintura_



Intro/verse

e|----------------------------|----------------------------|
B|----------------------------|----------------------------|
G|----------------------------|----------------------------|
D|-----------------------(x4)-|-----------------------(x4)-|
A|---16---14---14---14--------|---12---11---11---11--------|
E|-0----0----0----0----0------|-9----9----9----9----9------|



This is the little lead bit played over and over in the verse, not sure if it's right

e|---------------|
B|-------4-------|
G|---------------|
D|-4-6-4---4-7-6-|
A|---------------|
E|---------------|



Chorus (I'm not completely sure the third chord is correct)

e|-----------------|-------------------------|-11-11-11-11-11-11-11-11-|
B|-----------------|-12-12-12-12-12-12-12-12-|-12-12-12-12-12-12-12-12-|
G|-9-9-9-9-9-9-9-9-|-x--x--x--x--x--x--x--x--|-x--x--x--x--x--x--x--x--|
D|-x-x-x-x-x-x-x-x-|-9--9--9--9--9--9--9--9--|-9--9--9--9--9--9--9--9--|
A|-7-7-7-7-7-7-7-7-|-------------------------|-------------------------|
E|-----------------|-------------------------|-------------------------|

e|-----------------|-11----11----11~-11----11----0-|
B|-9-9-9-9-9-9-9-9-|-14b16-14b16-14~-14b16-14b16-9-|
G|-9-9-9-9-9-9-9-9-|-------------------------------|
D|-9-9-9-9-9-9-9-9-|-------------------------------|
A|-----------------|-------------------------------|
E|-----------------|-------------------------------|



Alternate Chorus (played later in the song)

e|----------|-11----11----11~-11----11----0-|
B|----------|-14b16-14b16-14--14b16-14b16-9-|
G|-9-9------|-------------------------------|
D|-9-9-(x5)-|-------------------------------|
A|-7-7------|-------------------------------|
E|----------|-------------------------------|




-----------------------------------------------------------------------------


4. Use Somebody
   Tuning: EADGBE
Tabbed By: Nundies



Intro:
Guitar 1
e|-------------------------------------------------------------------|
B|-------------------------------------------------------------------|
G|---9--9--9--9---9--9--9--9---2-2-2-2--2-2-2-2----------------------|
D|--10-10-10-10--10-10-10-10---3-3-3-3--3-3-3-3----------------------| x2
A|--10-10-10-10--10-10-10-10---3-3-3-3--3-3-3-3----------------------|
E|---8--8--8--8---0--0--0--0---1-1-1-1--1-1-1-1----------------------|
    Oowooohooo   Oowooohooo

Guitar 2
e|---0-0-0-0-0-0-0-0-0-0-0-0-0-0-0-0---------------------------------|
B|---5-5-5-5-5-5-5-5-5-5-5-5-5-5-5-5---------------------------------|
G|---5-5-5-5-5-5-5-5-5-5-5-5-5-5-5-5---------------------------------|
D|-------------------------------------------------------------------| x3
A|-------------------------------------------------------------------|
E|-------------------------------------------------------------------|

Guitar 1
e|-------------------------------------------------------------------|
B|-------------------------------------------------------------------|
G|---5-5-5-5---9--9--9--9--2-2-2-2--2-2-2-2--------------------------|
D|---7-7-7-7--10-10-10-10--3-3-3-3--3-3-3-3--------------------------| x2
A|---7-7-7-7--10-10-10-10--3-3-3-3--3-3-3-3--------------------------|
E|---5-5-5-5---8--8--8--8--1-1-1-1--1-1-1-1--------------------------|
                                    ^
                                    hold here second time thru
Guitar 2
e|----0--0--0--0--0--0--0--0--0--------0--0--0--0--0--0--1-----------|
B|---12-12-12-13-13-13-15-15-15b17r15-15-13-13-13-12-12--1 hold------|
G|-------------------------------------------------------------------|
D|-------------------------------------------------------------------|
A|-------------------------------------------------------------------|
E|-------------------------------------------------------------------|


Verse 1:
Guitar 1
e|-------------------------------------------------------------------|
B|-------------------------------------------------------------------|
G|---9--9--9--9---9--9--9--9---2-2-2-2--2-2-2-2----------------------|
D|--10-10-10-10--10-10-10-10---3-3-3-3--3-3-3-3----------------------| x2
A|--10-10-10-10--10-10-10-10---3-3-3-3--3-3-3-3----------------------|
E|---8--8--8--8---0--0--0--0---1-1-1-1--1-1-1-1----------------------|
    I've been roaming around, always looking down and all I see 
    Painted faces, build the places I cant reach 


e|-------------------------------------------------------------------|
B|-------------------------------------------------------------------|
G|---5-5-5-5---9--9--9--9--2-2-2-2--2-2-2-2--------------------------|
D|---7-7-7-7--10-10-10-10--3-3-3-3--3-3-3-3--------------------------| x2
A|---7-7-7-7--10-10-10-10--3-3-3-3--3-3-3-3--------------------------|
E|---5-5-5-5---8--8--8--8--1-1-1-1--1-1-1-1--------------------------|     
You know that I could use somebody
     You know that I could use somebody


Verse 2:
Guitar 1
e|-------------------------------------------------------------------|
B|-------------------------------------------------------------------|
G|---9--9--9--9---9--9--9--9---2-2-2-2--2-2-2-2----------------------|
D|--10-10-10-10--10-10-10-10---3-3-3-3--3-3-3-3----------------------| x2
A|--10-10-10-10--10-10-10-10---3-3-3-3--3-3-3-3----------------------|
E|---8--8--8--8---0--0--0--0---1-1-1-1--1-1-1-1----------------------|
    Someone like you, And all you know, And how you speak 
    Countless lovers under cover of the street 

Guitar 2  p.m
e|---0--0-0--0-0-0---0--0-0--0-0-0-----------------------------------|
B|---5--5-5--5-5-5---5--5-5--5-5-5-----------------------------------|
G|---5--5-5--5-5-5---5--5-5--5-5-5-----------------------------------|
D|-------------------------------------------------------------------| x2
A|-------------------------------------------------------------------|
E|-------------------------------------------------------------------|

Guitar 1
e|-------------------------------------------------------------------|
B|-------------------------------------------------------------------|
G|---5-5-5-5---9--9--9--9--2-2-2-2--2-2-2-2--------------------------|
D|---7-7-7-7--10-10-10-10--3-3-3-3--3-3-3-3--------------------------| x2
A|---7-7-7-7--10-10-10-10--3-3-3-3--3-3-3-3--------------------------|
E|---5-5-5-5---8--8--8--8--1-1-1-1--1-1-1-1--------------------------|
     You know that I could use somebody
     You know that I could use somebody
     Someone like you

Guitar 2  p.m
e|---0--0-0--0-0-0---0--0-0--0-0-0-----------------------------------|
B|---5--5-5--5-5-5---5--5-5--5-5-5-----------------------------------|
G|---5--5-5--5-5-5---5--5-5--5-5-5-----------------------------------|
D|-------------------------------------------------------------------| x2
A|-------------------------------------------------------------------|
E|-------------------------------------------------------------------|



Chorus:
Guitar 1
e|-------------------------------------------------------------------|
B|-------------------------------------------------------------------|
G|---9--9--9--9---9--9--9--9---2-2-2-2--2-2-2-2----------------------|
D|--10-10-10-10--10-10-10-10---3-3-3-3--3-3-3-3----------------------| x2
A|--10-10-10-10--10-10-10-10---3-3-3-3--3-3-3-3----------------------|
E|---8--8--8--8---0--0--0--0---1-1-1-1--1-1-1-1----------------------|
    Oowooohooo   Oowooohooo

Guitar 2
e|---0-0-0-0-0-0-0-0-0-0-0-0-0-0-0-0---------------------------------|
B|---5-5-5-5-5-5-5-5-5-5-5-5-5-5-5-5---------------------------------|
G|---5-5-5-5-5-5-5-5-5-5-5-5-5-5-5-5---------------------------------|
D|-------------------------------------------------------------------| x2
A|-------------------------------------------------------------------|
E|-------------------------------------------------------------------|

Guitar 1
e|-------------------------------------------------------------------|
B|-------------------------------------------------------------------|
G|---5-5-5-5---9--9--9--9--2-2-2-2--2-2-2-2--------------------------|
D|---7-7-7-7--10-10-10-10--3-3-3-3--3-3-3-3--------------------------| x2
A|---7-7-7-7--10-10-10-10--3-3-3-3--3-3-3-3--------------------------|
E|---5-5-5-5---8--8--8--8--1-1-1-1--1-1-1-1--------------------------|

Guitar 2
e|----0--0--0--0--0--0--0--0------0-0-0-0-0-0-0-0-0-0-0-0-0-0-0-0----|
B|---12-12-12-13-13-13-15-15--x2--8-8-8-6-6-6-8-8-3-3-3-1-1-1-1-1----|
G|-------------------------------------------------------------------|
D|-------------------------------------------------------------------|x2
A|-------------------------------------------------------------------|
E|-------------------------------------------------------------------|


Verse 3:
Guitar 1
e|-------------------------------------------------------------------|
B|-------------------------------------------------------------------|
G|---9--9--9--9---9--9--9--9---2-2-2-2--2-2-2-2----------------------|
D|--10-10-10-10--10-10-10-10---3-3-3-3--3-3-3-3----------------------| x2
A|--10-10-10-10--10-10-10-10---3-3-3-3--3-3-3-3----------------------|
E|---8--8--8--8---0--0--0--0---1-1-1-1--1-1-1-1----------------------|
    Off in the night, while you live it up, I'm off to sleep 
    Waging wars to shape the poet and the beat 


Guitar 1
e|-------------------------------------------------------------------|
B|-------------------------------------------------------------------|
G|---5-5-5-5---9--9--9--9--2-2-2-2--2-2-2-2--------------------------|
D|---7-7-7-7--10-10-10-10--3-3-3-3--3-3-3-3--------------------------| x2
A|---7-7-7-7--10-10-10-10--3-3-3-3--3-3-3-3--------------------------|
E|---5-5-5-5---8--8--8--8--1-1-1-1--1-1-1-1--------------------------|
     I hope it's gunna make you notice
     I hope it's gunna make you notice
     Someone like me

Guitar 2 
e|---0--0-0--0-0-0---0--0-0--0-0-0-----------------------------------|
B|---5--5-5--5-5-5---5--5-5--5-5-5-----------------------------------|
G|---5--5-5--5-5-5---5--5-5--5-5-5-----------------------------------|
D|-------------------------------------------------------------------| x2
A|-------------------------------------------------------------------|
E|-------------------------------------------------------------------|



Chorus:
Guitar 1
e|-------------------------------------------------------------------|
B|-------------------------------------------------------------------|
G|---9--9--9--9---9--9--9--9---2-2-2-2--2-2-2-2----------------------|
D|--10-10-10-10--10-10-10-10---3-3-3-3--3-3-3-3----------------------| x2
A|--10-10-10-10--10-10-10-10---3-3-3-3--3-3-3-3----------------------|
E|---8--8--8--8---0--0--0--0---1-1-1-1--1-1-1-1----------------------|
    Oowooohooo   Oowooohooo
    Someone like me

Guitar 2
e|---0-0-0-0-0-0-0-0-0-0-0-0-0-0-0-0---------------------------------|
B|---5-5-5-5-5-5-5-5-5-5-5-5-5-5-5-5---------------------------------|
G|---5-5-5-5-5-5-5-5-5-5-5-5-5-5-5-5---------------------------------|
D|-------------------------------------------------------------------| x2
A|-------------------------------------------------------------------|
E|-------------------------------------------------------------------|

Guitar 1
e|-------------------------------------------------------------------|
B|-------------------------------------------------------------------|
G|---5-5-5-5---9--9--9--9--2-2-2-2--2-2-2-2--------------------------|
D|---7-7-7-7--10-10-10-10--3-3-3-3--3-3-3-3--------------------------| x2
A|---7-7-7-7--10-10-10-10--3-3-3-3--3-3-3-3--------------------------|
E|---5-5-5-5---8--8--8--8--1-1-1-1--1-1-1-1--------------------------|
     Someone like me somebody

Guitar 2
e|----0--0--0--0--0--0--0--0------0-0-0-0-0-0-0-0-0-0-0-0-0-0-0-0----|
B|---12-12-12-13-13-13-15-15--x2--8-8-8-6-6-6-8-8-3-3-3-1-1-1-1-1----|
G|-------------------------------------------------------------------|
D|-------------------------------------------------------------------|
A|-------------------------------------------------------------------|
E|-------------------------------------------------------------------|

Guitar 2
e|----0--0--0--0--0--0--0--0--0--------0--0--0--0--0--0-
B|---12-12-12-13-13-13-15-15-15b17r15-15-13-13-13-12-12-
G|------------------------------------------------------
D|------------------------------------------------------
A|------------------------------------------------------
E|------------------------------------------------------

e|-0-0-0-0-0-0-0-0-0-0-0-0-0-0-0-0---|
B|-8-8-8-6-6-6-8-8-3-3-3-1-1-1-1-1---|
G|-----------------------------------|
D|-----------------------------------|
A|-----------------------------------|
E|-----------------------------------|


Bridge:
Guitar 1 and Guitar 2
e|-------------------------------------------------------------------|
B|-------------------------------------------------------------------|
G|--11-11-11-11-11-11-11-11-----3-3-3-3-3-3-3-3----------------------|
D|--12-12-12-12-12-12-12 12-x2--4-4-4-4-4-4-4-4-x2-------------------|
A|--12-12-12-12-12-12-12-12-----4-4-4-4-4-4-4-4----------------------|
E|--10-10-10-10-10-10-10-10-----2-2-2-2-2-2-2-2----------------------|
    (Dont let it out  Dont let it out)

e|-------------------------------------------------------------------|
B|-------------------------------------------------------------------|
G|--11-11-11-11-11-11-11-11-3-3-3-3-3-3------------------------------|
D|--12-12-12-12-12-12-12 12-4-4-4-4-4-4------------------------------|
A|--12-12-12-12-12-12-12-12-4-4-4-4-4-4-2/7--------------------------|
E|--10-10-10-10-10-10-10-10-2-2-2-2-2-2-2/7--------------------------|
    (Dont let it out  Dont let it out)



Solo:
Guitar 1
e|-------------------------------------------------------------------|
B|-------------------------------------------------------------------|
G|---5-5-5-5---9--9--9--9--2-2-2-2--2-2-2-2--------------------------|
D|---7-7-7-7--10-10-10-10--3-3-3-3--3-3-3-3--------------------------| x5
A|---7-7-7-7--10-10-10-10--3-3-3-3--3-3-3-3--------------------------|
E|---5-5-5-5---8--8--8--8--1-1-1-1--1-1-1-1--------------------------|
     Someone like you Someone like you
     Someone like you somebody

Guitar 2
e|-------------------------------------------------------------------|
B|----------------------------------6-6-6-6-5------5b6r5-3-----------|
G|--9-9-9-9/12-12-12-12---------------------hold-----------5---------|
D|----------------------10-10-10-10----------------------------------| x4
A|-------------------------------------------------------------------|
E|-------------------------------------------------------------------|

Guitar 2
e|-------------------------------------------------------------------|
B|-------------------------------------------------------------------|
G|--9-9-9-9/12-12-12-12-5-5-5-5-3-3-3-2-0-2b3-hold-------------------|
D|-------------------------------------------------------------------|
A|-------------------------------------------------------------------|
E|-------------------------------------------------------------------|


Outro:
Guitar 1
e|-------------------------------------------------------------------|
B|-------------------------------------------------------------------|
G|---9--9--9--9---9--9--9--9---2-2-2-2--2----------------------------|
D|--10-10-10-10--10-10-10-10---3-3-3-3--3-hold-----------------------|
A|--10-10-10-10--10-10-10-10---3-3-3-3--3----------------------------|
E|---8--8--8--8---0--0--0--0---1-1-1-1--1----------------------------|
    I've been roamin around always lookin' down and all I see




-----------------------------------------------------------------------------


5. Manhattan
   Tuning: EADGBE
Tabbed By: JB-Boy


Intro
Lead (Matthew)
e[-----------------------]
B[--9----12----14----10--]
G[-----------------------] X2
D[-----------------------]
A[-----------------------]
E[-----------------------]

Rhythm (Caleb)
e[------------------------------------------------------------]
B[------------------------------------------------------------]
G[------------------------------------------------------------] X2
D[------------------------------------------------------------]
A[--9-9-9/11-11--9-9-9/11-11--11-11-11/12-12--11-11-11/12-12--]
E[------------------------------------------------------------]


Verse
Lead, in the 3rd verse only play first bit
e[--12-12-----------------12-12-----------12-12------12-12---------]
B[--------10-9------------------10-9------------12---------10---9--]
G[-----------------------------------------------------------------]
D[-----------------------------------------------------------------]
A[-----------------------------------------------------------------]
E[-----------------------------------------------------------------]


Chorus
Lead
e[------------------------------------12-12-------]
B[--12-12-9----12-12-9----12-12-9-10--------9-10--]
G[----------9----------9--------------------------] X2
D[------------------------------------------------]
A[------------------------------------------------]
E[------------------------------------------------]

Rhythm
Same as Intro


1st Bridge
Lead
e[-----12-14-14b-12-11~~~~---12-14-14b-12---------]
B[--14--------------------14----------------------]
G[----------------------------------------13~~~~--] X2
D[------------------------------------------------]
A[------------------------------------------------]
E[------------------------------------------------]

Rhythm
e[---------------------------------------]
B[---------------------------------------]
G[---------------------------------------] X4
D[------9--11--------------9--11---------]
A[--11---------9-9-11---11--------11--9--]
E[---------------------------------------]


2nd Bridge
Lead, play 1st bridge

Rhythm, this may not seem right but look at a live version of the song and you'll see 
do something like this.
e[--------------------------------------------------]
B[--------------------------------------------------]
G[--------------------88----------------------------] X2
D[--14-14-14-14-14-14-88----14-14-14-14-14-14-66----]
A[--14-14-14-14-14-14-66----14-14-14-14-14-14-66----]
E[--12-12-12-12-12-12-------12-12-12-12-12-12-44----]


Outro
Lead
e[-----12--14---------]
B[-------------14-12--]
G[--13----------------] X8
D[--------------------]
A[--------------------]
E[--------------------]
Then trail off playing first bridge

Rhythm
play first first bridge the whole time

Order:
Intro
Verse
Chorus
Verse
Chorus
1st Bridge
Verse
Chorus
2nd Bridge
Outro



-----------------------------------------------------------------------------


6. Revelry
   Tuning: EADGBE
Tabbed By: Macheeoo



0:00
Caleb
e|-----------------------|
B|-----------------------|
G|-----------------------|
D|--2~---4~---6~---------|
A|--2~---4~---6~---------|
E|--0~---0~---0~---------| X5      (up until the pre-chorus)

0:26
Matthew
e|---19b-----------------|
B|-------------13b14~----|
G|-----------------------|
D|-----------------------|
A|-----------------------|
E|-----------------------|

0:53
Matthew
e|---7--7--7--7----9----9----9----9-----11---11---11---11-----9---9---9---9~-|
B|----9--9--9--9----10---10---10---10-----12---12---12---12----10--10--10----|
G|-----9--9--9--9-----11---11---11---11-----13---13---13---13----11--11--11--|
D|---------------------------------------------------------------------------|
A|---------------------------------------------------------------------------|
E|---------------------------------------------------------------------------|

1:07
Caleb    (Chorus)
     A       A      B            E    F#m/E   G#m/E    F#m/E
e|---5~------5~-----7777777~--/--0~-----0~------0~-------0~------------------|
B|---5~------5~-----7777777~--/--0~-----0~------0~-------0~------------------|
G|---6~------6~-----8888888~--/--1~-----2~------4~-------2~------------------|
D|---7~------7~-----9999999~--/--2~-----4~------6~-------4~------------------|
A|---7~------7~-----9999999~--/--2~-----4~------6~-------4~------------------|
E|---5~------5~-----7777777~--/--0~-----0~------0~-------0~------------------|

1:14
Matthew
e|---19b---16--------------------14-----|
B|---------------14b~---10/12b~------14~|
G|--------------------------------------|
D|--------------------------------------|
A|--------------------------------------|
E|--------------------------------------|

1:26
Caleb
     E     F#m/E   G#m/E   F#m/E
e|---0-------0-------0-------0~---------|
B|---0-------0-------0-------0~---------|
G|---1-------2-------4-------2~---------|
D|---2-------4-------6-------4~---------|
A|---2-------4-------6-------4~---------|
E|---0-------2-------0-------0~---------|    x2

Matthew
e|----------7~---5~-------7~---9~----11~---9~------|
B|---9\5~---9~---5~-------9~---10~---12~---10~-----|
G|----------8~---6~-------9~---11~---13~---11~-----|
D|-------------------------------------------------|
A|-------------------------------------------------|
E|-------------------------------------------------|

1:52
REPEAT CHORUS UNTIL END

2:25
Matthew
e|---7--7--7--7----9----9----9----9-----11---11---11---11-----9---9---9---9~-|
B|----9--9--9--9----10---10---10---10-----12---12---12---12----10--10--10----|
G|-----9--9--9--9-----11---11---11---11-----13---13---13---13----11--11--11--|
D|---------------------------------------------------------------------------|
A|---------------------------------------------------------------------------|
E|---------------------------------------------------------------------------|    x2




------------------------------------------------------------------------------


7. 17
   Tuning: EADGBE
Tabbed By: xxGUITARZEROxx


 Intro - part 1
e|------------------|
B|------------------|
G|-5555555555555555-|
D|-5555555555555555-|
A|-3333333333333333-|
E|------------------|
PM ****************




Intro - part 2 - Guitar 1
e|------------------------------------------------|
B|------------------------------------------------|
G|-5555-4444-2222------7777-11111111-12-12-12-12--|
D|-5555-5555-2222-5555-7777-11111111-12-12-12-12--| Repeat once more
A|-3333-2222-0000-5555-5555-9-9-9-9--10-10-10-10--|
E|----------------3333----------------------------|

Intro - part 2 - Guitar 2 (this is the piano or bells in the back ground
e|-8~-7h8p7------------------|
B|----------10-8~-3-7b8r7-8~-|
G|---------------------------|
D|---------------------------| Repeat once more
A|---------------------------|
E|---------------------------|




Verse - Guitar 1
e|-----------------------------------|
B|-----------------------------------|
G|-10b12~~~~~~~~-5555-4444-2222-0000-|
D|-----------------------------------|  Repeat three more times
A|-----------------------------------|
E|-----------------------------------|

Verse - Guitar 2
e|-----------------------------------------------|
B|-----------------------------------------------|
G|-10-8-10b12~--10-8-10b12~--5555-4444-2222------|
D|-----------8------------8--5555-5555-2222-5555-| Repeat three more times
A|---------------------------3333-2222-0000-5555-|
E|------------------------------------------3333-|
For this part keep holding the 10b12 but add the 8





Chorus - Guitar 1
e|-------------------------------------|
B|-------------------------------------|
G|-55555555-22222222-77777777----------|
D|-55555555-22222222-77777777-55555555-| Repeat two times 
A|-33333333-00000000-55555555-55555555-|
E|----------------------------33333333-|
PM ******** ******** ******** ********

Then Play
e|-------------------------------|
B|-------------------------------|
G|-55555555-22222222-77777777----|
D|-55555555-22222222-77777777-5~-|
A|-33333333-00000000-55555555-5~-|
E|----------------------------3~-|
PM ******** ******** ********


Chorus - Guitar 2
e|-0~-0~-2~-3~-|
B|-1~-0~-3~-3~-|
G|-0~-2~-2~-0~-|
D|-2~-2~-0~-0~-| Repeats through out the whole chorus
A|-3~-0~----2~-|
E|----------3~-|





Verse - Guitar 1
e|-----------------------------------|
B|-----------------------------------|
G|-10b12~~~~~~~~-5555-4444-2222-0000-|
D|-----------------------------------|  Repeat three more times
A|-----------------------------------|
E|-----------------------------------|

Verse - Guitar 2
e|-----------------------------------------------|
B|-----------------------------------------------|
G|-10-8-10b12~--10-8-10b12~--5555-4444-2222------|
D|-----------8------------8--5555-5555-2222-5555-| Repeat three more times
A|---------------------------3333-2222-0000-5555-|
E|------------------------------------------3333-|
For this part keep holding the 10b12 but add the 8




Chorus - Guitar 1
e|-------------------------------------|
B|-------------------------------------|
G|-55555555-22222222-77777777----------|
D|-55555555-22222222-77777777-55555555-| Repeat two times 
A|-33333333-00000000-55555555-55555555-|
E|----------------------------33333333-|
PM ******** ******** ******** ********

Then Play
e|-------------------------------|
B|-------------------------------|
G|-55555555-22222222-77777777----|
D|-55555555-22222222-77777777-5~-|
A|-33333333-00000000-55555555-5~-|
E|----------------------------3~-|
PM ******** ******** ********





Outro - part 2 - Guitar 1
e|------------------------------------------------|
B|------------------------------------------------|
G|-5555-4444-2222------7777-11111111-12-12-12-12--|
D|-5555-5555-2222-5555-7777-11111111-12-12-12-12--| Repeat until end of song
A|-3333-2222-0000-5555-5555-9-9-9-9--10-10-10-10--|
E|----------------3333----------------------------|

Outro - part 2 - Guitar 2 (this is the piano or bells in the back ground
e|-8~-7h8p7------------------|
B|----------10-8~-3-7b8r7-8~-|
G|---------------------------|
D|---------------------------| Repeat until end of song
A|---------------------------|
E|---------------------------|

Outro Solo - (All of these are speed picks. Parentheses shows # of picks
e|---------------------------------------|
B|-17(20)-19(8)-20(8)--------------------|
G|--------------------16(20)-14(8)-12(8)-|
D|---------------------------------------| Repeat until end of song
A|---------------------------------------|
E|---------------------------------------|



!!!  - - - end on the 14 of the G - - - !!!
|----|
|----|
|-14-|
|----|
|----|
|----|



------------------------------------------------------------------------------


8. Notion
   Tuning: EADGBE
Tabbed By: Babyfratellikid


riff 1 (intro, played with delay to get exact effect)
e|--0-0-0-0-0-0-0----0-0-0-0----0-0-0----0-0--------------------------------|
B|-5-5-5-4-2-2-2-2/10-9-9-9-9/12-7-7-7/10--9--------------------------------|
G|--------------------------------------------------------------------------|
D|--------------------------------------------------------------------------|
A|--------------------------------------------------------------------------|
E|--------------------------------------------------------------------------|

riff 2 (caleb plays during intro over riff 1)
strumming not marked exactly

   E    E      A      C#m    B
e|-0---------0---------0----------0---------------------------|
B|-0---------0---------0----------0---------------------------|
G|-13--------6---------9----------8---------------------------|
D|-14--------7---------11---------9---------------------------|
A|-14--------7---------11---------9---------------------------|
E|-0---------0---------0----------0---------------------------|
verse 1, riff 2

chorus
"so don't knock it, don't knock it, you been here before"
riff 3 (matthew, quick muted chord before each strum)
   E   A    C#m B
e|-----5-5--4-4-------------------------------------------------------------|
B|-9-9-5-5--5-5-------------------------------------------------------------|
G|-9-9-6-6--6-6-4-4---------------------------------------------------------|
D|-9-9-7-7--6-6-4-4---------------------------------------------------------|
A|-7-7-7-7--4-4-2-2---------------------------------------------------------|
E|-----5-5------------------------------------------------------------------|

riff 1 and riff 2

verse 2, riff 2

"...everyone says they don't know"
riff 4 (matthew, can be played two ways, both sound right)
e|-------0-------0-------0---------0----------------------------------------|
B|-4h5-5-5-4h5-5-5-4h5-5-5-4h5p4h5-5----------------------------------------|
G|--------------------------------------------------------------------------|
D|--------------------------------------------------------------------------|
A|--------------------------------------------------------------------------|
E|--------------------------------------------------------------------------|
or
e|-0---00-0---00-----00-0---------------------------------------------------|
B|-4/5-55-4/5-55-4/5-55-4/5\4/5---------------------------------------------|
G|--------------------------------------------------------------------------|
D|--------------------------------------------------------------------------|
A|--------------------------------------------------------------------------|
E|--------------------------------------------------------------------------|

chorus, riff 2 and riff 3

solo (matthew)
e|--------------------------------------------------------------------------|
B|-5-4-2-5b7-4-7b9-542-540-5-4-2-5b7-4-7b9-540-2b4--------------------------|
G|--------------------------------------------------------------------------|
D|--------------------------------------------------------------------------|
A|--------------------------------------------------------------------------|
E|--------------------------------------------------------------------------|

verse 3, riff 2

pre chorus (matthew)
riff 5
e|-0-0--0-0---0-0-0-0-------------------------------------------------------|
B|-----------5-5-5-5--------------------------------------------------------|
G|----------4-4-4-4---------------------------------------------------------|
D|--------------------------------------------------------------------------|
A|--------------------------------------------------------------------------|
E|--------------------------------------------------------------------------|

chorus, riff 2 and riff 5



------------------------------------------------------------------------------


9. I Want You
   Tuning: EADGBE
Tabbed By: Jerryhendrix



Intro
e|--------------------------------------------------------------------------|
B|--------------------------------------------------------------------------|
G|--------------------------------------------------------------------------|
D|-----------------------------------------------0---0-------2---2----------|
A|---------0----------0----------0---------0---2---2---2-2h3---3---------0--|
E|--/3--3-3---/3--3-3----/3--3-3---/3--3-3-------------------------3-3-3---3|


Verse 1-- bass and drums only


post-verse fill
e|---------------------------------------------------------------------------|
B|---------------------------------------------------------------------------|
G|---------------------------------------------------------------------------|
D|---------------------------------------------------------------------------|
A|----5---5------7---7------------0------------------------------------------|
E|--/7---7---7h8---8-----3--3--3-3---3---------------------------------------|



Verse 2
     1:29
e|---------------------------------------------------------------------------|
B|---------------------------------------------------------------------------|
G|---------------------------------------------------------------------------|
D|---------------------------------------------------------------------------|
A|---------2-2-2-2-2-3-3-3---------------------------------------------------|
E|---3-3-3-----------------2-2-2-2-2--------3--------------------------------|
                                            let ring 
     1:39  
e|---------------------------------------------------------------------------|
B|---------------------------------------------------------------------------|
G|---------------------------------------------------------------------------|
D|---------------------------------------------------------------------------|
A|----------2-2-2-2-2-3-3-3--------------------------------------------------|
E|----3-3-3-----------------2-2-2-2-2-------3--------------------------------|
                                            let ring  
    1:48
e|---------------------------------------------------------------------------|
B|---------------------------------------------------------------------------|
G|---------------------------------------------------------------------------|
D|---------------------------------------------------------------------------|
A|----------2-2-2-2-2-3-3-3--------------------------------------------------|
E|----3-3-3-----------------2-2-2-2-2-------3--------------------------------|
                                            let ring
    1:59
e|---------------------------------------------------------------------------|
B|---------------------------------------------------------------------------|
G|---------------------------------------------------------------------------|
D|---------------------------------------------------------------------------|
A|----------2-2-2-2-2-3-3-3--------------------------------------------------|
E|----3-3-3-----------------2-2-2-2-2-------3--------------------------------|
                                            let ring

Chorus

guitar 1
pm
e|--------------------------------------------------------------------------|
B|---10-10-101010-10-10-8-----10-10-101010-10-10-8----10-10-101010-10-10-8--|
G|--------------------------------------------------------------------------|
D|--------------------------------------------------------------------------|
A|--------------------------------------------------------------------------|
E|--------------------------------------------------------------------------|

e|--------------------------------------------------------------------------|
B|---12-12-101010-10-10-8-------repeat-2X-----------------------------------|
G|--------------------------------------------------------------------------|
D|--------------------------------------------------------------------------|
A|--------------------------------------------------------------------------|
E|--------------------------------------------------------------------------|


(guitar 2)
e|---------------------------------------------------------------------------|
B|---------------------------------------------------------------------------|
G|---------------------------------------------------------------------------|
D|---------------------------------------------------------------------------|
A|---------------------------------------------------------------------------|
E|--3--3----3--3----3--3----3--3----3--3-----3--3----3--3-----3--3------3--3-|


(guitar 1) (repeat 2X) let notes ring
e|--------------------------------------------------------------------------|
B|----8-----8--8--8----8-----8--8---8----8-----8--8---8----8-----8--8---8---|
G|------7----7--7--------7----7--7---------7----7--7---------7----7--7------|
D|-/9-----9---9--9--/9-----9---9--9---/9-----9---9--9---/9-----9---9--9-----|
A|--------------------------------------------------------------------------|
E|--------------------------------------------------------------------------|

 (guitar 2)
e|---------------------------------------------------------------------------|
B|---------------------------------------------------------------------------|
G|---------------------------------------------------------------------------|
D|---------------------------------------------------------------------------|
A|---------0--------0---------0--------0------5---5------7---7----------0----|
E|--3--3-3----3-3-3-----3-3-3----3-3-3-----/7---7----7h8---8-----3--3-3----3-|


verse 3
e|--------------------------------------------------------------------------|
B|--------------------------------------------------------------------------|
G|-----------------------------------------repeat--8X-----------------------|
D|--------------------------------------------------------------------------|
A|----------2-2-2-2-2-3-3-3-------------------------------------------------|
E|----3-3-3-----------------2-2-2-2-2---------------------------------------|
 
                                           
Chorus
(guitar 1)
pm
e|--------------------------------------------------------------------------|
B|---10-10-101010-10-10-8-----10-10-101010-10-10-8----10-10-101010-10-10-8--|
G|--------------------------------------------------------------------------|
D|--------------------------------------------------------------------------|
A|--------------------------------------------------------------------------|
E|--------------------------------------------------------------------------|

e|--------------------------------------------------------------------------|
B|---12-12-101010-10-10-8-------repeat-2X-----------------------------------|
G|--------------------------------------------------------------------------|
D|--------------------------------------------------------------------------|
A|--------------------------------------------------------------------------|
E|--------------------------------------------------------------------------|


(guitar 2)
e|---------------------------------------------------------------------------|
B|---------------------------------------------------------------------------|
G|---------------------------------------------------------------------------|
D|---------------------------------------------------------------------------|
A|---------------------------------------------------------------------------|
E|--3--3----3--3----3--3----3--3----3--3-----3--3----3--3-----3--3------3--3-|


then (Guitar 1)
e|---15--15-15-17---15--15-15-17---15--15-15-17--15--15-15-17---repeat2X-----|
B|---------------------------------------------------------------------------|
G|---------------------------------------------------------------------------|
D|---------------------------------------------------------------------------|
A|---------------------------------------------------------------------------|
E|---------------------------------------------------------------------------|

(Guitar 2)
e|---------------------------------------------------------------------------|
B|---------------------------------------------------------------------------|
G|---------------------------------------------------------------------------|
D|---------------------------------------------------------------------------|
A|---------2-2-2-2-2-3-3-3------------------2-2-2-2-2-3-3-3------------------|
E|---3-3-3-----------------2-2-2-2-2--3-3-3-----------------2-2-2-2-2--------|


pm
e|--------------------------------------------------------------------------|
B|---10-10-101010-10-10-8-----10-10-101010-10-10-8----10-10-101010-10-10-8--|
G|--------------------------------------------------------------------------|
D|--------------------------------------------------------------------------|
A|--------------------------------------------------------------------------|
E|--------------------------------------------------------------------------|

e|--------------------------------------------------------------------------|
B|---12-12-101010-10-10-8-------repeat-5X-----------------------------------|
G|--------------------------------------------------------------------------|
D|--------------------------------------------------------------------------|
A|--------------------------------------------------------------------------|
E|--------------------------------------------------------------------------|

solo  (guitar 2)
e|--------------------------------------------------------------------------|
B|--15-15-15----------------------------------------------------------------|
G|------------12-12-12-12-----------12/15-15-15-15---15b---repeat-4X--------|
D|------------------------14-14-14------------------------------------------|
A|--------------------------------------------------------------------------|
E|--------------------------------------------------------------------------|

solo rhythm 
e|---------------------------------------------------------------------------|
B|---------------------------------------------------------------------------|
G|---------------------------------------------------------------------------|
D|---------------------------------------------------------------------------|
A|---------0--------0---------0--------0------5---5------7---7----------0----|
E|--3--3-3----3-3-3-----3-3-3----3-3-3-----/7---7----7h8---8-----3--3-3----3-|




------------------------------------------------------------------------------


10.Be Somebody
   Tuning: DADGBE
Tabbed By: Kawasaki377



Main Riff
e---------------------------------------------------------------------|
B---------------------------------------------------------------------|
G---------------------------------------------------------------------|
D---------------------------------------------------------------------|
A---3---3---3---3---3---3---3---3---3---3---3---3---3---3---3---3-----|
D-0---0---0---0---0---0---0---0---3---3---3---3---2---2---2---2-------|

Chorus
Guitar 1
e-----------------------|     
B-----------------------|
G-----------------------|
D-------4-5-7-5-4-------|
A-5-4-5-----------------|
D-----------------------|

Guitar 2
e-----------------------|
B----7---10\7~----------|
G-7~---7----------------|
D-----------------------|
A-----------------------|
D-----------------------|

Outro (Listen to the song to figure out the rhythm, it's pretty easy)
e-----------------------|
B-----------------------|
G-----------------------|
D-----------------------|
A-----------------------|
D-0-0-3-0-0-0-0-3-------|



------------------------------------------------------------------------------


11.Cold Desert
   Tuning: EADGBE
Tabbed By: Rhys...


Bass intro

Guitar intro

Caleb
e|-------------------------------------------------------------------------|
B|-------------------------------------------------------------------------|
G|-------------------------------------------------------------------------|
D|-------------------------------------------------------------------------|
A|-------------------------------------------------------------------------|
E|-10-------7-------5--------3---------------------------------------------|

Matthew
e|-------------------------------------------------------------------------|
B|-------------------------------------------------------------------------|
G|-7--------6-------2--------12-11-7-12-11-4-2-7---------------------------|
D|-------------------------------------------------------------------------|
A|-------------------------------------------------------------------------|
E|-------------------------------------------------------------------------|

Verse

Im on a corner/Told me he loved me/I never cried...
Caleb
   D        Bm      A        G
e|-------------------------------------------------------------------------|
B|-------------------------------------------------------------------------|
G|-------------------------------------------------------------------------|
D|-12-------9-------7--------5---------------------------------------------|
A|-12-------9-------7--------5---------------------------------------------|
E|-10-------7-------5--------3---------------------------------------------|

Matthew
e|-------------------------------------------------------------------------|
B|-------------------------------------------------------------------------|
G|-7--------6---4---2--------0---------------------------------------------|
D|-------------------------------------------------------------------------|
A|-------------------------------------------------------------------------|
E|-------------------------------------------------------------------------|

Its cold in the desert/ Everyone noticed/jesus don't love me
Caleb
e|-------------------------------------------------------------------------|
B|-------------------------------------------------------------------------|
G|-------------------------------------------------------------------------|
D|-12-------9-------7--------5---------------------------------------------|
A|-12-------9-------7--------5---------------------------------------------|
E|-10-------7-------5--------3---------------------------------------------|

Matthew
e|-------------------------------------------------------------------------|
B|-------------------------------------------------------------------------|
G|-7--------6---4---2--------12-11-7-12-11-4-2-7---------------------------|
D|-------------------------------------------------------------------------|
A|-------------------------------------------------------------------------|
E|-------------------------------------------------------------------------|


Bridge between verses uses same patterns as the verse

Solo


Caleb
e|-------------------------------------------------------------------------|
B|-------------------------------------------------------------------------|
G|-------------------------------------------------------------------------|
D|-12-------9-------7--------5---------------------------------------------|
A|-12-------9-------7--------5---------------------------------------------|
E|-10-------7-------5--------3---------------------------------------------|

Matthew
e|-------------------------------------------------------------------------|
B|-----------------------------------/17b19---17b19-15---------------------|
G|-/16--16--\7---16--\6----16--\4------------------------------------------|
D|-------------------------------------------------------------------------|
A|-------------------------------------------------------------------------|
E|-------------------------------------------------------------------------|


Caleb
e|-------------------------------------------------------------------------|
B|-15(x12)-15-17-12(x12)-12-10----15(x12)-15-17-12(x12)-12-10--------------|
G|-------------------------------------------------------------------------|
D|-------------------------------------------------------------------------|
A|-------------------------------------------------------------------------|
E|-------------------------------------------------------------------------|


Matthew
e|-------------------------------------------------------------------------|
B|-------------------------------------------------------------------------|
G|-7--------------6------4--------2-------------12-11-7-12-11-4-2-7--------|
D|-------------------------------------------------------------------------|
A|-------------------------------------------------------------------------|
E|-------------------------------------------------------------------------|

Caleb
e|-------------------------------------------------------------------------|
B|-15(x12)-15-17-12(x12)-12-10----15(x12)-15-17-12(x12)-12-10--------------|
G|-------------------------------------------------------------------------|
D|-------------------------------------------------------------------------|
A|-------------------------------------------------------------------------|
E|-------------------------------------------------------------------------|


Matthew
e|-------------------------------------------------------------------------|
B|-------------------------------------------------------------------------|
G|-7--------------6------4--------2~---------------------------------------|
D|-------------------------------------------------------------------------|
A|-------------------------------------------------------------------------|
E|-------------------------------------------------------------------------|


After the silence, play the same as the bridges between verses.

Outro

Caleb
e|-------------------------------------------------------------------------|
B|-------------------------------------------------------------------------|
G|-------------------------------------------------------------------------|
D|-------------------------------------------------------------------------|
A|--5--5--5-5-5-5-7--2-2-2-2-2-2-2-0-/5-5--5-5-5-5-7-2--2--2-2-2-2-2-0-/5~-|
E|-------------------------------------------------------------------------|



------------------------------------------------------------------------------

-- Bonus --

12.Beneath The Surface
   Tuning: EADGBE
Tabbed By: Jamesmckee92


Lead: Played during intro and after chorus

e|--9-7-6-7p6------9-7-6-7p6----------|
B|------------7~~------------7~-------|
G|------------------------------------|
D|------------------------------------|
A|------------------------------------|
E|------------------------------------|

e|--9-7-6--------9-7-6-6h7p6-7p6------|
B|--------7b9br7----------------------|
G|------------------------------------|
D|------------------------------------|
A|------------------------------------|
E|------------------------------------|

SOLO
(only the very start of it, will update once i have figured it out fully!)
e|-------12b14br12----------12------------|
B|-12p10----------12--12p10---------------|
G|-----------------------------11---------|
D|----------------------------------------|
A|----------------------------------------|
E|----------------------------------------|

Other guitar:
Intro and verses
e|----------------------------------------------------------------|
B|-------------------------------11-11-11-11-11-11-12-12-12-12p11-|
G|-11-11-11-11p9--11-11-11-11p9-----------------------------------|
D|----------------------------------------------------------------|
A|----------------------------------------------------------------|
E|----------------------------------------------------------------|

CHORUS (both guitars)
    F#   Bbm   B
e|--2-----1----2-------------------------|
B|--2-----2----4-------------------------|
G|--3-----3----4-------------------------|
D|--4-----3----4-------------------------|
A|--4-----1----2-------------------------|
E|--2-----1----2-------------------------|



------------------------------------------------------------------------------


END!!!
comments
We did not receive enough feedback on this tab! Please rate:
print report bad tab
1 2 3 4 5
I want to post or [tab]
guest
You may want to rate the tab now too:
select rating
Please do not post tabs as comments. Select "correction" instead!