Oops, an error
Loading. Please wait.

Pyro Tab

ver2
ver2

Intro

Whole song

Interactive

More versions @911Tabs.com
206,532 views 556 this week
5 commentsread comments
1 2 3 4 5
excellent!
x 31
Autoscroll
+/-
esc
set tempo
stop
Contributor
Hey! There's an official Ultimate Guitar app which is ideal
for learning songs when you're away from computer. Get the app
WARNING: You are trying to view
                                    content from Ultimate-Guitar.com
                                    in an unauthorized application,
                                    which is prohibited.

                                    Please use an official Ultimate
                                    Guitar Tabs application for iPhone,
                                    iPad or Android to access legitimate
                                    chords, guitar, bass, and drum tabs
                                    from Ultimate-Guitar.com database.

                                    Type "ultimate guitar tabs" in Apple
                                    App Store's or Android Market's
                                    search to find the application.
Kings of Leon
Pyro
Come Around Sundown
2010

as seen here: http://www.youtube.com/watch?v=qdYtJ2H2-IU


***
INTRO
***


[MATTHEW - LEFT GUITAR]

   1    &    2    &    3    &    4    &    
e|-----------------------------------------|
B|------4---------4---------4---------4----|
G|---4------4--4------4--4------4--4-----4-|
D|-6---6-----6---6-----6---6-----6---6-----|
A|-----------------------------------------|\
E|-----------------------------------------| \
                                              \ repeat
   5    &    6    &    7    &    8    &       / twice
e|-----------------------------------------| /
B|------4---------4---------4---------4----|/
G|---6------6--6------6--6------6--6-----6-|
D|-6---6-----6---6-----6---6-----6---6-----|
A|-----------------------------------------|
E|-----------------------------------------|

   (sorry   for   the    tight   space)
   1    &    2    &    3    &    4    &    
e|-----------------------------------------| -- repeat
B|------12--------12--------12--------12---| -- four
G|---13----13--13----13--13----13--13----13| -- times
D|/14--14----14--14----14--14----14--14----|
A|-----------------------------------------|
E|-----------------------------------------|


[CALEB - RIGHT GUITAR]
[the picking pattern is the
same as in matthews lick above,
watch link above for guidance]

   1    &    2    &    3    &    4    &    
e|-----------------------------------------|
B|-----------------------------------------|
G|-----------------------------------------|
D|-----------------------------------------|
A|------14--------14--------14--------14---|\
E|-0---------0---------0---------11--------| \
                                              \ repeat
   5    &    6    &    7    &    8    &       / twice
e|-----------------------------------------| /
B|-----------------------------------------|/
G|-----------------------------------------|
D|-----------------------------------------|
A|------14--------14--------14--------14---|
E|-0---------0---------0---------11--------|

   1    &    2    &    3    &    4    &     
e|-----------------------------------------|
B|-----------------------------------------|
G|-----------------------------------------|
D|-11-------------11-s-7--------------7----|
A|-11-------------11-s-7--------------7----|\
E|-9---------------9-s-5--------------5----| \
                                              \ repeat
   5    &    6    &    7    &    8    &       / twice
e|-----------------------------------------| /
B|-----------------------------------------|/
G|-----------------------------------------|
D|-14--------------------------------------|
A|-14---14--------14--------14--------14---|
E|-0---------0---------0---------0---------|


***
1st VERSE
***


[MATTHEW]

   1    &    2    &    3    &    4    &    
e|-----------------------------------------|
B|----0------------------------------------|
G|-----------------------------------------|
D|-1h2-------------------------------------|
A|-----------------------------------------|
E|-----------------------------------------|

   5    &    6    &    7    &    8    &    
e|-----------------------------------------|
B|-----------------------------------------|
G|---------doesnt-play-anything------------|
D|-----------------------------------------|
A|-----------------------------------------|
E|-----------------------------------------|

   1    &    2    &    3    &    4    &    
e|-----------------------------------------|
B|----0-----------------------------0------|
G|-----------------------------------------|
D|-1h2---------------------------1h2-------|
A|-----------------------------------------|
E|-----------------------------------------|

   5    &    6    &    7    &    8    &    
e|-----------------------------------------|
B|-----------------------------------------|
G|-----------------------------------------|
D|-1~--------------------------------------|
A|-----------------------------------------|
E|-----------------------------------------|

   1    &    2    &    3    &    4    &    
e|-----------------------0-----------------|
B|----0-----------------0------------------|
G|---------------------1-------------------|
D|-1h2-------------------------------------|
A|-----------------------------------------|
E|-----------------------------------------|

   5    &    6    &    7    &    8    &    
e|-----------------------------------------|
B|-----------0-----------------------------|
G|-----------------------------------------|
D|-2--------------1------------------------|
A|-----------------------------------------|
E|-----------------------------------------|

   1    &    2    &    3    &    4    &    
e|-----------------------------------------|
B|----0-----------------------------0------|
G|-----------------------------------------|
D|-1h2---------------------------1h2-------|
A|-----------------------------------------|
E|-----------------------------------------|

   5    &    6    &    7    &    8    &    
e|-----------------------------------------|
B|-----------------------------------------|
G|-----------------------------------------|
D|-1~--------------------------------------|
A|-----------------------------------------|
E|-----------------------------------------|


[CALEB]
[again, same picking pattern as matthews intro]

   1    &    2    &    3    &    4    &    
e|-----------------------------------------|
B|-----------------------------------------|
G|-----------------------------------------|
D|-----------------------------------------|
A|------11--------11--------7---------7----|
E|-9---------9---------5---------5---------|

   5    &    6    &    7    &    8    &    
e|-----------------------------------------|
B|-----------------------------------------|
G|-----------------------------------------|
D|-----------------------------------------|
A|------14--------14--------14--------14---|
E|-0---------0---------0---------0---------|

   1    &    2    &    3    &    4    &    
e|-----------------------------------------|
B|-----------------------------------------|
G|-----------------------------------------|
D|-----------------------------------------|
A|------11--------11--------7---------7----|
E|-9---------9---------5---------5---------|

   5    &    6    &    7    &    8    &    
e|-----------------------------------------|
B|-----------------------------------------|
G|-----------------------------------------|
D|-----------------------------------------|
A|------14--------14--------14--------14---|
E|-0---------0---------0---------0---------|

   1    &    2    &    3    &    4    &    
e|-----------------------------------------|
B|-----------------------------------------|
G|-----------------------------------------|
D|-----------------------------------------|
A|------11--------11--------7---------7----|
E|-9---------9---------5---------5---------|

   5    &    6    &    7    &    8    &    
e|-----------------------------------------|
B|-----------------------------------------|
G|-----------------------------------------|
D|-----------------------------------------|
A|------14--------14--------14--------14---|
E|-0---------0---------0---------0---------|

   1    &    2    &    3    &    4    &    
e|-----------------------------------------|
B|-----------------------------------------|
G|-----------------------------------------|
D|-----------------------------------------|
A|------11--------11--------7---------7----|
E|-9---------9---------5---------5---------|

   5    &    6    &    7    &    8    &    
e|-----------------------------------------|
B|-----------------------------------------|
G|-----------------------------------------|
D|-----------------------------------------|
A|------14--------14--------14--------14---|
E|-0---------0---------0---------0---------|


***
1st CHORUS
***


[MATTHEW]

   1    &    2    &    3    &    4    &    
e|-----------------------------------------| -- repeat
B|------12--------12--------12--------12---| -- four
G|---13----13--13----13--13----13--13----13| -- times
D|/14--14----14--14----14--14----14--14----|
A|-----------------------------------------|
E|-----------------------------------------|


[CALEB]

   1    &    2    &    3    &    4    &     
e|-----------------------------------------|
B|-----------------------------------------|
G|-----------------------------------------|
D|-11-------------11-s-7--------------7----|
A|-11-------------11-s-7--------------7----|\
E|-9---------------9-s-5--------------5----| \
                                              \ repeat
   5    &    6    &    7    &    8    &       / twice
e|-----------------------------------------| /
B|-----------------------------------------|/
G|-----------------------------------------|
D|-14--------------------------------------|
A|-14---14--------14--------14--------14---|
E|-0---------0---------0---------0---------|


***
2nd VERSE
***


[MATTHEW]
[this is basically the same as the first verse,
except one octave higher]

   1    &    2    &    3    &    4    &    
e|-----------------------------------------|
B|-----12----------------------------12----|
G|-----------------------------------------|
D|-13h14-------------------------13h14-----|
A|-----------------------------------------|
E|-----------------------------------------|

   5    &    6    &    7    &    8    &    
e|-----------------------------------------|
B|----------------9~-----------------------|
G|-----------------------------------------|
D|-----------------------------------------|
A|-----------------------------------------|
E|-----------------------------------------|

   1    &    2    &    3    &    4    &    
e|-----------------------------------------|
B|----12-----------------------------12----|
G|-----------------------------------------|
D|-13h14-------------------------13h14-----|
A|-----------------------------------------|
E|-----------------------------------------|

   5    &    6    &    7    &    8    &    
e|-----------------------------------------|
B|-----------------------------------------|
G|-----------------------------------------|
D|-13~-------------------------------------|
A|-----------------------------------------|
E|-----------------------------------------|

   1    &    2    &    3    &    4    &    
e|-----------------------------------------|
B|-----12----------------------------------|
G|-----------------------------------------|
D|-13h14-----------------------------------|
A|-----------------------------------------|
E|-----------------------------------------|

   5    &    6    &    7    &    8    &    
e|-9----9----4----4~-----------------------|
B|-----------------------------------------|
G|-----------------------------------------|
D|-----------------------------------------|
A|-----------------------------------------|
E|-----------------------------------------|

   1    &    2    &    3    &    4    &    
e|-----------------------------------------|
B|-----12----------------------------12----|
G|-----------------------------------------|
D|-13h14-------------------------13h14-----|
A|-----------------------------------------|
E|-----------------------------------------|

   5    &    6    &    7    &    8    &    
e|-----------------------------------------|
B|-----------------------------------------|
G|-----------------------------------------|
D|-13~-------------------------------------|
A|-----------------------------------------|
E|-----------------------------------------|


[CALEB]
[again, same picking pattern as matthews intro]

   1    &    2    &    3    &    4    &    
e|-----------------------------------------|
B|-----------------------------------------|
G|-----------------------------------------|
D|-----------------------------------------|
A|------11--------11--------7---------7----|
E|-9---------9---------5---------5---------|

   5    &    6    &    7    &    8    &    
e|-----------------------------------------|
B|-----------------------------------------|
G|-----------------------------------------|
D|-----------------------------------------|
A|------14--------14--------14--------14---|
E|-0---------0---------0---------0---------|

   1    &    2    &    3    &    4    &    
e|-----------------------------------------|
B|-----------------------------------------|
G|-----------------------------------------|
D|-----------------------------------------|
A|------11--------11--------7---------7----|
E|-9---------9---------5---------5---------|

   5    &    6    &    7    &    8    &    
e|-----------------------------------------|
B|-----------------------------------------|
G|-----------------------------------------|
D|-----------------------------------------|
A|------14--------14--------14--------14---|
E|-0---------0---------0---------0---------|

   1    &    2    &    3    &    4    &    
e|-----------------------------------------|
B|-----------------------------------------|
G|-----------------------------------------|
D|-----------------------------------------|
A|------11--------11--------7---------7----|
E|-9---------9---------5---------5---------|

   5    &    6    &    7    &    8    &    
e|-----------------------------------------|
B|-----------------------------------------|
G|-----------------------------------------|
D|-----------------------------------------|
A|------14--------14--------14--------14---|
E|-0---------0---------0---------0---------|

   1    &    2    &    3    &    4    &    
e|-----------------------------------------|
B|-----------------------------------------|
G|-----------------------------------------|
D|-----------------------------------------|
A|------11--------11--------7---------7----|
E|-9---------9---------5---------5---------|

   5    &    6    &    7    &    8    &    
e|-----------------------------------------|
B|-----------------------------------------|
G|-----------------------------------------|
D|-----------------------------------------|
A|------14--------14--------14--------14---|
E|-0---------0---------0---------0---------|


***
2nd CHORUS
***


[MATTHEW]

   1    &    2    &    3    &    4    &    
e|-----------------------------------------|
B|------4---------4---------4---------4----|
G|---4------4--4------4--4------4--4-----4-|
D|-6---6-----6---6-----6---6-----6---6-----|
A|-----------------------------------------|\
E|-----------------------------------------| \
                                              \ repeat
   5    &    6    &    7    &    8    &       / twice
e|-----------------------------------------| /
B|------4---------4---------4---------4----|/
G|---6------6--6------6--6------6--6-----6-|
D|-6---6-----6---6-----6---6-----6---6-----|
A|-----------------------------------------|
E|-----------------------------------------|

   (sorry   for   the    tight   space)
   1    &    2    &    3    &    4    &    
e|-----------------------------------------| -- repeat
B|------12--------12--------12--------12---| -- four
G|---13----13--13----13--13----13--13----13| -- times
D|/14--14----14--14----14--14----14--14----|
A|-----------------------------------------|
E|-----------------------------------------|


[CALEB]

   1    &    2    &    3    &    4    &     
e|-----------------------------------------|
B|-----------------------------------------|
G|-----------------------------------------|
D|-11-------------11-s-7--------------7----|
A|-11-------------11-s-7--------------7----|\
E|-9---------------9-s-5--------------5----| \
                                              \ repeat
   5    &    6    &    7    &    8    &       / four times
e|-----------------------------------------| /
B|-----------------------------------------|/
G|-----------------------------------------|
D|-14--------------------------------------|
A|-14---14--------14--------14--------14---|
E|-0---------0---------0---------0---------|


***
BRIDGE
***


[MATTHEW]

   1    &    2    &    3    &    4    &    
e|-----------------------------------------|
B|------9----7-----------------------------|
G|-9-------------------6----9---------6\---|
D|----------------9------------------------|
A|-----------------------------------------|
E|-----------------------------------------|

   5    &    6    &    7    &    8    &    
e|-----------------------------------------|
B|-----------------------------------------|
G|-1--2-1--2-1~----------------------------|
D|-----------------------------------------|
A|-----------------------------------------|
E|-----------------------------------------|

   1    &    2    &    3    &    4    &    
e|-----------------------------------------|
B|------9----7-----------------------------|
G|-9-------------------6----9---------6/---|
D|----------------9------------------------|
A|-----------------------------------------|
E|-----------------------------------------|

   5    &    6    &    7    &    8    &    
e|-----------------------------------------|
B|-----------------------------------------|
G|-13-1413-1413~---------------------------|
D|-----------------------------------------|
A|-----------------------------------------|
E|-----------------------------------------|

>> here goes the *watch her roll* part >>

   1    &    2    &    3    &    4    &    
e|-----------------------------------------|
B|------4---------4---------4---------4----|
G|---4------4--4------4--4------4--4-----4-|
D|-6---6-----6---6-----6---6-----6---6-----|
A|-----------------------------------------|
E|-----------------------------------------|

   5    &    6    &    7    &    8    &     
e|-----------------------------------------|
B|------4---------4---------4---------4----|
G|---6------6--6------6--6------6--6-----6-|
D|-6---6-----6---6-----6---6-----6---6-----|
A|-----------------------------------------|
E|-----------------------------------------|

   1    &    2    &    3    &    4    &    
e|-----------------------------------------|
B|------4---------4---------4---------4----|
G|---4------4--4------4--4------4--4-------|
D|-6---6-----6---6-----6---6-----6---6-----|
A|-----------------------------------------|
E|-----------------------------------------|

   5    &    6    &    7    &    8    &    
e|-----------------------------------------|
B|-----------------------------------------|
G|---------doesnt-play-anything------------|
D|-----------------------------------------|
A|-----------------------------------------|
E|-----------------------------------------|



[CALEB]

   1    &    2    &    3    &    4    &    
e|-5--------------5----4--------------4----|
B|-5--------------5----4--------------4----|
G|-6--------------6----5--------------5----|
D|-7--------------7----6--------------6----|
A|-7--------------7----6--------------6----|\
E|-5--------------5----4--------------4----| \
                                              \ repeat
   5    &    6    &    7    &    8    &       / twice
e|-2---------------------------------------| /
B|-2---------------------------------------|/
G|-3---------------------------------------|
D|-4---------------------------------------|
A|-4---------------------------------------|
E|-2---------------------------------------|

>> here goes the *watch her roll* part >>

...in which Caleb doesnt play anithing


***
3rd CHORUS
***


[MATTHEW]

   1    &    2    &    3    &    4    &
e|-----------------------------------------| -- repeat
B|------12--------12--------12--------12---| -- eleven
G|---13----13--13----13--13----13--13----13| -- times
D|/14--14----14--14----14--14----14--14----|
A|-----------------------------------------|
E|-----------------------------------------|

   1    &    2    &    3    &    4    &
e|-----------------------------------------|
B|------4---------4---------4---------4----|
G|---4------4--4------4--4------4--4-----4-|
D|-6---6-----6---6-----6---6-----6---6-----|
A|-----------------------------------------|
E|-----------------------------------------|

   5    &    6    &    7    &    8    &
e|-----------------------------------------|
B|------4---------4---------4---------4----|
G|---6------6--6------6--6------6--6-----6-|
D|-6---6-----6---6-----6---6-----6---6-----|
A|-----------------------------------------|
E|-----------------------------------------|

   1    &    2    &    3    &    4    &
e|-----------------------------------------|
B|------4---------4---------4---------4----|
G|---4------4--4------4--4------4--4-----4-|
D|-6---6-----6---6-----6---6-----6---6-----|
A|-----------------------------------------|
E|-----------------------------------------|

   5    &    6    &    7    &    8    &
e|-----------------------------------------|
B|------4----------------------------------|
G|------6----------------------------------|
D|-6---------------------------------------|
A|-----------------------------------------|
E|-----------------------------------------|


[CALEB]
[for strumming pattern check the bottom of the page]

   1    &    2    &    3    &    4    & 
e|-0---0---0---0---0---0---0---0---0---0---|
B|-0---0---0---0---0---0---0---0---0---0---|
G|-13--13--13--13--13--13--13--13--13--13--|
D|-14--14--14--14--14--14--14--14--14--14--|
A|-14--14--14--14--14--14--14--14--14--14--|\
E|-0---0---0---0---0---0---0---0---0---0---| \
                                              \ repeat
   5    &    6    &    7    &    8    &       / two times
e|-0---0---0---0---0---0---0---0---0---0---| /
B|-0---0---0---0---0---0---0---0---0---0---|/
G|-13--13--13--13--13--13--13--13--13--13--|
D|-14--14--14--14--14--14--14--14--14--14--|
A|-14--14--14--14--14--14--14--14--14--14--|
E|-0---0---0---0---0---0---0---0---0---0---|

   1    &    2    &    3    &    4    & 
e|-----------------------------------------|
B|-----------------------------------------|
G|---------------------6---6---6---6---6---|
D|-11--11--11--11--11--7---7---7---7---7---|
A|-11--11--11--11--11--7---7---7---7---7---|\
E|-9---9---9---9---9---5---5---5---5---5---| \
                                              \ repeat
   5    &    6    &    7    &    8    &       / three times
e|-----------------------------------------| /
B|-----------------------------------------|/
G|-13--13--13--13--13--13--13--13--13--13--|
D|-14--14--14--14--14--14--14--14--14--14--|
A|-14--14--14--14--14--14--14--14--14--14--|
E|-0---0---0---0---0---0---0---0---0---0---|

   1    &    2    &    3    &    4    &     
e|-----------------------------------------|
B|-----------------------------------------|
G|---------------------6---6---6---6---6---|
D|-11--11--11--11--11--7---7---7---7---7---|
A|-11--11--11--11--11--7---7---7---7---7---|
E|-9---9---9---9---9---5---5---5---5---5---|

   5    &    6    &    7    &    8    &
e|-----------------------------------------|
B|-----------------------------------------|
G|-----------------------------------------|
D|-----------------------------------------|
A|------14--------14--------14--------14---|
E|-0---------0---------0---------11--------|

   1    &    2    &    3    &    4    & 
e|-----------------------------------------|
B|-----------------------------------------|
G|-----------------------------------------|
D|-----------------------------------------|
A|------14--------14--------14--------14---|
E|-0---------0---------0---------11--------|

   5    &    6    &    7    &    8    &
e|-----------------------------------------|
B|-----------------------------------------|
G|-----------------------------------------|
D|-----------------------------------------|
A|------14--------14--------14--------14---|
E|-0---------0---------0---------11--------|

   1    &    2    &    3    &    4    & 
e|-----------------------------------------|
B|-----------------------------------------|
G|(13)-------------------------------------|
D|-14--------------------------------------|
A|-14--------------------------------------|
E|-0---------------------------------------|



~ let ring/vibrate
s slide
/ slide up
\ slide down
h hammer on
() ghost note

outro strumming pattern:
it's the same as the intro lick, down up down up up..
while writing this it makes perfect sense to me cuz
i hear the sound in my head, but i guess it's hard
to explain :) ask me if u need anything

this is to show u what i mean
matthews intro with calebs strums:

   v ^ v^   ^v ^ v^   ^v ^ v^   ^v ^ v^  ^
   1    &    2    &    3    &    4    &    
e|-----------------------------------------|
B|------4---------4---------4---------4----|
G|---4------4--4------4--4------4--4-----4-|
D|-6---6-----6---6-----6---6-----6---6-----|
A|-----------------------------------------|
E|-----------------------------------------|

^ strum upward
v strum downward

as you can see its pretty simple, just be sure
to emphasis the "1 & 2 & 3 & 4 &..." strums.
comments
print report bad tab
5 comments total. Showing first comments.
+3 reply
False_God wrote on October 28 2010, 05:19 am

great tab! Best song from the album too imo.

0 reply
gregg freeman wrote on October 28 2010, 10:09 pm

Yeah, its a good tab and a good song :D couldnt help but notice the uncanny resemblance to Tears for Fears Everybody wants to rule the world though.

0 reply
redmani49 wrote on October 31 2010, 09:58 am

Well tabbed - when are you going to post a guitar pro one??!

I want to post or [tab]
guest
You may want to rate the tab now too:
select rating
Please do not post tabs as comments. Select "correction" instead!