Oops, an error
Loading. Please wait.

Temple Tab

ver1
ver1

Whole song

Interactive

More versions @911Tabs.com
16,361 views 141 this week
no commentswrite comment
1 2 3 4 5
excellent!
x 8
Autoscroll
+/-
esc
set tempo
stop
Contributor
Difficulty
intermediate
Hey! There's an official Ultimate Guitar app which is ideal
for learning songs when you're away from computer. Get the app
WARNING: You are trying to view
                                    content from Ultimate-Guitar.com
                                    in an unauthorized application,
                                    which is prohibited.

                                    Please use an official Ultimate
                                    Guitar Tabs application for iPhone,
                                    iPad or Android to access legitimate
                                    chords, guitar, bass, and drum tabs
                                    from Ultimate-Guitar.com database.

                                    Type "ultimate guitar tabs" in Apple
                                    App Store's or Android Market's
                                    search to find the application.
------------------------
 Temple ~ Kings Of Leon
------------------------
Mechanical Bull   (2013)

Tuning: E Standard

Key: A

Tempo: 149

Timing: 4/4



INTRO

   Guitar 1
E |--0-----------0-----0--0--0-----0~----------0-------|
B |--2-----------2-----2--2--2-----0~----------2-------|
G |--2-----------2-----2--2--2-----2~----------2-------|
D |--2-----------2-----2--2--2-----2~----------2-------|
A |----------------------------------------------------|
E |----------------------------------------------------|
                                                     
E |--------0-----0-----0--0--0-----0-----0-----0-------|
B |--------2-----2-----2--2--2-----0-----0-----0-------|
G |--------2-----2-----2--2--2-----2-----2-----2-------|
D |--------2-----2-----2--2--2-----2-----2-----2-------|   x2
A |----------------------------------------------------|
E |----------------------------------------------------|


   Guitar 2
E |----------------------------------------------------|
B |----------------------------------------------------|
G |----------------------------------------------------|
D |--7-7-7-7-7-7-7-12--12-12-12-12-12-12-12------------|
A |--7-7-7-7-7-7-7-12--12-12-12-12-12-12-12------------|
E |--5-5-5-5-5-5-5-10--10-10-10-10-10-10-10------------|

E |----------------------------------------------------|
B |----------------------------------------------------|
G |----------------------------------------------------|
D |--9-9-9-9-9-9-9-14--14-14-14-14-14-14-14------------|   x2
A |--9-9-9-9-9-9-9-14--14-14-14-14-14-14-14------------|
E |--7-7-7-7-7-7-7-12--12-12-12-12-12-12-12------------|



VERSE
(Rest 4 measures)

   Guitar 1
E |----------------------------------------------------|
B |----------------------------------------------------|
G |----------------------------------------------------|
D |----------------------------------------------------|
A |----------------------------------------------------|
E |--5-5-5-5-5-5-5-10--10-10-10-10-10-10-10------------|


E |----------------------------------------------------|
B |----------------------------------------------------|
G |----------------------------------------------------|
D |----------------------------------------------------|
A |----------------------------------------------------|
E |--7-7-7-7-7-7-7-12--12-12-12-12-12-12-12------------|

Then...

   Guitar 2 (Palm mute)
E |--------------------------|
B |-10----10----10----10-----|
G |--9-----9-----9-----9-----|
D |-11-11-11-11-11-11-11-11--|   x4
A |--------------------------|
E |--------------------------|

E |--------------------------|
B |-10----10----10----10-----|
G |--9-----9-----9-----9-----|
D |-11-11-11-11-11-11-11-11--|  
A |--------------------------|
E |--------------------------|

E |--------------------------|
B |--7-----7-----7-----7-----|
G |--7-----7-----7-----7-----|
D |--9--9--9--9--9--9--9--9--|   
A |--------------------------|
E |--------------------------|

E |--------------------------|
B |-14----14----14----14-----|
G |-14----14----14----14-----|
D |-16-16-16-16-16-16-16-16--|  
A |--------------------------|
E |--------------------------|

E |--------------------------|
B |-12----12----12----12-----|
G |-13----13----13----13-----|
D |-14-14-14-14-14-14-14-14--|  
A |--------------------------|
E |--------------------------|

Then...

   Guitar 3
E |----------------------------------------------------------------------|
B |----------------------------------------------------------------------|
G |----------------------------------------------------------------------|
D |--7--9--7--6~--4~---11---7--11--7--11--7--11--9~--7~---12~-11~-9~-7~--|
A |----------------------------------------------------------------------|
E |----------------------------------------------------------------------|



PRE-CHORUS

   Guitar 1
E |---0~----------------|
B |--11~----------------|
G |---9~----------------|
D |--11~----------------|
A |---0~----------------|
E |---------------------|
 

   Guitar 2
E |---------------------|
B |---------------------|
G |---------------------|
D |--4~-----------------|
A |--4~-----------------|
E |--2~-----------------|



CHORUS

   Guitar 1 (Let Ring)
E |-----------5----------7----------5-------------|
B |-----5----------5----------5----------5-----5--|
G |--6-----6----------6----------6----------6-----|
D |-----------------------------------------------|   x2
A |-----------------------------------------------|
E |-----------------------------------------------|

   Guitar 2
E |----------------------------------------------------|
B |----------------------------------------------------|
G |----------------------------------------------------|
D |--7-7-7-7-7-7-7-12--12-12-12-12-12-12-12------------|
A |--7-7-7-7-7-7-7-12--12-12-12-12-12-12-12------------|
E |--5-5-5-5-5-5-5-10--10-10-10-10-10-10-10------------|

E |----------------------------------------------------|
B |----------------------------------------------------|
G |----------------------------------------------------|
D |--9-9-9-9-9-9-9-14--14-14-14-14-14-14-14------------|   
A |--9-9-9-9-9-9-9-14--14-14-14-14-14-14-14------------|
E |--7-7-7-7-7-7-7-12--12-12-12-12-12-12-12------------|



VERSE
(Same as first Verse except Guitar 3)

   Guitar 3
E |---------------------------------------------------------------------------------------------|
B |---------------------------------------------------------------------------------------------|
G |---------------------------------------------------------------------------------------------|
D |--7--9--7--6~--4~---11---7--11--7--11--7--11--9~--7~---12~-11~-9~-7--7-7-7-9--9-9-9-9-9-9-9--|
A |---------------------------------------------------------------------------------------------|
E |---------------------------------------------------------------------------------------------|



PRE-CHORUS
(Same as first Pre-Chorus)

CHORUS
(Same as first Chorus)



GUITAR SOLO

   Guitar 1
E |----------------------------|----------------------------|
B |--------------5--5----------|----------------------------|
G |--6-----4-----------6--6~---|-----6--4-----------6-------|
D |----------------------------|--------------7-------------|
A |----------------------------|----------------------------|
E |----------------------------|----------------------------|

E |----------------------------|----------------------------|
B |----------------------------|--------------5-------------|
G |--6--------4----------------|--4s-6--4s-6-----6s-9--11---|
D |-----------------------7----|----------------------------|
A |----------------------------|----------------------------|
E |----------------------------|----------------------------|

E |----------------------------|----------------------------|
B |--------10-10-------10------|--7-----7--7-----7--7-------|
G |--9--11---------------------|-----9-----9--------9b------|
D |----------------------------|----------------------------|
A |----------------------------|----------------------------|
E |----------------------------|----------------------------|

E |----------------------------|----------------------------|
B |--7--7--7--7--5-------------|----------------------------|
G |-----9--9--------7--6--7----|--6--4--6--4----------------|
D |----------------------------|--------------7~------------|
A |----------------------------|----------------------------|
E |----------------------------|----------------------------|


   Guitar 2
E |----------------------------------------------------|
B |----------------------------------------------------|
G |----------------------------------------------------|
D |--7-7-7-7-7-7-7-12--12-12-12-12-12-12-12------------|
A |--7-7-7-7-7-7-7-12--12-12-12-12-12-12-12------------|
E |--5-5-5-5-5-5-5-10--10-10-10-10-10-10-10------------|

E |----------------------------------------------------|
B |----------------------------------------------------|
G |----------------------------------------------------|
D |--9-9-9-9-9-9-9-14--14-14-14-14-14-14-14------------|   x2   
A |--9-9-9-9-9-9-9-14--14-14-14-14-14-14-14------------|
E |--7-7-7-7-7-7-7-12--12-12-12-12-12-12-12------------|

  

BRIDGE

   Guitars 1 & 2 
E |---------------------|
B |---------------------|
G |---------------------|
D |--7~--4~--12~--------|   x2
A |--7~--4~--12~--------|
E |--5~--2~--10~--------|


   Guitar 1 (Let Ring)
E |------------9--------------------9-------|
B |-------10-------10----------10-------10--|
G |--11---------------11~---11--------------|
D |-----------------------------------------|   x8
A |-----------------------------------------|  
E |-----------------------------------------|  


   Guitar 2 (Palm Mute)
E |-----------------------------------------------------------------------------------|
B |-----------------------------------------------------------------------------------|
G |-----------------------------------------------------------------------------------|
D |-----------------------------------------------------------------------------------|   x4
A |--7-7-7-7-7-7-7-4-4-4-4-4-4-4-4-4-12-12-12-12-12-12-12-12-12-12-12-12-12-12-12-12--|
E |--5-5-5-5-5-5-5-2-2-2-2-2-2-2-2-2-10-10-10-10-10-10-10-10-10-10-10-10-10-10-10-10--|



INTERLUDE

   Guitar 1
E |--0-----------0-----0--0--0-----0~----------0-------|
B |--2-----------2-----2--2--2-----0~----------2-------|
G |--2-----------2-----2--2--2-----2~----------2-------|
D |--2-----------2-----2--2--2-----2~----------2-------|
A |----------------------------------------------------|
E |----------------------------------------------------|
                                                     
E |--------0-----0-----0--0--0-----0-----0-----0-------|
B |--------0-----0-----0--0--0-----0-----0-----0-------|
G |--------2-----2-----2--2--2-----2-----2-----2-------|
D |--------2-----2-----2--2--2-----2-----2-----2-------|   x2
A |----------------------------------------------------|
E |----------------------------------------------------|



CHORUS
(Same as first Chorus)



OUTRO

   Guitar 1
E |----------------|----------------|----------------------------|
B |----------------|----------------|----------------------------|
G |----------------|----------------|-----------------------6~---|
D |--7--9--7--6~---|----------------|----------------------------|
A |----------------|-----9~---------|----------------------------|
E |----------------|----------------|----------------------------|

E |----------------------------|----------------------------|
B |----------------------------|----------------------------|
G |--------6-----6-----6-------|-----------------6-----6~---|
D |-----7-----7-----7-----7~---|-----7--7--7--7-----7-------|
A |----------------------------|----------------------------|
E |----------------------------|----------------------------|

E |----------------------------|----------------------------|
B |----------------------------|----------------------------|
G |--------6-----6--6--6--9----|--9~----9~----9--9--9--9~---|
D |----------------------------|----------------------------|
A |----------------------------|----------------------------|
E |----------------------------|----------------------------|

E |----------------------------|
B |----------------------------|
G |-----7-----7----------------|
D |--------11----11-9--11-9----|
A |----------------------------|
E |----------------------------|


   Guitar 2
E |----------------------------------------------------|
B |----------------------------------------------------|
G |----------------------------------------------------|
D |--7-7-7-7-7-7-7-12--12-12-12-12-12-12-12------------|
A |--7-7-7-7-7-7-7-12--12-12-12-12-12-12-12------------|
E |--5-5-5-5-5-5-5-10--10-10-10-10-10-10-10------------|

E |----------------------------------------------------|
B |----------------------------------------------------|
G |----------------------------------------------------|
D |--9-9-9-9-9-9-9-14--14-14-14-14-14-14-14------------|   x2   
A |--9-9-9-9-9-9-9-14--14-14-14-14-14-14-14------------|
E |--7-7-7-7-7-7-7-12--12-12-12-12-12-12-12------------|


   Guitars 1 & 2
E |---------------------|
B |---------------------|
G |---------------------|
D |--7~--4~--12~--------|   
A |--7~--4~--12~--------|
E |--5~--2~--10~--------|
comments
print report bad tab
I want to post or [tab]
guest
You may want to rate the tab now too:
select rating
Please do not post tabs as comments. Select "correction" instead!