Oops, an error
Loading. Please wait.

Youth And Young Manhood Bass Tab

5,082 views 3 this week
1 commentread comment
1 2 3 4 5
excellent!
x 3
Autoscroll
+/-
esc
set tempo
stop
Contributor
Hey! There's an official Ultimate Guitar app which is ideal
for learning songs when you're away from computer. Get the app
WARNING: You are trying to view
                                    content from Ultimate-Guitar.com
                                    in an unauthorized application,
                                    which is prohibited.

                                    Please use an official Ultimate
                                    Guitar Tabs application for iPhone,
                                    iPad or Android to access legitimate
                                    chords, guitar, bass, and drum tabs
                                    from Ultimate-Guitar.com database.

                                    Type "ultimate guitar tabs" in Apple
                                    App Store's or Android Market's
                                    search to find the application.
1.Red Morning Light

verse 1(after guitar intro)

G|------------------------------------------------------|
D|------------------------------------------------------|   
A|-----7--5------7--5--7--------5--7---5--7----5--7-----|
E|--7---------7-----------7---0--------------0----------|x3

pre chorus

G|--------------------------------------------------------------|
D|--------------------------------------------------------------|   
A|-----7--5-----------------------------------------------------|
E|--7----------3/5--3-2-0-0-0-0-0-0-0-0/12-12-12-12-12-12-12-12-|

chorus

G|--------------------------------------------------------------------|
D|--------------------------------------------------------------------|   
A|-------7-7-5-5-7--------5-5-7-7-5--------5-5-7-7-7-7-7-7-7-5-5-7-7--|
E|-7-7-7------------5-5-5------------0-0-0----------------------------|x2

verse 2

G|------------------------------------------------------|
D|------------------------------------------------------|   
A|-----7--5------7--5--7--------5--7---5--7----5--7-----|
E|--7---------7-----------7---0--------------0----------|x3

chorus+solo

G|--------------------------------------------------------------------|
D|--------------------------------------------------------------------|   
A|-------7-7-5-5-7--------5-5-7-7-5--------5-5-7-7-7-7-7-7-7-5-5-7-7--|
E|-7-7-7------------5-5-5------------0-0-0----------------------------|x6

only vocals.

base comes in 
G|--------------------------------------------------------------------|
D|--------------------------------------------------------------------|   
A|-------7-7-5-5-7--------5-5-7-7-5--------5-5-7-7-7-7-7-7-7-5-5-7-7--|
E|-7-7-7------------5-5-5------------0-0-0----------------------------|

G|--------------------------------------------------------------------|
D|--------------------------------------------------------------------|   
A|-------7-7-5-5-7--------5-5-7-7-5--------5-5-7-7-7------------------|
E|-7-7-7------------5-5-5------------0-0-0-----------------7------5---|

Chorus
G|---------------------------------------------------------------------|
D|---------------------------------------------------------------------|   
A|--------7-7-5-5-7--------5-5-7-7-5--------5-5-7-7-7-7-7-7-7-5-5-7-7--|
E|--12/7-7-7------------5-5-5------------0-0-0-------------------------|x7

G|--------------------------------------------------------------------|
D|--------------------------------------------------------------------|   
A|--2-0-2-0-2-0-2-----------------------------------------------------|
E|----------------3/5---3-2--0----------------------------------------|

2. Happy Alone

Intro:
G|---------------|---------------|---------------|---------------|
D|---------------|---------------|---------------|---------------|
A|---------------|---------------|---------------|---------------|
E|10-------------|---------------|10-------------|---------------|

G|---------------|---------------|---------------|---------------|
D|---------------|---------------|---------------|---------------|
A|---------------|---------------|---------------|---------------|
E|3--------------|--------------0|3--------------|---------------|

1st Verse:

G|---------------|---------------|---------------|---------------|
D|---------------|---------------|---------------|---------------|
A|---------------|-------------12|---------------|---------------|
E|10-------------|---------------|10-------------|-------12--10--|

G|---------------|---------------|---------------|---------------|
D|---------------|---------------|---------------|---------------|
A|---------------|---------------|---------------|---------------|
E|3--------------|--------------2|3--------------|---------5--7--|

G|---------------|---------------|---------------|---------------|
D|---------------|---------------|---------------|---------------|
A|---------------|-------------12|---------------|---------------|
E|10-------------|---------------|10-------------|-------12--10--|

G|---------------|---------------|---------------|--------------------|
D|---------------|---------------|---------------|----5-----------7---|
A|---------------|---------------|---------------|5/7----75-5-7/9---9-|
E|3--------------|--------------2|3--------------|--------------------|

Chorus:

G|---------------------|     
D|---------------------|
A|---------------------|
E|10-10-10-10-10-7-5-7-| (x3) 

G|---------------|
D|---------------|
A|---------------|
E|8-7-5-7-8-7-5-7| (x1)

G|---------------------|     
D|---------------------|
A|---------------------|
E|10-10-10-10-10-7-5-7-| (x3) 

G|---------------|
D|---------------|
A|---------------|
E|8-7-5-7-8-7-5-7| (x1)

2nd Verse:

G|------------------------|-----------------------|
D|------------------------|-----------------------|
A|------------------------|------------------12-12|
E|10-10-10-10-10-10-10-10-|10-10-10-10-10-10------|

G|------------------------|-----------------------|
D|------------------------|-----------------------|
A|------------------------|-----------------------|
E|10-10-10-10-10-10-10-10-|10-10-10-10-10-10-12-12|

G|--------------|--------------|--------------|----------------|
D|--------------|--------------|--------------|----------------|
A|--------------|--------------|--------------|----------------|
E|3-3-3-3-3-3-3-|3-3-3-3-3-3-2-|3-3-3-3-3-3-3-|3-3-5-5-7-7-9-9-|

G|------------------------|----------------------|
D|------------------------|----------------------|
A|------------------------|------------------9-9-|
E|10-10-10-10-10-10-10-10-|10-10-10-10-10-10-----|

G|------------------------|-----------------------|
D|------------------------|-----------------------|
A|------------------------|-----------------------|
E|10-10-10-10-10-10-10-10-|10-10-10-10-10-10-12-12|

G|----------------|----------------|------------------|
D|----------------|----------------|----5---------7---|
A|----------------|--------------5-|5/7----75-7/9---97|
E|3-3-3-3-3-3-3-3-|3-3-3-3-3-3-3---|------------------|

Chorus:

G|---------------------|     
D|---------------------|
A|---------------------|
E|10-10-10-10-10-7-5-7-| (x3) 

G|---------------|
D|---------------|
A|---------------|
E|8-7-5-7-8-7-5-7| (x1)

G|---------------------|     
D|---------------------|
A|10-10-10-10-10-7-5-7-|
E|---------------------| (x3) 

G|---------------|
D|---------------|
A|8-7-5-7-8-7-5-7|
E|---------------| (x1)

G|---------------------|     
D|---------------------|
A|---------------------|
E|10-10-10-10-10-7-5-7-| (x3) 

G|---------------|
D|---------------|
A|---------------|
E|8-7-5-7-8-7-5-7| (x1)

G|---------------------|     
D|---------------------|
A|10-10-10-10-10-7-5-7-|
E|---------------------| (x3) 

G|---------------|
D|---------------|
A|8-7-5-7-8-7-5-7|
E|---------------| (x1)

Bridge:

G|---------------|---------------|-------------------|-------------------|
D|---------------|---------------|-------------------|-------------------|
A|---------------|---------------|-------------------|-------------------|
E|7--------------|5--------------|10-10-10-----7-5-7-|10-10-10-----7-5-7-|

G|---------------|---------------|---------------|---------------|
D|---------------|---------------|---------------|---------------|
A|---------------|---------------|---------------|---------------|
E|3--------------|5--------------|7--------------|---------------|

2nd Intro:

G|---------------|---------------|---------------|---------------|
D|---------------|---------------|---------------|---------------|
A|---------------|---------------|---------------|---------------|
E|10-------------|---------------|10-------------|---------------|

G|---------------|---------------|---------------|-----------------|
D|---------------|---------------|---------------|----5--------7---|
A|---------------|---------------|---------------|5/7---75-7/9---97|
E|3--------------|---------------|3------------3-|-----------------|

Chorus:

G|---------------------|     
D|---------------------|
A|---------------------|
E|10-10-10-10-10-7-5-7-| (x3) 

G|---------------|
D|---------------|
A|---------------|
E|8-7-5-7-8-7-5-7| (x1)

G|---------------------|     
D|---------------------|
A|10-10-10-10-10-7-5-7-|
E|---------------------| (x3) 

G|---------------|
D|---------------|
A|8-7-5-7-8-7-5-7|
E|---------------| (x1)

G|---------------------|     
D|---------------------|
A|---------------------|
E|10-10-10-10-10-7-5-7-| (x3) 

G|---------------|
D|---------------|
A|---------------|
E|8-7-5-7-8-7-5-7| (x1)

G|---------------------|     
D|---------------------|
A|10-10-10-10-10-7-5-7-|
E|---------------------| (x3) 

G|---------------|
D|---------------|
A|8-7-5-7-8-7-5-7|
E|---------------| (x1)

End:

G|------------------------|
D|------------------------|
A|12-12-14-14-16-16-17-17-|
E|------------------------| (x4)

G|------------------|
D|------------------|
A|10-10-9-9-7-7-5-5-|
E|------------------| (x3)

G|--------------------|
D|--------------------|
A|10-10-9-9-7-7-14-14-|
E|--------------------| (x1)

G|------------------------|
D|------------------------|
A|12-12-14-14-16-16-17-17-|
E|------------------------| (x3)

G|------------------------|
D|------------------------|
A|------------------------|
E|12----------------------|

3.Wasted Time

Main riff:
G|---------------------|
D|---------------------|
A|---------------------|              
E|0---0---0---0--3--3--|

Chours:
G|------------------|------------------|------------------|----------------|
D|------------------|------------------|------------------|----------------|
A|5-----------------|5-----------------|5--------5--------|5---------------|
E|------5-----------|------5-----------|-----5--------5---|----------------|

Bridge riff:
G|---------------------|
D|---------------------|
A|---------------------|              
E|17--17--17--17-15-15-|

4. Joe`s Head

intro
G|---------------9----------11-11--|
D|-------9/--11-----11--9----------|
A|--7------------------------------|
E|---------------------------------|

G|---------------9---------11--9------|
D|-------9/--11-----11--9---------11--|
A|--7---------------------------------|
E|------------------------------------|

G|---------------9----------11-11--|
D|-------9/--11-----11--9----------|
A|--7------------------------------|
E|---------------------------------|

G|---------------9----------11-11--|
D|-------9/--11-----11--9----------|
A|--7------------------------------|
E|---------------------------------|

verse
G|---------------9---------11-11--|
D|-------9/--11-----11--9---------|
A|--7-----------------------------|
E|--------------------------------|

G|---------------9---------11-11--|
D|-------9/--11-----11--9---------|
A|--7-----------------------------|
E|--------------------------------|

G|---------------9---------11--9------|
D|-------9/--11-----11--9---------11--|
A|--7---------------------------------|
E|------------------------------------|

G|---------------9---------11-11--|
D|-------9/--11-----11--9---------|
A|--7-----------------------------|
E|--------------------------------|

G|---------------9---------11--9------|
D|-------9/--11-----11--9---------11--|
A|--7---------------------------------|
E|------------------------------------|

G|---------------9----------11-11--|
D|-------9/--11-----11--9----------|
A|--7------------------------------|
E|---------------------------------|

prechorus
G|---------5--|
D|--7---------|
A|------------|
E|------------|

chorus
G|-----------------------------|
D|-----------------------------|
A|--7--7---7--7----------------|
E|----------------5--5---7--7--|

G|-----------------------------|
D|-----------------------------|
A|--7--7---7--7----------------|
E|----------------5--5---4--4--|

G|-----------------------------|
D|-----------------------------|
A|--7--7---7--7----------------|
E|----------------5--5---7--7--|

G|------------------------------------|
D|------------------------------------|
A|--7--7---7--7------------------2/7--|
E|----------------5--5---4--4---------|

outro
G|----------------------------------------------------|
D|----------------------------------------------------|
A|--7-7-7-7-7-7-7-7-----------------------------------|
E|------------------5-5-5-5-5-5-5-5--7-7-7-7-7-7-7-7--|

G|----------------------------------------------------|
D|----------------------------------------------------|
A|--7-7-7-7-7-7-7-7-----------------------------------|
E|------------------5-5-5-5-5-5-5-5--4-4-4-4-4-4-4-4--|

G|----------------------------------------------------|
D|----------------------------------------------------|
A|--7-7-7-7-7-7-7-7-----------------------------------|
E|------------------5-5-5-5-5-5-5-5--7-7-7-7-7-7-7-7--|

G|---------------------------------------------------------|
D|---------------------------------------------------------|
A|--7-7-7-7-7-7-7-7----------------------------------------|
E|------------------5-5-5-5-5-5-5-5--4-4-4-4-4-4-4-4----7--|

5.Trani

Main Bit:

G|----------------------------------|
D|----------------------------------|
A|---7--------7--------7--------7---|
E|----------------------------------|

Bridge:

G|--------------------------------------------------------------------|
D|--------------------------------------------------------------------|
A|-------------------------------------------------------7-7-7--9-9-9-|
E|---4-4-4-4-4-4--5-5-5-5-5-5--4-4-4-4-4-4--7-7-7--9-9-9--------------|

G|------------------------------------------------------------------|
D|------------------------------------------------------------------|
A|---7-7-7-7-7-7-7-7-7-7-7-7-7-7-7-7-7-7-7-7-7-7-7-7-7-7-7-7-7-7-7--|
E|------------------------------------------------------------------|

G|--------------------------------------------------------------------|
D|--------------------------------------------------------------------|
A|-------------------------------------------------------7-7-7--9-9-9-|
E|---4-4-4-4-4-4--5-5-5-5-5-5--4-4-4-4-4-4--7-7-7--9-9-9--------------|

After Bridge:

G|----------------------------------|
D|----------------------------------|
A|---7--------7--------7--------7---|
E|----------------------------------|

Then at 3:54 play
G|------------------------------------------------------------------|
D|------------------------------------------------------------------|
A|---7-7-7-7-7-7-7-7-7-7-7-7-7-7-7-7-7-7-7-7-7-7-7-7-7-7-7-7-7-7-7--|
E|------------------------------------------------------------------|

6.California Waiting

-Intro-

G|--------------------------------------4444-11-11-11-11-14-14-14-----------------|
D|5555555555555-4------------------5555-------------------------------------------|
A|----------------5555555555555555--------------------------------5555555555555555|
E|--------------------------------------------------------------------------------|

-Verse-

G|---------------------------------------------------------------------|
D|5555555555555-4------------------5555555555555-4---------------------|
A|----------------5555555555555555-----------------5555555555555555----|
E|---------------------------------------------------------------------|

G|---------------------------------4444444444444444-2222222222222222---|
D|5555555555555-4------------------------------------------------------|
A|----------------5555555555555555-------------------------------------|
E|---------------------------------------------------------------------|

-Chorus-

G|------------------------------------------44444444-------------------|
D|5555555555555-4-------------------55555555---------------------------|
A|----------------5555555555555555------------------5555555555555555---|
E|---------------------------------------------------------------------|

G|------------------------------------------44444444-------------------|
D|5555555555555-4-------------------55555555---------------------------|
A|----------------5555555555555555------------------5555555555555555---|
E|---------------------------------------------------------------------|

-Verse-

-Chorus-

-Bridge-

G|------------------------------------------------------------------|
D|---------------------------------77777777777777777777777777777777-|
A|-44444444444444444444444444444444---------------------------------|
E|------------------------------------------------------------------|

-Pre-Chorus-

G|--------------------------------------------------------------------|
D|5r------------------------------------------------------------------|
A|---------------------------------5r----------------------------5/7\-|
E|--------------------------------------------------------------------|

G|--------------------------------------------------------------------|
D|5r------------------------------------------------------------------|
A|---------------------------------5r---------------------------------|
E|--------------------------------------------------------------------|

G|------------------------------------------44444444------------------|
D|5555555555555-4-------------------55555555--------------------------|
A|----------------5555555555555555------------------5555555555555555--|
E|--------------------------------------------------------------------|

-Chorus-

-Outro-

G|--------44444444--------------------------44444444------------------|
D|55555555--------------------------55555555--------------------------|
A|-----------------5555555555555555------------------5555555555555555-|
E|--------------------------------------------------------------------|

G|--------44444444----------------------------------------------------|
D|55555555--------------------------55555555555555555r----------------|
A|-----------------5555555555555555-----------------------------------|
E|--------------------------------------------------------------------|

7. Spiral Staircase

00:15 end of guitar intro
G|-----|
D|-----|
A|-----|
E|1010-| ten not 1 and 0

pre verse
G|----------------|
D|------------777-|
A|----------------|
E|7-7/17\7-7-7----| x2

verse part 1 00:20
G|-------------------------------------------------------------------------|
D|-------------------------------------------------------------------------|
A|-------------------------------------------------------------------------|
E|7x7x7x-7x7x7x-7x7x7x-7x5-7x7x7x-7x7x7x-7x7x7x-7x5-2x2x2-2x2x2-0x0x0-0x0x0|

E-7x7x7x-55-7x7x7x-55 00:31
this is played as a kinda mid verse.its played in two parts.first part ends at "we can 
run"and second begins at "they all came to party"

verse part2 00:35
G|-----------------------------------------------------------------------------|
D|-----------------------------------------------------------------------------|
A|--------------------------------------(5)------------------------------------|
E|7x7x7x-7x7x7x-7x7x7x-7x5-7x7x7x-7x7x7x---7x7x7x-7x5-2x2x2-2x2x2-0x0x0-0x0x0--|

play that mid verse again here E-7x7x7x-55-7x7x7x-55 00:46

chorus 00:50

G|----------------|
D|------------777-|
A|----------------|
E|7-7/17\7-7-7----|x4

G|----------------------|
D|----------------------|
A|----------------------|
E|2x2x2-2x2x2-0x0x-1010-| ten not 1 and 0

G|----------------|
D|------------777-|
A|----------------|
E|7-7/17\7-7-7----|x2

second verse
G|-------------------------------------------------------------------------|
D|-------------------------------------------------------------------------|
A|-------------------------------------------------------------------------|
E|7x7x7x-7x7x7x-7x7x7x-7x5-7x7x7x-7x7x7x-7x7x7x-7x5-2x2x2-2x2x2-0x0x0-0x0x0|

E-7x7x7x-55-7x7x7x-55 play this midverse again but this leads into the interlude

interlude 01:20

G|------------|
D|------141414|
A|----14------|
E|\12---------|x3
                      12th and 14th frets here
G|1212------------|
D|-----1414-1212--|
A|--------------14|
E|----------------|

G|----------|
D|----------|
A|----------|
E|5\---5\---|

G|------------|
D|------141414|
A|----14------|
E|\12---------|x3
                      12th and 14th frets here
G|1212------------|
D|-----1414-1212--|
A|--------------14|
E|----------------|

G|----------|
D|----------|
A|----------|
E|5\---5\---|

Pause at 01:42 for the breakdown

01:53
G|-----|
D|-----|
A|-----|
E|1010-| ten not 1 and 0

this is essentially the chorus parts but slighty different structurally.play with this 
and ull hear.there is also a guitar solo but ull no wat to play along with that.its 
between the 2 pieces below and then leads to a fade out!u shud get it!

G|----------------|
D|------------777-|
A|----------------|
E|7-7/17\7-7-7----|x6

G|----------------------|
D|----------------------|
A|----------------------|
E|2x2x2-2x2x2-0x0x-1010-| ten not 1 and 0

8.Mollys Chambers

Intro

|---------------||---------------||---------------||---------------|
|---------------||---------------||---------------||---------------|
|---------------||---------------||---------------||---------------|
|-2-2-0-2-0-2-0-||-2-2-0-2-0-2-0-||-2-2-0-2-0-2-0-||-2-2-0-2-0-2-0-|

|---------------||---------------||---------------||---------------|
|---------------||---------------||---------------||---------------|
|---------------||---------------||---------------||---------------|
|-2-2-0-2-0-2-0-||-2-2-0-2-0-2-0-||-2-2-0-2-0-2-0-||-2-2-0-2-0-2-0-|

Verse

"Free, thats all that she can be..."

|---------------||---------------||---------------||---------------|
|---------------||---------------||---------------||---------------|
|---------------||---------------||---------------||---------------|
|-2-2-0-2-0-2-0-||-2-2-0-2-0-2-0-||-2-2-0-2-0-2-0-||-2-2-0-2-0-2-0-|

|---------------||---------------||---------------||---------------|
|---------------||---------------||---------------||---------------|
|---------------||---------------||---------------||---------------|
|-2-2-0-2-0-2-0-||-2-2-0-2-0-2-0-||-2-2-0-2-0-2-0-||-2-2-0-2-0-2-0-|

|---------------||---------------||---------------||---------------|
|---------------||---------------||---------------||---------------|
|---------------||---------------||---------------||---------------|
|-2-2-0-2-0-2-0-||-2-2-0-2-0-2-0-||-2-2-0-2-0-2-0-||-2-2-0-2-0-2-0-|

|---------------||---------------||---------------||---------------|
|---------------||---------------||---------------||---------------|
|---------------||---------------||---------------||---------------|
|-2-2-0-2-0-2-0-||-2-2-0-2-0-2-0-||-2-2-0-2-0-2-0-||-2-2-0-2-0-2-0-|

Chorus

"You want it?     She's got it!    Molly Chambers gonna change..."

|---------------||---------------||---------------||---------------|
|---------------||---------------||---------------||---------------|
|---------------||---------------||---------------||---------------|
|--7--7--7--7---||--5--5--5--5---||-2-2-0-2-0-2-0-||-2-2-0-2-0-2-0-|

"She's got your?   Your pistol!    Molly Chambers gonna change..."

|---------------||---------------||---------------||---------------|
|---------------||---------------||---------------||---------------|
|---------------||---------------||---------------||---------------|
|--7--7--7--7---||--5--5--5--5---||-2-2-0-2-0-2-0-||-2-2-0-2-0-2-0-|

Verse

"Slow, she's bruning in your soul..."

|---------------||---------------||---------------||---------------|
|---------------||---------------||---------------||---------------|
|---------------||---------------||---------------||---------------|
|-2-2-0-2-0-2-0-||-2-2-0-2-0-2-0-||-2-2-0-2-0-2-0-||-2-2-0-2-0-2-0-|

|---------------||---------------||---------------||---------------|
|---------------||---------------||---------------||---------------|
|---------------||---------------||---------------||---------------|
|-2-2-0-2-0-2-0-||-2-2-0-2-0-2-0-||-2-2-0-2-0-2-0-||-2-2-0-2-0-2-0-|

|---------------||---------------||---------------||---------------|
|---------------||---------------||---------------||---------------|
|---------------||---------------||---------------||---------------|
|-2-2-0-2-0-2-0-||-2-2-0-2-0-2-0-||-2-2-0-2-0-2-0-||-2-2-0-2-0-2-0-|

|---------------||---------------||---------------||---------------|
|---------------||---------------||---------------||---------------|
|---------------||---------------||---------------||---------------|
|-2-2-0-2-0-2-0-||-2-2-0-2-0-2-0-||-2-2-0-2-0-2-0-||-2-2-0-2-0-2-0-|

Chorus

"You want it?     She's got it!    Molly Chambers gonna change..."

|---------------||---------------||---------------||---------------|
|---------------||---------------||---------------||---------------|
|---------------||---------------||---------------||---------------|
|--7--7--7--7---||--5--5--5--5---||-2-2-0-2-0-2-0-||-2-2-0-2-0-2-0-|

"She's got your?   Your pistol!    Molly Chambers gonna change..."

|---------------||---------------||---------------||---------------|
|---------------||---------------||---------------||---------------|
|---------------||---------------||---------------||---------------|
|--7--7--7--7---||--5--5--5--5---||-2-2-0-2-0-2-0-||-2-2-0-2-0-2-0-|

"Molly Chambers gonna change..."

|---------------||---------------||
|---------------||---------------||
|---------------||---------------||
|-2-2-0-2-0-2-0-||-2-2-0-2-0-2-0-||

Solo

|---------------||---------------||---------------||---------------||
|---------------||---------------||---------------||---------------||
|---------------||---------------||---------------||---------------||
|--7--7--7--7---||--5--5--5--5---||-2-2-0-2-0-2-0-||-2-2-0-2-0-2-0-||

|---------------||---------------||---------------||---------------||
|---------------||---------------||---------------||---------------||
|---------------||---------------||---------------||---------------||
|--7--7--7--7---||--5--5--5--5---||-2-2-0-2-0-2-0-||-2-2-0-2-0-2-0-||

Chorus (Outro)

"You want it?     She's got it!    Molly Chambers gonna change..."

|---------------||---------------||---------------||---------------|
|---------------||---------------||---------------||---------------|
|---------------||---------------||---------------||---------------|
|--7------------||--5------------||-2-2-0-2-0-2-0-||-2-2-0-2-0-2-0-|

"She's got your?   Your pistol!    Molly Chambers gonna change..."

|---------------||---------------||---------------||---------------|
|---------------||---------------||---------------||---------------|
|---------------||---------------||---------------||---------------|
|--7--7--7--7---||--5--5--5--5---||-2-2-0-2-0-2-0-||-2-2-0-2-0-2-0-|

"You want it?     She's got it!    Molly Chambers gonna change..."

|---------------||---------------||---------------||---------------|
|---------------||---------------||---------------||---------------|
|---------------||---------------||---------------||---------------|
|--7--7--7--7---||--5--5--5--5---||-2-2-0-2-0-2-0-||-2-2-0-2-0-2-0-|

|---------------||-------------------||
|---------------||-------------------||
|---------------||-------------------||
|--7--7--7--7---||-10-10-10-10-10-10-||

9. Genius

Comes in after intro and 1st verse....

G|---------------------------------------------|
D|---------5-5-5-5-5-5-5-5-5-5-5-5-5-5-5-5-5-5-|
A|---------------------------------------------|
E|-16\--3--------------------------------------|

Chorus:

G|-----------------------------------------------------------------|
D|-----------------------------------------------------------------|
A|-3-3-3-3-3-3-3-3-------------------------------------------------|
E|-----------------6-6-6-6-5-5-5-5-3-3-3-3-3-3-3-3-3-3-3-3-3-3-3-3-|

G|---------------------------------|
D|---------------------------------|
A|-3-3-3-3-3-3-3-3---------5-5-5-5-|
E|-----------------6-6-6-6---------|

Comes back into....

G|---------------------------------------------|
D|---------5-5-5-5-5-5-5-5-5-5-5-5-5-5-5-5-5-5-|
A|---------------------------------------------|
E|-16\--3--------------------------------------|


Chorus:

G|-----------------------------------------------------------------|
D|-----------------------------------------------------------------|
A|-3-3-3-3-3-3-3-3-------------------------------------------------|
E|-----------------6-6-6-6-5-5-5-5-3-3-3-3-3-3-3-3-3-3-3-3-3-3-3-3-|

G|-----------------------------------------------------------------|
D|-----------------------------------------------------------------|
A|-3-3-3-3-3-3-3-3---------5-5-5-5---------------------------------|
E|-----------------6-6-6-6---------3-3-3-3-3-3-3-3-3-3-3-3-3-3-3-3-|

Bridge / Solo

G|-------------------------------------------------------|
D|-7-7---9-9---10-10---9-7---9-9---10-12---10-10---12-12-|
A|-------------------------------------------------------|
E|-------------------------------------------------------|

G|---------------------|
D|---------------------|
A|---------------------|
E|-6-5-3-3-3-3-3-3-3-3-| (x4)

Chorus:

G|-----------------------------------------------------------------|
D|-----------------------------------------------------------------|
A|-3-3-3-3-3-3-3-3-------------------------------------------------|
E|-----------------6-6-6-6-5-5-5-5-3-3-3-3-3-3-3-3-3-3-3-3-3-3-3-3-|

G|-----------------------------------------------------------------|
D|-----------------------------------------------------------------|
A|-3-3-3-3-3-3-3-3---------5-5-5-5---------------------------------|
E|-----------------6-6-6-6---------3-3-3-3-3-3-3-3-3-3-3-3-3-3-3-3-|

G|-----------------------------------------------------------------|
D|-----------------------------------------------------------------|
A|-3-3-3-3-3-3-3-3-------------------------------------------------|
E|-----------------6-6-6-6-5-5-5-5-3-3-3-3-3-3-3-3-3-3-3-3-3-3-3-3-|

G|---------------------------------|
D|---------------------------------|
A|-3-3-3-3-3-3-3-3---------5-5-5-5-|
E|-----------------6-6-6-6---------|

10. Dusty

Main riff
G-----------------------------|
D-----------------------------|
A---------------5-------------|
E--0---0---5/7----3-- 0-3-3-3-|

and:

G-----------------------------|
D-----------------------------|
A---------------5-------------|
E--0---0---5/7----3-- 0-3-2-0-|

11. Holy Roller Novocaine

Intro/Verse/Chorus/1st Solo:
G|--------------------------------------------------------|
D|--------------------------------------------------------|
A|--------------------------------------------------------|
E|---0---0-3------0---0-6-5------0---0-3------0---0-6-5---|

Pre chorus (I’m gonna get her back..)
G|---------------------------------------------------------|
D|---------------------------------------------------------|
A|---3-3-3-3-3-3-3-3--1-1-1-1-1-1-1-1--3-3-3-3-3-3-3-3--1--|
E|---------------------------------------------------------|

2nd Solo:
G|--------------------------------------------------------------------|
D|--------------------------------------------------------------------|
A|--------------------------------------------------------------------|
E|55555555555555-88888888888888-55555555555555-8888888-10101010101010-|
comments
We did not receive enough feedback on this tab! Please rate:
print report bad tab
1 2 3 4 5
1 comment total.
0 reply
duck doo wrote on May 19 2009, 11:51 am

nice, but what about Talihina Skies?
The secret track after holy roller novocaine?

I want to post or [tab]
guest
You may want to rate the tab now too:
select rating
Please do not post tabs as comments. Select "correction" instead!