Oops, an error
Loading. Please wait.

Youth And Young Manhood Tab

45,949 views 19 this week
8 commentsread comments
1 2 3 4 5
excellent!
x 35
add to favorites launch autoscroll
font size
0
reset
Autoscroll
+/-
esc
set tempo
stop
WARNING: You are trying to view
                                    content from Ultimate-Guitar.com
                                    in an unauthorized application,
                                    which is prohibited.

                                    Please use an official Ultimate
                                    Guitar Tabs application for iPhone,
                                    iPad or Android to access legitimate
                                    chords, guitar, bass, and drum tabs
                                    from Ultimate-Guitar.com database.

                                    Type "ultimate guitar tabs" in Apple
                                    App Store's or Android Market's
                                    search to find the application.
#-----------------------------------PLEASE NOTE------------------------------------#
# This file is the author's own work and represents their interpretation of the    #
# song(s). You may use this file without permission for whatever purpose you like. #
#----------------------------------------------------------------------------------#

DATE:                   Wednesday, 3rd December 2003.

FILE DESCRIPTION:       A Chord and TAB book for the album:
                        "Youth & Young Manhood" by the Kings Of Leon.
                        
WRITER'S NOTES:         First off, a big thank you to all the people who have e-mailed
                        me to say well done for doing the TAB. So many have struggled
                        to find anything suitable.
                        
                        So here it is! The complete chord & TAB book to the best
                        debut album since Definitely Maybe! I've worked everything out
                        as best I can, but Caleb's southern drawl is kinda hard to get
                        to grips with on a couple of songs; mostly the middle 8 part
                        on "Trani", but I think it's as near as I'm gonnae get.
                        
                        Here's a few details of what I used to gather information:
                        "SPIRAL STAIRCASE", "MOLLY'S CHAMBERS" and "JOE'S HEAD" were
                        all on BBC1 Scotland, which showed 6 programs from "T In The
                        Park", 2003.(I was there and the Kings were fantastic!) 3 of
                        the shows had the Kings on, so I managed to get the lyrics and
                        chords worked out better. "CALIFORNIA WAITING" was played on
                        "FRIDAY NIGHT WITH JONATHAN ROSS" on BBC1, so again I got a
                        good look at what was being played. "MOLLY'S CHAMBERS" was also
                        played on the "LATE SHOW WITH DAVID LETTERMAN". Various videos, TV
                        appearances and photos were also used. I ripped the tracks to MP3
                        and loaded them into GOLDWAVE - (www.goldwave.com) which has
                        excellent facilities to swap channels, isolate vocals etc. It was
                        a lot easier, and more informative than just listening to the CD
                        via your stereo and some headphones! Although I did use my
                        headphones too. You'll see on the "HAPPY ALONE" track that
                        Matthew plays in Drop D; Caleb stays in Standard tuning
                        throughout the album. Also, on "GENIUS", Matthew uses Open G
                        tuning. I know this because the Kings, well Matthew, was
                        interviewed in the September 2003 issue of GUITAR magazine,
                        (The one with The Darkness (Great Band) on the cover) and he said
                        that the only time the machineheads deviate from standard tuning
                        is on the two said tracks. I originally got the best part of the
                        lyrics from the excellent, HAPPYALONE.COM, (www.happyalone.com)
                        website but some of them weren't right, so using the vocal
                        isolation technique on GOLDWAVE, I sorted out most of the ropey
                        lyrics.
                        
                        I hope this will be of use to you; it should be!
                        You can use this as and when/where you like. Please don't use
                        it for profit; It wasn't created for that! Webmasters can use this
                        file without my permission, just as long as I am credited as the
                        author.
                        
                        Thanks again, and HAVE FUN!
                        Deano.
                        
CONTACT INFORMATION:    If you wish to get in touch for whatever reason, you can contact
                        me at - the.scotsman@blueyonder.co.uk

OTHER INFORMATION:      "(.)" in the Chord part = Let Chord Ring.
                        "N.C." = No Chord Played.
                        "P.M." = Palm Mute.


****************************************************************************************
****************************************************************************************

                                    KINGS OF LEON
                               "YOUTH & YOUNG MANHOOD"

                                      TRACKLIST

TRACK 01 - RED MORNING LIGHT
TRACK 02 - HAPPY ALONE
TRACK 03 - WASTED TIME
TRACK 04 - JOE'S HEAD
TRACK 05 - TRANI
TRACK 06 - CALIFORNIA WAITING
TRACK 07 - SPIRAL STAIRCASE
TRACK 08 - MOLLY'S CHAMBERS
TRACK 09 - GENIUS
TRACK 10 - DUSTY
TRACK 11 - HOLY ROLLER NOVOCAINE
TRACK 12 - TALIHINA SKY (HIDDEN BONUS TRACK)


****************************************************************************************
****************************************************************************************


Group/Singer Name:      Kings Of Leon
Song:                   "Red Morning Light"
Additional Info:        Youth & Young Manhood - Track 01
Tuning:                 Standard - [EADGBe]
Tabbed By:              Dean Hill - Comments, Suggestions? the.scotsman@blueyonder.co.uk


[Chords Used]   B(799877); A(577655); G(355433); F#(244322); E(022100)


[Intro]           |B         |A      G    F#  |E        |
                e ---------------------------------------
                B -----------------------------000000000-
                G -8888888-XX-666-XX-4-XX-3-XX-111111111-
                D -9999999-XX-777-XX-5-XX-4-XX-222222222-
                A -9999999-XX-777-XX-5-XX-4-XX-222222222-
                E -7777777-XX-555-XX-3-XX-2-XX-000000000-


[Verse 1]                                  B
                You know you coulda been a wonder,
                                           E
                Takin' your circus to the sky-y-y
                                            B
                You couldn't take it on the tightrope,
                                              E
                No, you had to take it on the side,
                                        B
                You always like it undercover,
                                             E
                Tucked in between your dirty she-e-ets,
                                          B
                But no one's even evident to ya,
                A              G       F#      E
                In between the hollers and the scre-e-eams.


[Chorus 1]      
                And a said nah nah,
                B                A                G     F#     E
                Hey hey, another dirty bird ain't givin' out a taste, hey,
                       B                            A           G    F#   E
                In the black of the night, 'til the red morning light.


[Verse 2]                                B
                You got your cosy little corner,
                                               E
                All night your jammin' on your di-i-ick
                                            B
                And hangin' out just like a street sign,
                                           E
                And pulled a twenty dollar tri-i-ick,
                                              B
                I hear you're blowin' like a feather,
                                             E
                And then they rub it in your fa-a-ace,
                                                B
                Oh once they've had all they're fun, hun,
                A               G      F#     E
                You'll work the bottom of the ca-a-age.


[Chorus 2]      
                And a said nah nah,
                B                A                G     F#     E
                Hey hey, another dirty bird ain't givin' out a taste, hey,
                       B                            A           G    F#    E
                In the black of the night, 'til the red morning light.

                And a said nah nah,
                B                A             G     F#  E
                Hey hey, you're givin all your cinnamon away-ey,
                                   | B | A G F# | E |
                That's not right!       Aaaarrrrrggggghhhhh!


[Solo]          | B | A G F# | E | E |
                | B | A G F# | E | E |<----------(Everything drops out apart from drums)


[Middle 8]      
                Hey hey, another dirty bird ain't givin' out a taste,

                Ah hey, keep on givin' away and givin' it away, (givin' it away)
(Bass Enters)--->
                But hey-heh-hey, you're givin' all your cinnamon away-ey-ey-ey,
(Guitar Enters)--------------------------------------------------> | B | A |
                Ah hey hey, you're givin' all your cinnamon away.


[Outro]            B                A                G     F#     E
                Ah hey hey, another dirty bird ain't givin' out a taste, hey,
                       B                            A           G     F#   E
                In the black of the night, 'til the red morning light.

                And a said nah nah,
                B                A             G     F#  E
                Hey hey, you're givin all your cinnamon away-ey,
                                 | B | A      G F# | E |
                That's not right!      Aaooww!        C'Mon!

                And a said nah nah,
                B                A                G     F#     E
                Hey hey, another dirty bird ain't givin' out a taste, hey,
                       B                            A           G     F#   E
                In the black of the night, 'til the red morning light.

                And a said nah nah,
                B                A             G     F#  E
                Hey hey, you're givin all your cinnamon away-ey.


[Ending]        | B | A G F# | E(.)





            **********************************************
            *KINGS OF LEON - RED MORNING LIGHT LEAD PARTS*
            **********************************************



b  -  Bend
() -  Bracketed numbers are the note you bend up to
h  -  Hammer On
p  -  Pull Off
r  -  Return
/  -  Slide Up
\  -  Slide Down
d  -  Strum Down
u  -  Strum Up
PM -  Palm Mute
NH -  Natural Harmonics
^  -  Vibrato



NOTE: Lead guitar mirrors rhythm parts 'til solo. (As far as I can work out)
      Then mirrors again 'til end of song.


[SOLO]
   d u d u d u d u d u d u d u d u    d u d u d u d u d u d u d u d u
E -12121212121212121212121212121212-|-12121212121212121212121212121212-
B -12121212121212121212121212121212-|-12121212121212121212121212121212-
G ----------------------------------|----------------------------------
D ----------------------------------|----------------------------------
A ----------------------------------|----------------------------------
E ----------------------------------|----------------------------------

  -12-------12----12----12--15b(17)-|-(17)-(17)-(17)-(17)r15--12-------
  -12h15p12----15----15-------------|----------------------------------
  ----------------------------------|----------------------------------
  ----------------------------------|----------------------------------
  ----------------------------------|----------------------------------
  ----------------------------------|----------------------------------

  -12------------------12-----------|-12-------------------------------
  -12--15-12-15b(17)r15----15-------|----15-12-------------------------
  -12-------------------------------|----------14b(16)r14-12-14--------
  ----------------------------------|----------------------------------
  ----------------------------------|----------------------------------
  ----------------------------------|----------------------------------

  ----------------------------------|
  ---------12-12----12----12\-------|
  -14b(16)-12----14----14-12\-------|
  ----------------------------------|
  ----------------------------------|
  ----------------------------------|



[OUTRO] - In the outro, just after the "...C'Mon!" bit, the lead plays this:

e ----------------------------------|
B ----------------------------------|
G ----------------------------------|
D -7b(9)-(9)-7p5--5-----------------|
A --------------7-------------------|
E ----------------------------------|





****************************************************************************************
****************************************************************************************



Group/Singer Name:      Kings Of Leon
Song:                   "Happy Alone"
Additional Info:        Youth & Young Manhood - Track 02
Tuning:                 Rhythm (Caleb) - Standard / Lead (Matthew) - Drop D: [DADGBe]
Tabbed By:              Dean Hill - Comments, Suggestions? the.scotsman@blueyonder.co.uk


[Chords Used]   D([10][12][12][11][10][10]); G(355433); B(79987X); A(57765X);
                G*(35543X)
                

[Intro]         | D | D | D | D |
                | G | G | G | G |


[Verse 1]     D
                On our way, and so it seems, blooming flowers waltz be-fore me,
              G
                Rollin' numbers, passin' time, got to get out-side the city.
              D
                In the mornin', all will see, just how crazy young love can be,
              G
                On our own, away again, don't get down my darlin'.


[Chorus 1]                        D
                Am gone tangle my face hair, a gone tickle your daughter,

                At three o'clock in the morning, they all cry to me,
                                              G
                I'll be prancin' around in my high heels, and your cherry lipstick,

                Look outta your window, I'm on your street.


[Verse 2]     D
                Miles away, so unclear, almost lost it in Montana,
              G
                Let's pull over, have us a choke, I love to watch you when your dancin'.
              D
                I wonder if they, ever dream, they would get just what we gave them,
              G
                All wrapped up in, bein' nineteen, chasin' stars that are fallin'.


[Chorus 2]                        D
                Am gone tangle my face hair, gone tickle your daughter,

                At three o'clock in the mornin', they all cry to me,
                                              G
                I'll be prancin' around in my high heels, and your cherry lipstick,

                Look out your window, and that's where I'll be, C'Mon Caleb, Aaooww!

                
[Solo]          | D | D | D | D |
                | G | G | G | G |


[Middle 8]   B                             A
                And when that train heads home,
                                  D
                They' gone be so, gone gone you ain't never gonna see me no more,

                Gone gone you ain't nothin' to me,
             G*                             A                       | B  | B  |
                And when they shine them streets, they only find our song!


[Link]          | D | D | D | D |
                | G | G | G | G |


[Chorus 3]                        D
                Am gone tangle my face hair, a gone tickle your daughter,

                At three o'clock in the mornin', they all cry to me,
                                              G
                I'll be prancin' around in my high heels, and your cherry lipstick,

                Look out your window, and that's where I'll be.
                                  D
                Am gone tangle my face hair, gone tickle your daughter,

                At three o'clock in the mornin', they all cry to me,
                                              G
                I'll be prancin' around in my high heels, your cherry lipstick,

                Look outta your window, and that's where I'll be.

                C'Mon Caleb, Caleb, Caleb, Caleb, Caleb.


[Outro]         | D | D | D | D |

                              G
                I'm on your street, they all cry to me.

                I'm on your street, they all cry to me.
                              D
                I'm on your street, they all cry to me.

                I'm on your street, they all cry to me.
                            | G | G | G | G |
                I'm on your...

                              D
                I'm on your street, they all cry to me.
                                                    D(.)
                I'm on your street, they all cry to me.




                ****************************************
                *KINGS OF LEON - HAPPY ALONE LEAD PARTS*
                ****************************************


b  -  Bend
() -  Bracketed numbers are the note you bend up to
h  -  Hammer On
p  -  Pull Off
r  -  Return
/  -  Slide Up
\  -  Slide Down
d  -  Strum Down
u  -  Strum Up
PM -  Palm Mute
NH -  Natural Harmonics
^  -  Vibrato



[INTRO]
   1 & 2 & 3 & 4 &  1 & 2 & 3 & 4 &   1 & 2 & 3 & 4 &   1 & 2 & 3 & 4 &
e ----------------|-----------------|-----------------|-----------------|
B ----------------|-----------------|-----------------|-----------------|
G ----------------|-----------------|-----------------|-----------------|
D ----------------|-----------------|-----------------|-----------------|
A ----------------|-----------------|-----------------|-----------------|
D -0--------------|-----------------|-0---------------|----------2--4---|

   1 & 2 & 3 & 4 &  1 & 2 & 3 & 4 &   1 & 2 & 3 & 4 &   1 & 2 & 3 & 4 &
  ----------------|-----------------|-----------------|-----------------|
  ----------------|-----------------|-----------------|-----------------|
  ----------------|-----------------|-----------------|-----------------|
  ----------------|-----------------|-----------------|-----------------|
  ----------------|-----------------|-----------------|-----------------|
  -5--------------|/9---------------|/12--------------|\5-------7-------|

   1 & 2 & 3 & 4 &
  ----------------|
  ----------------|
  ----------------|
  ----------------|
  ----------------|
  -0--------------|



[VERSE 1] - NOTHING PLAYED



[CHORUS 1]
e ----------------------------------------------------------------------
B ----------------------------------------------------------------------
G -5-4----5--4----------------------------5-4----5--4--------------------
D -----7-------7-5--[TIMES 7, THEN PLAY]------7-------0-7----------------
A ----------------------------------------------------0------------------
D ----------------------------------------------------0------------------



[VERSE 2] X2
e --------------------------------------------------------------------------
B --------------------------------------------------------------------------
G --------------------------------------------------------------------------
D -4-4-4-4-4-4-7-7-4-4-4-4-4-4-7-7-4-4-4-4-4-4-7-7-4-4-4-7-7-7-4-4/---------
A -5-5-5-5-5-5-5-5-5-5-5-5-5-5-5-5-5-5-5-5-5-5-5-5-5-5-5-5-5-5-5-5/---------
D --------------------------------------------------------------------------

  --------------------------------------------------------------------------
  --------------------------------------------------------------------------
  --------------------------------------------------------------------------
  --9--9--9--9--9--9-12-12--9--9--9--9--9--9-12-12--9--9--9--9--9--9-12-12--
  -10-10-10-10-10-10-10-10-10-10-10-10-10-10-10-10-10-10-10-10-10-10-10-10--
  --------------------------------------------------------------------------
  
  --------------------------------------------------------------------------
  --------------------------------------------------------------------------
  --------------------------------------------------------------------------
  --9--9--9-12-12-12--9--9\-------------------------------------------------
  -10-10-10-10-10-10-10-10\-------------------------------------------------
  --------------------------------------------------------------------------



[CHORUS 2] X8
e -----------------
B -----------------
G -5-4----5--4-----
D -----7-------7-5-
A -----------------
D -----------------



[SOLO]
e -----------------------------------XX-6-66-66666-666/-----------------
B -3333-33333-3333--6-66-6666-6-666--XX-5-55-55555-555/-----------------
G -2223-22333-2222--7-77-7777-7-777-------------------------------------
D ----------------------------------------------------------------------
A ----------------------------------------------------------------------
D ----------------------------------------------------------------------

  -10101010-101010-101010-101010----------------------------------------
  -10101010-101010-101010-101010----------------------------------------
  -------------------------------12--12p10----10--12--10-12-10\---------
  -----------------------------------------12---------------------------
  ----------------------------------------------------------------------
  ----------------------------------------------------------------------

  ----------------------------------------------------------------------
  -----------6-------6---8---6---8---6----11--11-11--11-11--8\----------
  ---4---7-------7-------------------------0----------------------------
  -5---5---5---5---5---5---5---5---5------------------------------------
  ----------------------------------------------------------------------
  ----------------------------------------------------------------------



[MIDDLE 8]
   1 & 2 & 3 & 4 &  1 & 2 & 3 & 4 &   1 & 2 & 3 & 4 &   1 & 2 & 3 & 4 &
e ----------------|-----------------|-----------------|-----------------|
B ----------------|-----------------|-----------------|-----------------|
G ----------------|-----------------|-----------------|-----------------|
D ----------------|-----------------|-0-0-0-----------|-0-0-0-----------|
A ----------------|-----------------|-0-0-0-----------|-0-0-0-----------|
D -9--------------|-7------\--------|-0-0-0-----------|-0-0-0-----------|

   1 & 2 & 3 & 4 &  1 & 2 & 3 & 4 &   1 & 2 & 3 & 4 &   1 & 2 & 3 & 4 &
  ----------------|-----------------|-----------------|-----------------|
  ----------------|-----------------|-----------------|-----------------|
  ----------------|-----------------|-----------------|-----------------|
  ----------------|-----------------|-9---------------|-----------------|
  ----------------|-----------------|-9---------------|-----------------|
  -5--------------|-7---------------|-9---------------|-----------------|



[LINK]
   1 & 2 & 3 & 4 &  1 & 2 & 3 & 4 &   1 & 2 & 3 & 4 &   1 & 2 & 3 & 4 &
e ----------------|-----------------|-----------------|-----------------|
B ----------------|-----------------|-----------------|-----------------|
G ----------------|-----------------|-----------------|-----------------|
D ----------------|-----------------|-----------------|-----------------|
A ----------------|-----------------|-----------------|-----------------|
D -0--------------|-----------------|-0---------------|----------2--4---|

   1 & 2 & 3 & 4 &  1 & 2 & 3 & 4 &   1 & 2 & 3 & 4 &   1 & 2 & 3 & 4 &
  ----------------|-----------------|-----------------|-----------------|
  ----------------|-----------------|-----------------|-----------------|
  ----------------|-----------------|-----------------|-----------------|
  ----------------|-----------------|-----------------|-----------------|
  ----------------|-----------------|-----------------|-----------------|
  -5--------------|/9---------------|/12--------------|\5-------7-------|

   1 & 2 & 3 & 4 &
  ----------------|
  ----------------|
  ----------------|
  ----------------|
  ----------------|
  -0--------------|



[CHORUS 3] X16
e -----------------
B -----------------
G -5-4----5--4-----
D -----7-------7-5-
A -----------------
D -----------------



[OUTRO] - This was a pain to TAB. It's pretty much spot-on, but when learning it,
          try to get a feel for the rhythm rather than being EXACT with the TAB.

SLIGHT BEND--------¬-¬
e -5-----------5-----------7p5-5--7-5----5-5----5-5-5-------------------
B -6-6-6-6-6---6-6-6-6-6-------6----6-6--6-6-6--6-6-6-6-----------------
G ------------------------------------7------7--------7-----------------
D ----------------------------------------------------------------------
A ----------------------------------------------------------------------
D ----------------------------------------------------------------------

BEND UP 1/2---------------------------------------------¬
  -10--------10----10----10----10-10----10------------------------------
  -10--10-13-10----10-10-10-10-10-10-10-10-13p10----10-----------------
  --------------12----12----12-------12----------12-----12-10----10-12--
  ------------------------------------------------------------12-12-----
  ----------------------------------------------------------------------
  ----------------------------------------------------------------------

  ----------10-10-------------------------------------------------------
  -10----10----12b13-10-10-----10-10------------------------------------
  -12b14-------------10-10-10--10-10-10--10-10-10-----------------------
  -------------------------12--------12--12-12-12-----------------------
  ----------------------------------------------------------------------
  ----------------------------------------------------------------------

  ----------------------------------------------------------------------
  -10-10--10-1010-10-10-10-10-10-10-1010-10-10-10-10-1010-10-10---------
  -10-10--10-1010-10-10-10-10-10-12-1010-12-12-12-12-1212-12-12---------
  ----------------------------------------------------------------------
  ----------------------------------------------------------------------
  ----------------------------------------------------------------------

  ----------------------------------------------------------------------
  -10-10--1010-10-10-1010-----------------------------------------------
  -10-10--1010-10-10-1212-----------------------------------------------
  ----------------------------------------------------------------------
  ------------------------X-5--6-7--X-10--11-12--X-5--6-7--X-10--11-12--
  ------------------------X---------X------------X---------X------------

  ----------------------------------------------------------------------
  ----------------------------------------------------------------------
  ----------------------------------------------------------------------
  ----------------------------------------------------------------------
  -X-5--6-7--X-10--11-12--X-5--6-7--X-10--11-12-------------------------
  -X---------X------------X---------X-----------------------------------
  
  -----------------------------------------0----------------------------
  -----------------------------------------0----------------------------
  -5-4----5--4-----------------------------5----------------------------
  -----7-------7-5--[TIMES 7, THEN STRUM]--0----------------------------
  ----------------------------------------------------------------------
  ----------------------------------------------------------------------




****************************************************************************************
****************************************************************************************



Group/Singer Name:      Kings Of Leon
Song:                   "Wasted Time"
Additional Info:        Youth & Young Manhood - Track 03
Tuning:                 Standard - [EADGBe]
Tabbed By:              Dean Hill - Comments, Suggestions? the.scotsman@blueyonder.co.uk


[Chords Used]   E(022100); D(XX0232); A(X02220); G(320003)


[Intro]         | E     | E     | E     | E     |


[Verse 1]      (E)
                Oh it’s your life,
                
                Don’t you let 'em tell you when to bat your eyes,
                
                You’re the only one who’s gone sacrifice,

                Makes no difference if you’re right or wrong.

                A take that ride,

                But I want your little sister by your side,

                Maybe little later we can all collide,

                Do our lovin’ like a rollin’ stone.


[Bridge]       (E)
                Your time on me is wasted time,
                
                Your time on me is wasted time,
                
                Your time on me is wasted time,

                Your time on me is wasted.


[Chorus]    D A
                Her innocent smile,
            D A                   D A D A D 
                A runnin’ free,
                 E                                      | E     |
                Baby gone give it like it used to be,
                                                        | E     |
                Baby gone give it like it used to be.


[Verse 2]      (E)
                A show your face,

                Livin’ in the shadows like you got no name,

                'nough to make a little girly go insane,

                Be my guest and let it out tonight,

                Well it’s ok,

                I know all about the little games you play,

                Shakin’ your apple right in my face,

                Only when you know that I'm a beggin’ for a bite,


[Bridge]       (E)
                Your time on me is wasted time,
                
                Your time on me is wasted time,
                
                Your time on me is wasted time,

                Your time on me is wasted.


[Chorus]    D A
                Her innocent smile,
            D A                   D A D A D 
                A runnin’ free,
                 E                                      | E     |
                Baby gone give it like it used to be,
                                                        | E     |
                Baby gone give it like it used to be.


[Solo]          | A   G | A   G | A   G | A   G |
                | E     | E     |

                | A   G | A   G | A   G | A   G |
                | E     | E     | E     | E     |


[Bridge]       (E)
                Time on me is wasted time,
                
                Time on me is wasted time,
                
                Time on me is wasted time,

                Time on me is...

                
[Middle 8]     (E)
                Am gone get your Momma,

                Am gone get your Paw,

                Am gone tell everybody,

                A just a what a saw.
        
                So won’t you show your face, (Show your face)

                Your little apple shaker, (Show your face!)

                I know the love you give, (Show your face!)

                I know the love you take ah. (Show your face!)


[Outro]     D A
                Her innocent smile,
            D A                   D A D A D 
                A runnin’ free,
                 E                                      | E     |
                Baby gone give it like it used to be.
            D A
                Her innocent smile,
            D A                   D A D A D 
                A runnin’ free,
                 E                                      | E     |
                Baby gone give it like it used to be.
                                                        | E     |
                Baby gone give it like it used to be.
                                                        | E     |
                Baby gone give it like it used to be.
                                                        | E
                Baby gone give it like it used to be.




                ****************************************
                *KINGS OF LEON - WASTED TIME LEAD PARTS*
                ****************************************


b  -  Bend
() -  Bracketed numbers are the note you bend up to
h  -  Hammer On
p  -  Pull Off
r  -  Return
/  -  Slide Up
\  -  Slide Down
d  -  Strum Down
u  -  Strum Up
PM -  Palm Mute
NH -  Natural Harmonics
^  -  Vibrato



[INTRO] X4
e ----------------------------------------------------------------------
B ----------------------------------------------------------------------
G ----------------------------------------------------------------------
D ----------------------------------------------------------------------
A ----7----7---/5-------------------------------------------------------
E -0----0---------------------------------------------------------------



[VERSE 1 & BRIDGE 1] - Nothing played



[CHORUS]
       "...her innocent smile"     "...a runnin' free"
E ----------------------------------------------------------------------
B -3---------------------------3---------------------3---3---3----------
G -2-2-------------------------2-2-------------------2-2-2-2-2----------
D ---2---------------------------2---------------------2---2------------
A ----------------------------------------------------------------------
E ----------------------------------------------------------------------

"...baby gone give it like it used to be"  
  --0-------------------------------------------------------------------
  --5--------------------------------------3-2-0--3-2-0-----------------
  --4-------------------------------------------------------------------
  ----------------------------------------------------------------------
  ----------------------------------------------------------------------
  ----------------------------------------------------------------------
  
"...baby gone give it like it used to be"  
  --0-------------------------------------------------------------------
  --5--------------------------------------3-2-0--3-2-0-----------------
  --4-------------------------------------------------------------------
  ----------------------------------------------------------------------
  ----------------------------------------------------------------------
  ----------------------------------------------------------------------



[VERSE 2]
   d d d du  dudu d
e ----------------------------------------------------------------------
B ----------------------------------------------------------------------
G ----------------------------------------------------------------------
D ----------------------------------------------------------------------
A ----------------------------------------------------------------------
E -0-0-0-00--0003-3--[TIMES 7, THEN PLAY]--0-0-0-00--0003---------------



[BRIDGE 2] X4
e ----------------------------------------------------------------------
B ----------------------------------------------------------------------
G ----------------------------------------------------------------------
D ----------------------------------------------------------------------
A ----7----7---/5-------------------------------------------------------
E -0----0---------------------------------------------------------------



[REPEAT CHORUS]



[SOLO]
e ----------------------------------------------------------------------
B ----------------------------------------------------------------------
G --------0-----0---------0-----0---------0-----0---------0-----0-------
D -----2-------2-------2-------2-------2-------2-------2-------2--------
A -/4------/4------/4------/4------/4------/4------/4------/4-----------
E ----------------------------------------------------------------------


The next part of the solo uses effects, so I've tabbed it for a dry (no FX)
guitar. It's not perfect by any means, but you can get away with it.


e ----------------------------------------------------------------------
B -3sb(5)-(5)-(5)sr3---3sb(5)-(5)-(5)sr3---3-3sb(5)-(5)(5)-(5)sr3-------
G ----------------------------------------------------------------------
D ----------------------------------------------------------------------
A ----------------------------------------------------------------------
E ----------------------------------------------------------------------
                                      NH----------------|
  ----------------------------------------------------------------------
  -3b(5)-(5)-(5)-(5)(5)(5)sr3------------<7>----------------------------
  ------------------------------------<5>----<5>-<5>--<4>---------------
  ----------------------------------------------------------------------
  ----------------------------------------------------------------------
  ----------------------------------------------------------------------



[MIDDLE 8]
"...show your face"     "...shaker"    "...give"      "...take ah"
e ----------------------------------------------------------------------
B ------------3-2-0--3-2-0---3-2-0--3-2-0---3-2-0--3-2-0---3-2-0--3-2-0-
G ----------------------------------------------------------------------
D ----------------------------------------------------------------------
A ----------------------------------------------------------------------
E ----------------------------------------------------------------------



[OUTRO]
       "...her innocent smile"     "...a runnin' free"
E ----------------------------------------------------------------------
B -3---------------------------3---------------------3---3---3----------
G -2-2-------------------------2-2-------------------2-2-2-2-2----------
D ---2---------------------------2---------------------2---2------------
A ----------------------------------------------------------------------
E ----------------------------------------------------------------------

"...baby gone give it like it used to be"  
  --0-------------------------------------------------------------------
  --5--------------------------------------3-2-0--3-2-0-----------------
  --4-------------------------------------------------------------------
  ----------------------------------------------------------------------
  ----------------------------------------------------------------------
  ----------------------------------------------------------------------
  
       "...her innocent smile"     "...a runnin' free"
E ----------------------------------------------------------------------
B -3---------------------------3---------------------3---3---3----------
G -2-2-------------------------2-2-------------------2-2-2-2-2----------
D ---2---------------------------2---------------------2---2------------
A ----------------------------------------------------------------------
E ----------------------------------------------------------------------
  
"...baby gone give it like it used to be"  
  --0-------------------------------------------------------------------
  --5--------------------------------------3-2-0--3-2-0-----------------
  --4-------------------------------------------------------------------
  ----------------------------------------------------------------------
  ----------------------------------------------------------------------
  ----------------------------------------------------------------------

"...baby gone give it like it used to be"  
  --0-------------------------------------------------------------------
  --5--------------------------------------3-2-0--3-2-0-----------------
  --4-------------------------------------------------------------------
  ----------------------------------------------------------------------
  ----------------------------------------------------------------------
  ----------------------------------------------------------------------
  
"...baby gone give it like it used to be"  
  --0-------------------------------------------------------------------
  --5--------------------------------------3-2-0--3-2-0-----------------
  --4-------------------------------------------------------------------
  ----------------------------------------------------------------------
  ----------------------------------------------------------------------
  ----------------------------------------------------------------------
  
"...baby gone give it like it used to be"  
  --0--------------------------------------------------------------------
  --5--------------------------------------------------------------------
  --4-------------------------------------XX-----------------------------
  ----------------------------------------XX-2/--------------------------
  ----------------------------------------XX-2/--------------------------
  ----------------------------------------XX-0---------------------------



****************************************************************************************
****************************************************************************************



Group/Singer Name:      Kings Of Leon
Song:                   "Joe's Head"
Additional Info:        Youth & Young Manhood - Track 04
Tuning:                 Standard
Tabbed By:              Dean Hill - Comments, Suggestions? the.scotsman@blueyonder.co.uk


[Chords Used]   E(022100); F#m11/C#(X44200); G#m7b13/D#(X66400); Am/E(x7755x)
                Cmaj/G(x[10][10]98x); A(x02220); B(add11)/F#(xx4440)


[Intro]         | E  F#m11/C#  | G#m7b13/D#  F#m11/C#  |
                | E  F#m11/C#  | G#m7b13/D#  F#m11/C#  |
                | E  F#m11/C#  | G#m7b13/D#  F#m11/C#  |
                | E  F#m11/C#  | G#m7b13/D#  F#m11/C#  |


[Verse 1]    E             F#m11/C#    G#m7b13/D#  F#m11/C#
                Blistered, cracked and bleeding,
             E          F#m11/C#    G#m7b13/D#  F#m11/C#
                Cold no-one should know,
             E             F#m11/C#    G#m7b13/D#  F#m11/C#
                Rain falls down a      freezing,
                    E               F#m11/C#    G#m7b13/D#  F#m11/C#
                And sticking like a snow.


[Link]          | E  F#m11/C#  | G#m7b13/D#  F#m11/C#  |
                | E  F#m11/C#  | G#m7b13/D#  F#m11/C#  |


[Verse 2]    E        F#m11/C#    G#m7b13/D#  F#m11/C#
                Lingering      suspicio------ns,
             E            F#m11/C#    G#m7b13/D#  F#m11/C#
                Screaming in my      head,
             E           F#m11/C#        G#m7b13/D#  F#m11/C#
                Lies all mixed up with omission,
                   E             F#m11/C#    G#m7b13/D#  F#m11/C#
                Aw welcome home again.


[Bridge]                 Am/E                            Cmaj/G
                An' it's too late for apologies, they're falling at my feet.


[Chorus]     E                                            A
                "This is just the way of the world", Joe said,
                               B(add11)/F#      E
                I had to put a bullet into his head,
                                           A
                And then lit up a cigarette,
                           G#m7b13/D#           E
                Decided to call his fat friend Fred,
                                                     A
                "What he said, Fred, a just killed a man,
                             B(add11)/F#         E
                I caught him laying with my girlfriend,
                                            A                G#m7b13/D#         F#m11/C#
                And now they're both dead", people can be so cold when they're dead.


[Link]          | E  F#m11/C#  | G#m7b13/D#  F#m11/C#  |
                | E  F#m11/C#  | G#m7b13/D#  F#m11/C#  |


[Verse 3]    E          F#m11/C#    G#m7b13/D#  F#m11/C#
                Calling all the     neighbours,
             E          F#m11/C#    G#m7b13/D#  F#m11/C#
                Time to make     a-mends,
             E          F#m11/C#    G#m7b13/D#  F#m11/C#
                Whiskey floods a    table,
                   E                     F#m11/C#    G#m7b13/D#  F#m11/C#
                Aw good friends 'til the end.


[Bridge]                    Am/E                        Cmaj/G
                And they're making silly faces and it's tasting bitter sweet.


[Chorus]     E                                            A
                "This is just the way of the world", Joe said,
                             B(add11)/F#      E
                had to put a bullet into his head,
                                           A
                And then lit up a cigarette,
                           G#m7b13/D#           E
                Decided to call his fat friend Fred,
                                                     A
                "What he said, Fred, a just killed a man,
                             B(add11)/F#         E
                I caught him laying with my girlfriend,
                                            A             G#m7b13/D#         F#m11/C#
                And now they're both dead", you can be so cold when they're dead.


[Solo/Bridge]   | E  F#m11/C#  | G#m7b13/D#  F#m11/C#  |
                | E  F#m11/C#  | G#m7b13/D#  F#m11/C#  |

                     Am/E                            N.C.
                It's too late for apologies, they're falling at my feet.


[Link]          | E  F#m11/C#  | G#m7b13/D#  F#m11/C#  |
                | E  F#m11/C#  | G#m7b13/D#  F#m11/C#  |


[Outro]         E                                            A
                "This is just the way of the world", Joe said,
                             B(add11)/F#      E
                had to put a bullet into his head,
                                           A
                And then lit up a cigarette,
                           G#m7b13/D#           E
                Decided to call his fat friend Fred,
                                                     A
                "What he said, Fred, a just killed a man,
                             B(add11)/F#         E
                I caught him laying with my girlfriend,
                                            A                G#m7b13/D#         E
                And now they're both dead", people can be so cold when they're dead.
                                                            A
                A "This is just the way of the world", Joe said,
                               B(add11)/F#      E
                I had to put a bullet into his head,
                                           A
                And then lit up a cigarette,
                           G#m7b13/D            E
                Decided to call his fat friend Fred,
                                                     A
                "What he said Fred, I just killed a man,
                             B(add11)/F#         E
                I caught him laying with my girlfriend,
                                            A             G#m7b13/D          F#m11/C#
                And now they're both dead", you can be so cold when they're dead. (.)




                ***************************************
                *KINGS OF LEON - JOE'S HEAD LEAD PARTS*
                ***************************************


b  -  Bend
() -  Bracketed numbers are the note you bend up to
h  -  Hammer On
p  -  Pull Off
r  -  Return
/  -  Slide Up
\  -  Slide Down
d  -  Strum Down
u  -  Strum Up
PM -  Palm Mute
NH -  Natural Harmonics
^  -  Vibrato


[INTRO] - [00:09]
e -5p4-4------5p4-4--5p4-7--5p4-4------5p4-4--5p4-7---------------------
B ----5----------5------5------5----------5------5----------------------
G ----------------------------------------------------------------------
D ----------------------------------------------------------------------
A ----------------------------------------------------------------------
E ----------------------------------------------------------------------



[LINK]
e -5p4-4------5p4-4--5p4-7--5p4-4------5p4-4--5p4-7---------------------
B ----5----------5------5------5----------5------5----------------------
G ----------------------------------------------------------------------
D ----------------------------------------------------------------------
A ----------------------------------------------------------------------
E ----------------------------------------------------------------------



                                                     [BRIDGE]
[VERSE 2]                                            Am     C
e ----------------------------------------------------------------------
B ----------------------------------------------------------------------
G ---------------------------------------------------5------9-----------
D ---------------------------------------------------7-----10-----------
A ----22--2/4-44-4/6-66-6\4-44--[TIMES 4 THEN PLAY]--7-----10-----------
E -0-[LET RING]--------------------------------------5------8-----------



[CHORUS]
e ----------------------------------------------------------------------
B ------0-----0-0---------------------------------XX5-55-5-XX-----------
G ---0h1---0h1-----6-6--666-8-88------99------9-9-XX6-66-6-XX-4-44-444--
D -----------------7-7--777-9-99--4/9-99--4/9-9-9-XX7-77-7-XX-6-66-666--
A -----------------7-7--777-9-99--2/7-77--2/7-7-7-XX7-77-7-XX-6-66-666--
E -0--------------------------------------------------------------------

  ----------------------------------------------------------------------0-
  ------0-----0-0------------------------------------5-55-5-XX----------0-
  ---0h1---0h1-----6-6--666-8-88------999------9-999-6-66-6-XX-4-44-444-2-
  -----------------7-7--777-9-99--4/9-999--4/9-9-999-7-77-7-XX-6-66-666-4-
  -----------------7-7--777-9-99--2/7-777--2/7-7-777-7-77-7-XX-6-66-666-4-
  -0----------------------------------------------------------------------



[LINK]
e -5p4-4------5p4-4--5p4-7--5p4-4------5p4-4--5p4-7---------------------
B ----5----------5------5------5----------5------5----------------------
G ----------------------------------------------------------------------
D ----------------------------------------------------------------------
A ----------------------------------------------------------------------
E ----------------------------------------------------------------------


                                                     [BRIDGE]
[VERSE 3]                                            Am     C
e ----------------------------------------------------------------------
B ----------------------------------------------------------------------
G ---------------------------------------------------5------9-----------
D ---------------------------------------------------7-----10-----------
A ----22--2/4-44-4/6-66-6\4-44--[TIMES 4 THEN PLAY]--7-----10-----------
E -0-[LET RING]--------------------------------------5------8-----------



[CHORUS]
e ----------------------------------------------------------------------
B ------0-----0-0----------------------------------XX5-55-5-XX----------
G ---0h1---0h1-----6-6--666-8-88------999------9-9-XX6-66-6-XX-4-44-444-
D -----------------7-7--777-9-99--4/9-999--4/9-9-9-XX7-77-7-XX-6-66-666-
A -----------------7-7--777-9-99--2/7-777--2/7-7-7-XX7-77-7-XX-6-66-666-
E -0--------------------------------------------------------------------

  ----------------------------------------------------------------------0-
  ------0-----0-0------------------------------------5-55-5-XX----------0-
  ---0h1---0h1-----6-6--666-8-88------999------9-999-6-66-6-XX-4-44-444-2-
  -----------------7-7--777-9-99--4/9-999--4/9-9-999-7-77-7-XX-6-66-666-4-
  -----------------7-7--777-9-99--2/7-777--2/7-7-777-7-77-7-XX-6-66-666-4-
  -0----------------------------------------------------------------------



[SOLO/BRIDGE]
e ----------------------------------------------------------------------
B ----------------------------------------------------------------------
G -------4-6--4---------4-6/9--6p4---------4--6-4-6--9--8-9-11--9-11-12-
D -4--6---------6-4--6------------6--4--6-------------------------------
A ----------------------------------------------------------------------
E ----------------------------------------------------------------------



[LINK]
e ----4-------5-------7-------5-------4-------5-------7-------5---------
B -5----5--7----7--9----9--7----7--5----5--7----7--9----9--7----7-------
G ----------------------------------------------------------------------
D ----------------------------------------------------------------------
A ----------------------------------------------------------------------
E ----------------------------------------------------------------------



[CHORUS]
e ----------------------------------------------------------------------
B ------0-----0-0----------------------------------XX5-55-5-XX----------
G ---0h1---0h1-----6-6--666-8-88------999------9-9-XX6-66-6-XX-4-44-444-
D -----------------7-7--777-9-99--4/9-999--4/9-9-9-XX7-77-7-XX-6-66-666-
A -----------------7-7--777-9-99--2/7-777--2/7-7-7-XX7-77-7-XX-6-66-666-
E -0--------------------------------------------------------------------

  ----------------------------------------------------------------------
  ------0-----0-0------------------------------------5-55-5-XX----------
  ---0h1---0h1-----6-6--666-8-88------999------9-999-6-66-6-XX-4-44-444-
  -----------------7-7--777-9-99--4/9-999--4/9-9-999-7-77-7-XX-6-66-666-
  -----------------7-7--777-9-99--2/7-777--2/7-7-777-7-77-7-XX-6-66-666-
  -0--------------------------------------------------------------------

  ----------------------------------------------------------------------
  ------0-----0-0----------------------------------XX5-55-5-XX----------
  ---0h1---0h1-----6-6--666-8-88------999------9-9-XX6-66-6-XX-4-44-444-
  -----------------7-7--777-9-99--4/9-999--4/9-9-9-XX7-77-7-XX-6-66-666-
  -----------------7-7--777-9-99--2/7-777--2/7-7-7-XX7-77-7-XX-6-66-666-
  -0--------------------------------------------------------------------

  ----------------------------------------------------------------------0-
  ------0-----0-0------------------------------------5-55-5-XX----------0-
  ---0h1---0h1-----6-6--666-8-88------999------9-999-6-66-6-XX-4-44-444-2-
  -----------------7-7--777-9-99--4/9-999--4/9-9-999-7-77-7-XX-6-66-666-4-
  -----------------7-7--777-9-99--2/7-777--2/7-7-777-7-77-7-XX-6-66-666-4-
  -0----------------------------------------------------------------------




****************************************************************************************
****************************************************************************************


Group/Singer Name:      Kings Of Leon
Song:                   "Trani"
Additional Info:        Youth & Young Manhood - Track 05
Tuning:                 Standard - [EADGBe]
Tabbed By:              Dean Hill - Comments, Suggestions? the.scotsman@blueyonder.co.uk


[Chords Used]   A(577655); E(022100); B(799877); C#m(9[11][11]999); G#(466544)


[Intro]         | 1 & 2 & |  | 1 & 2 & 3 & 4 & | 1 & 2 & 3 & 4 & |
                |---------|  |-----------------|-----------------|
                |       A |  | E             B | A       C#m B A |

                             | 1 & 2 & 3 & 4 & | 1 & 2 & 3 & 4 & |
                             |-----------------|-----------------|
                             | E             B | A       C#m B A |


[Verse 1] E                               B  A
            Dirty belly of a secret town,
                                    C#m                 B    yA                E
            Cheap trick hookers are hangin' out at "The Barn" at the greyhound station,
                                             B   A
            And the bare-chested boys are goin' down,
                    C#m                      B    A   E
            On everything that their momma believed.
                                                  B  A
            Pack of smokes and little bump of cocai-i-ne,
                              C#m     B
            Help you feel not so strange.
            

[Bridge]    A       E                  A
            Said oh Paw, she don't get off,
                   C#m
            Unless somebody's standing near her,
            A          E                                A
            And she'll shine, once a, she's crossed the line,
                      C#m
            Hands all tied to a chair.
            
            
[Chorus]               A        E                         A
            Oscillating on the ground, blowin' white noise sound,
                   C#m               B    A
            Like a Trani on ten!
            
            
[Link]      | E             B | A       C#m B  A |
            
            
[Verse 2] E                                           B  A
            All the bubba's got their, heads in a knot,
                                      C#m        B     A   E
            They don't know what they love, or deserve to give,
                                                     B   A
            Chances are each have one a minuites left,
                            C#m                B     A         E
            He doesn't even know which fist that, he'd like to bite tonight,
                                       B  A                    C#m       B
            Oh tonight, toni-i-ght, tonight.        Well maybe tonight...
            
            
[Bridge]              E                  A
            'Cause oh Paw, she don't get off,
                   C#m
            Unless    somebody's standing near her,
                       E                                A
            And she'll shine, once a, she's crossed the line,
                      C#m
            Hands all tied to a chair.


[Chorus]               A       E                           A
            Oscillating on the ground, blowin' white noise sound,
                   C#m
            Like a Trani on ten!
            
            
[Middle 8]  G#
            God's the only call,
          A
            And now the priest's,
          G#
            Finger's in the dirt,
          B
            Spittin' out his teeth, Spittin' out his teeth.
            
            
[Solo]      | E       A       | C#m             |
            | E       A       | C#m             |
            | E       A       | C#m             |
            
            
[Middle 8]  G#
            God's the only call,
          A
            And now the priest's,
          G#
            Finger's in the dirt,
                        B
            And he's a,   Spittin' out his teeth, Spittin' out!.


[Bridge]         E                  A
            Said Paw, she don't get off,
                   C#m
            Unless somebody is standing near her,
                       E                          A
            And she'll shine, once she' cross the line,
                      C#m
            Hands all tied to a chair.


[Outro]                        E                          A
            Oscillating on the ground, blowin' white noise sound,
                   C#m
            Like a Trani on ten!
                       A       E                          A
            Oscillating on the ground, blowin' white noise sound,
                   C#m
            Like a Trani on, ten!
                       A       E                         A
            Oscillating on the ground, a blowin' white noise sound,
                   C#m
            Like a Trani on ten!
                       A       E                          A
            Oscillating on the ground, blowin' white noise sound,
                   C#m
            Like a Trani on, ten!
                               E                           A
            Oscillating on the ground, blowin' white noise sound,
                   C#m
            Like a Trani on, ten!
                             | E       A              | C#m             |
            Oscillating on the...
            
            | E       A       | C#m             |
(Screamed)------------------------------> Oscillating!
                                        
            | E       A       | C#m             |
(Screamed)------------> Trani! -------> Oscillating!

            | E(.)





                  **********************************
                  *KINGS OF LEON - TRANI LEAD PARTS*
                  **********************************


b  -  Bend
() -  Bracketed numbers are the note you bend up to
h  -  Hammer On
p  -  Pull Off
r  -  Return
/  -  Slide Up
\  -  Slide Down
d  -  Strum Down
u  -  Strum Up
PM -  Palm Mute
NH -  Natural Harmonics
^  -  Vibrato



[INTRO] x8
e -------0-------
B -9b(10)-(10)r9-
G ---------------
D ---------------
A ---------------
E ---------------



[VERSE 1] - NOTHING PLAYED



[BRIDGE] X2
PM----------------------|
e ------------------------0-0-----0--------0----------------------------
B ---------------7---7--------------------------9b(10)---9--------------
G -6-9-6-6/9-9-9---9---9------6h9---9--6/9---9--------------------------
D ----------------------------------------------------------------------
A ----------------------------------------------------------------------
E ----------------------------------------------------------------------



[CHORUS]
PM----------------------|
e ------------------------0-0-----0--------0----------------------------
B ---------------7---7--------------------------9b(10)---9--------------
G -6-9-6-6/9-9-9---9---9------6h9---9--6/9---9--------------------------
D ----------------------------------------------------------------------
A ----------------------------------------------------------------------
E ----------------------------------------------------------------------



[LINK] - ACOUSTIC PLAYS SAME AS RHYTHM



[VERSE 2] - NOTHING PLAYED



[BRIDGE] X2
PM----------------------|
e ------------------------0-0-----0--------0----------------------------
B ---------------7---7--------------------------9b(10)---9--------------
G -6-9-6-6/9-9-9---9---9------6h9---9--6/9---9--------------------------
D ----------------------------------------------------------------------
A ----------------------------------------------------------------------
E ----------------------------------------------------------------------



[CHORUS]
PM----------------------|
e ------------------------0-0-----0--------0----------------------------
B ---------------7---7--------------------------9b(10)---9--------------
G -6-9-6-6/9-9-9---9---9------6h9---9--6/9---9--------------------------
D ----------------------------------------------------------------------
A ----------------------------------------------------------------------
E ----------------------------------------------------------------------



[MIDDLE 8] - NOTHING PLAYED



[SOLO]
e ----------------------------------------------------------------------
B ---------8------------------------------------------------------------
G -6/9-9-9---9-9p7-------8b(9)-9-8b(9)--9-------------------------------
D ----------------9-7b(8)----------------------6-9----------------------
A -------------------------------------------7-----97-------7-----------
E ----------------------------------------/9---------9--7-9---9---------

  ----------------------------------------------------------------------
  ----------------------------------------------------------------------
  ----------------------------------------------------------------------
  -8b(9)(9)(9)(9)(9)(9)(9)(9)(9)(9)pr7----------------------------------
  ------------------------------------10-7-10---------------------------
  ----------------------------------------------------------------------

  ----------------------------------------------------------------------
  ----------------------------------------------------------------------
  ----------------------------------------------------------------------
  -8b(9)(9)(9)(9)(9)(9)(9)(9)(9)(9)pr7----------------------------------
  ------------------------------------10-7-10---------------------------
  ----------------------------------------------------------------------

  -------9-------9-8b(9)-9-12b(14)(14)r12-9---9---9/12-12-12----154b(17)-
  -7b(9)---7b(9)---------------------------12--12------------15---------
  ----------------------------------------------------------------------
  ----------------------------------------------------------------------
  ----------------------------------------------------------------------
  ----------------------------------------------------------------------
  
  -15b(17)-15b(17)-15b(17)r15-12--------12------------------------------
  -------------------------------15b(17)---15-12----12------------------
  -----------------------------------------------14----14-12------------
  ----------------------------------------------------------------------
  ----------------------------------------------------------------------
  ----------------------------------------------------------------------
                                [16 TIMES----------------------]
  ----------------------------------------------------------------------
  -12/14-141414141414/12--12-12-15151515151515151515151515151515--------
  ----------------------------------------------------------------------
  ----------------------------------------------------------------------
  ----------------------------------------------------------------------
  ----------------------------------------------------------------------


[MIDDLE 8] - NOTHING PLAYED


[BRIDGE] - ACOUSTIC PLAYS STATED CHORDS


[OUTRO] @ [04:12] - [REPEAT TO END OF SONG AND FINISH ON 1 STRUM OF]--¬
  ---------------------------                                    ----------
  -101010101010101010-9--9-9-                                    -----9----
  --9-9-9-9-9-9-9-9-9-9--9-9-                                    -----9----
  --9-9-9-9-9-9-9-9-9-9--9-9-                                    -----9----
  ---------------------------                                    ----------
  ---------------------------                                    ----------




****************************************************************************************
****************************************************************************************
****************************************************************************************


Group/Singer Name:      Kings Of Leon
Song:                   "California Waiting"
Additional Info:        Youth & Young Manhood - Track 06
Tuning:                 Standard - [EADGBe]
Tabbed By:              Dean Hill - Comments, Suggestions? the.scotsman@blueyonder.co.uk


[Chords Used]   G(355433); D([10][12][12][11][10][10]); Bm(799777); A(577655)


[Intro]         ("One, Two, One, Two, Three, Four.")

                |  G  |  G  |  D  |  D  |
                |  G  |  G  |  D  |  D  |<----------------------------(GUITAR DROPS OUT)


[Verse 1]       N.C
                Little Mona Lisa laying by my side,
                N.C.
                'Crimson and Clover' pullin’ overtime,
                N.C
                I feel too close to be a losin’ touch,
                   Bm
                By givin’ in, what am I givin’ up?,
                A
                Am I losin’ way too much?


[Chorus]          G               D
                A hey, California Waiting,
                   G                                        D
                Every little thing's a gotta be just right,
                    G                        D
                But say, while you tryin’ to save me,
                  G                                D
                A can a get back a my lonely life?
                
                
[Verse 2]           G                                    D
                I’m goin’ so fast and I can’t slow down,
                     G                                              D
                It’s hard to get up when you’re spinnin’ round and round,
                    G                                        D
                I’d give you the news a but nothin’s changed,
                    Bm
                I’d sing you a song but they flew it away,
                 A
                All wrapped up in this stupid ass game.


[Chorus]          G               D
                A hey, California Waiting,
                   G                                        D
                Every little thing’s a gotta be just right,
                    G                        D
                But say, while you tryin’ to save me,
                  G                              D
                A can a get back my lonely life?
                
                
[Solo]          |  A  |  A  |  A  |  A  |
                |  A  |  A  |  A  |  A  |


[Outro]           G               N.C.
                A Hey, California Waiting,
                   N.C.                                   N.C.
                Every little thing’s gotta be just right,
                     G(PM)                       D(PM)
                Well say, while you’re tryin’ to save me,
                  G(PM)                          D
                A can a get back my lonely life?
                  G               D
                A hey, California Waiting,
                   G                                        D
                Every little thing’s a gotta be just ri-ght,
                        G                        D
                But say, while you tryin’ to save me,
                  G                              D
                A can a get back my lonely life?
                  G                                  D
                A can a get back a my lonely life? A can I get back...(Tell me Tell me!)
                
                |  G  |  G  |  D  |  D  |       A can a get back...ETC. (Ad Lib.)
                |  G  |  G  |  D  |  D  |       A can a get back...ETC. (Ad Lib.)
                |  G  |  G  |  D  |  D  |       A can a get back...ETC. (Ad Lib.)
                                       A said a...
                |  G                               |  G(.)
                ...can I get back a my lonely life?





             ***********************************************
             *KINGS OF LEON - CALIFORNIA WAITING LEAD PARTS*
             ***********************************************


b  -  Bend
() -  Bracketed numbers are the note you bend up to
h  -  Hammer On
p  -  Pull Off
r  -  Return
/  -  Slide Up
\  -  Slide Down
d  -  Strum Down
u  -  Strum Up
PM -  Palm Mute
NH -  Natural Harmonics
^  -  Vibrato



[INTRO]
e -----------------------------------------------------------------------
B -----------------------------------------------------------------------
G -----------------------------------------------------------------------
D -----------------4-------------------4--------------------4------------
A -7--5-\-2--7-5-7---7--7--5--0--7-5-7---7--7--5-\-2--7-5-7---7--7--5--0-
E -----------------------------------------------------------------------



[VERSE 1] - NOTHING IS PLAYED



[CHORUS]X4 - Matthew alternates between G(3554XX) & Dmaj7(XX022X) with a
             gentle palm muted style, played on every beat and half beat.
             I.E. 8 strums to a bar! with some beats accentuated. Shown by a *
             (Hope that's not too confusing!) SEE BELOW FOR TAB.
           
                                   *     *     *     *     * * *
   1 & 2 & 3 & 4 & 1 & 2 & 3 & 4 & 1 & 2 & 3 & 4 & 1 & 2 & 3 & 4 &
e -----------------------------------------------------------------
B ---------------------------------2-2-2-2-2-2-2-2-2-2-2-2-2-2-2-2-
G -4-4-4-4-4-4-4-4-4-4-4-4-4-4-4-4-2-2-2-2-2-2-2-2-2-2-2-2-2-2-2-2-
D -5-5-5-5-5-5-5-5-5-5-5-5-5-5-5-5-0-0-0-0-0-0-0-0-0-0-0-0-0-0-0-0-
A -5-5-5-5-5-5-5-5-5-5-5-5-5-5-5-5---------------------------------
E -3-3-3-3-3-3-3-3-3-3-3-3-3-3-3-3---------------------------------



[VERSE 2] - NOTHING PLAYED 'TIL [01:12] - (BELOW)
e ----------------------------------------------------------------------
B ----------------------------------------------------------------------
G -7----/11--/14--\7------------7----/11--/14--\7------------6----------
D ----------------------------------------------------------------------
A -5----/9---/12--\5------------5----/9---/12--\5------------4----------
E ----------------------------------------------------------------------



[CHORUS] - REPEAT CHORUS



[SOLO]
e ----0-------00-----2-0----------0-------0------0-----0------0-2-2p0---
B -0h2--2--0h2---2p0-----2p0-2--2----2p0-----2p0----2p0---5p2-----------
G ----------------------------------------------------------------------
D ----------------------------------------------------------------------
A ----------------------------------------------------------------------
E ----------------------------------------------------------------------
                                                 [OUTRO]
  ---------------------0-0-------0---2-2----------------
  -0h2p0---2p0-0-2p0-0-----2p0-0---0-----4p2p0----0-----
  -------2----------------------------------------0-----
  ------------------------------------------------0-----
  ------------------------------------------------2-----
  ------------------------------------------------3-----



[OUTRO] - (continued) @ [02:22]
e ------5-----7p5---------5-----------5-----7p5---------5-----
B -7p5----7p5----7p5-7p5----7p5--7p5----7p5----7p5-7p5----7p5-
G ----7-----------------7-----------7-----------------7-------
D ------------------------------------------------------------
A ------------------------------------------------------------
E ------------------------------------------------------------

(PLAY THIS 5 TIMES)                *     *     *     *     * * *
   1 & 2 & 3 & 4 & 1 & 2 & 3 & 4 & 1 & 2 & 3 & 4 & 1 & 2 & 3 & 4 &
e -----------------------------------------------------------------
B ---------------------------------2-2-2-2-2-2-2-2-2-2-2-2-2-2-2-2-
G -4-4-4-4-4-4-4-4-4-4-4-4-4-4-4-4-2-2-2-2-2-2-2-2-2-2-2-2-2-2-2-2-
D -5-5-5-5-5-5-5-5-5-5-5-5-5-5-5-5-0-0-0-0-0-0-0-0-0-0-0-0-0-0-0-0-
A -5-5-5-5-5-5-5-5-5-5-5-5-5-5-5-5---------------------------------
E -3-3-3-3-3-3-3-3-3-3-3-3-3-3-3-3---------------------------------

THEN @ [02:58]
  ----------------------------------------------------------------------
  -------------------7--------------------------7-----------------------
  -9-7-9-7--9--9-7-9---9-7----9-7-9-7--9--9-7-9---9-7-------------------
  ----------------------------------------------------------------------
  ----------------------------------------------------------------------
  ----------------------------------------------------------------------
  
  ----------------------------------------------------------------------
  -------------------7--------------------------7-----------------------
  -9-7-9-7--9--9-7-9---9-7----9-7-9-7--9--9-7-9---9-7-------------------
  ----------------------------------------------------------------------
  ----------------------------------------------------------------------
  ----------------------------------------------------------------------
  
  ----------------------------------------------------------------------
  -------------------7--------------------------7-----------------------
  -9-7-9-7--9--9-7-9---9-7----9-7-9-7--9--9-7-9---9-7-------------------
  ----------------------------------------------------------------------
  ----------------------------------------------------------------------
  ----------------------------------------------------------------------
  
  ----------------------------------------------------------------------
  -------------------7--------------------------------------------------
  -9-7-9-7--9--9-7-9---9-7-7--------------------------------------------
  ----------------------------------------------------------------------
  ----------------------------------------------------------------------
  ----------------------------------------------------------------------




****************************************************************************************
****************************************************************************************



Group/Singer Name:      Kings Of Leon
Song:                   "Spiral Staircase"
Additional Info:        Youth & Young Manhood - Track 07
Tuning:                 Standard - [EADGBe]
Tabbed By:              Dean Hill - Comments, Suggestions? the.scotsman@blueyonder.co.uk


[Chords Used]   A(577655); B(799877); F#(244322); E(022100);
                D([10][12][12][11][10][10]); E*([12][14][14][13][12][12])


[Intro]         A (SLIDE UP TO) B   -   A (SLIDE UP TO) B


[Chorus]     A  B                               [A slide to B through 1st 2 lines]
                Spiral Staircase goin' down,
                
                Paint your body red and brown,
              F#                    E          D
                On our knees, we'll feast on a sex show.
                B
                Spiral Staircase! Spiral Staircase!


[Verse 1]       B
                Greasy haircuts, a German Chinese girl,
                
                Is gone keep ya'll busy, tuggin' at my curl,
                  F#
                A get your ass together,
                           E                                  A      B
                You better walk, walk, walk, a by walking, we cannot run!

[Verse 2]       B
                A they all came to party, and there's four to every stall,
                
                It's gettin' frust-a-ratin', a just a pissin' on this wall,
                F#                               E
                Seems like there's another story bangin',
                             A        B
                Around every step you fake.
                
                
[Chorus]        B                               [A slide to B through 1st 2 lines]
                Spiral Staircase goin' down,
                
                Paint your body red and brown,
              F#                    E          D
                On our knees, we'll feast on a sex show.
                B
                Spiral Staircase! Spiral Staircase!
                
                
[Verse 3]       B
                They all came to party, and then there's four to every stall,
                
                It's gettin' frust-a-ratin', a just a pissin on this wall,
                F#                               E
                Seems like there's another story bangin',
                             A        B
                Around every step you fa-ake.


[Solo]          | E*      | E*      | E*      | E*      |
                | B       | B       |
                | E*      | E*      | E*      | E*      |
                | B       | B       |<-----[EVERYTHING CUTS OUT EXCEPT CLAPPING & DRUMS]


[Chorus]        N.C.
                Spiral Staircase goin' down,
                
                Paint your body red and brown,
              N.C.                  N.C.       D<-----------[EVERYTHING RETURNS]
                On our knees, we'll feast on a sex show.
                B
                Spiral Staircase! Spiral Staircase!


[Chorus]        B                               [A slide to B through 1st 2 lines]
                Spiral Staircase goin' down,
                
                Paint your body red and brown,
              F#                    E          D
                On our knees, we'll feast on a sex show.
                B
                Spiral Staircase! Spiral Staircase!


[Outro]         | B       | B       | B       | B       |
                | F#      | E    D  |
                | B       | B       |<-------[EVERYTHING DROPS OUT APART FROM DRUM BEAT]
                
                [INDISTINGUISHABLE SHOUTED WORDS]





             *********************************************
             *KINGS OF LEON - SPIRAL STAIRCASE LEAD PARTS*
             *********************************************

b  -  Bend
() -  Bracketed numbers are the note you bend up to
h  -  Hammer On
p  -  Pull Off
r  -  Return
/  -  Slide Up
\  -  Slide Down
d  -  Strum Down
u  -  Strum Up
PM -  Palm Mute
NH -  Natural Harmonics
^  -  Vibrato



[INTRO] - NOTHING PLAYED 'TIL [00:15]
"...sex show"
e ----------------------------------------------------------------------
B ----------------------------------------------------------------------
G --11--11-\------------9--7-------------9--7---------------------------
D --12--12-\----9--7-9--9--7-----9--7-9--9--7---------------------------
A --12--12-\----9--7-9-----------9--7-9---------------------------------
E --10--10-\-----------------7------------------------------------------



[VERSE 1] @ [00:31]
e -7--5-7--------------7--5-7-------------------------------------------
B -7--5-7---/5-3-------7--5-7---/5-3------------------------------------
G ----------------------------------------------------------------------
D ----------------------------------------------------------------------
A ----------------------------------------------------------------------
E ----------------------------------------------------------------------


[VERSE 2] @ [00:46]
e ----------------------------------------------------------------------
B -0----------0----10b(12)r10------------------------------------------
G -9-7--------9-7------------------------------------------------------
D -----9-7-9-----------------------------------------------------------
A ----------------------------------------------------------------------
E ----------------------------------------------------------------------


[CHORUS] - FOLLOW CHORDS 'TIL [01:00]
"...sex show"
e ----------------------------------------------------------------------
B ----------------------------------------------------------------------
G --11--11-\------------9--7-------------9--7---------------------------
D --12--12-\----9--7-9--9--7-----9--7-9--9--7---------------------------
A --12--12-\----9--7-9-----------9--7-9---------------------------------
E --10--10-\-----------------7----------------7-------------------------


[VERSE 3]
e ----------------------------------------------------------------------
B ----------------------------------------------------------------------
G ---------9--7-------------9-7-------------9--7-------------9-7--------
D -9--7-9--9--7-----9--7-9--9-7-----9--7-9--9--7-----9--7-9--9-7--------
A -9--7-9-----------9--7-9----------9--7-9-----------9--7-9-------------
E --------------7---------------7----------------7----------------------

  ----------------------------------------------------------------------
  ----------------------------------------------------------------------
  ----------------------------------------------------------------------
  ----------------------------------------------------------------------
  -4-4---4-4---2-2---2-7------------------------------------------------
  -2-2---2-2---0-0---0-5---17\2-----------------------------------------
                           |---USE ALTERNATE PICKING WHEN SLIDING DOWN.
                               THERE SHOULD BE 32 ALTERNATE PICKS, BUT
                               IT DOESN'T HAVE TO BE THAT PERFECT.
                               ALSO, SLIGHTLY PALM MUTE THE STRING.



[SOLO]
e ----------------------------------------------------------------------
B --------15------------12-----------15------------12-------------------
G -14b(16)---14b(16)r14-------14b(16)---14b(16)r14----------------------
D ----------------------------------------------------------------------
A ----------------------------------------------------------------------
E ----------------------------------------------------------------------

  ----------------------------------------------------------------------
  --------15-------------------------12-------15-15b(17)----------------
  -14b(16)---14b(16)r14-------14b(16)--14b(16)--------------------------
  ----------------------16----------------------------------------------
  ----------------------------------------------------------------------
  ----------------------------------------------------------------------

BEND CHORD DOWN BY HALF THEN RETURN------¬ -------------------¬
                          ----------------------------------------------
                          ----------------------------------------------
                          -10-1010-10101010-----10-1010-10101010--------
                          -11-1111-11111111-----11-1111-11111111--------
                          -11-1111-11111111-----11-1111-11111111--------
                          --9--9-9--9-9-9-9------9--9-9--9-9-9-9--------

  -15b(17)-(17)-(17)r15-12----------------------------------------------
  -------------------------15b(17)--(17)-(17)15-12----------------------
  ----------------------------------------------------------------------
  ----------------------------------------------------------------------
  ----------------------------------------------------------------------
  ----------------------------------------------------------------------
  
PLAY WITH A VERY SLIGHT BEND--------¬ -¬ -----------¬ -¬
  -------------------------------12--------------12---------------------
  ----------------------------------15--------------15------------------
  -14b(16)-(16)(16)(16)14-12-----------14-12-----------14-12------------
  ---------------------------14--------------14--------------14---------
  ----------------------------------------------------------------------
  ----------------------------------------------------------------------
  
BEND CHORD DOWN BY HALF THEN RETURN------¬ -------------------¬
                          ----------------------------------------------
                          ----------------------------------------------
                          -10-1010-10101010-----10-1010-10101010--------
                          -11-1111-11111111-----11-1111-11111111--------
                          -11-1111-11111111-----11-1111-11111111--------
                          --9--9-9--9-9-9-9------9--9-9--9-9-9-9--------
  
  
[CHORUS] - NOTHING PLAYED 'TIL [01:53]
"...sex show"
e ----------------------------------------------------------------------
B ----------------------------------------------------------------------
G --11--11-\------------9--7-------------9--7---------------------------
D --12--12-\----9--7-9--9--7-----9--7-9--9--7---------------------------
A --12--12-\----9--7-9-----------9--7-9---------------------------------
E --10--10-\-----------------7----------------7-------------------------


[CHORUS] - MATTHEW PLAYS POWERCHORDS OF B5(799XXX); F#5(244XXX) & E5(022XXX)
           OVER THE CHORUS 'TIL [02:08] WHEN HE PLAYS:
           
"...sex show"
e ----------------------------------------------------------------------
B ----------------------------------------------------------------------
G --11--11-\------------9--7-------------9--7---------------------------
D --12--12-\----9--7-9--9--7-----9--7-9--9--7---------------------------
A --12--12-\----9--7-9-----------9--7-9---------------------------------
E --10--10-\-----------------7------------------------------------------


[OUTRO]
e ----------------------------------------------------7-----------------
B -7-7--7-777-----7-7-7-777----7-7--7-777-----------7---10b(12)-r10-----
G -----------9-7-----------9-------------9-7--9b(11)--------------------
D ----------------------------------------------------------------------
A ----------------------------------------------------------------------
E ----------------------------------------------------------------------

  ----14-----------------12--------------7-7-------7-------777----------
  -14----17b(19)r17---12----15b(17)r15-------9b(11)--9b(11)---9-7-------
  ----------------------------------------------------------------9-----
  ----------------------------------------------------------------------
  ----------------------------------------------------------------------
  ----------------------------------------------------------------------



****************************************************************************************
****************************************************************************************



Group/Singer Name:      Kings Of Leon
Song:                   "Molly's Chambers"
Additional Info:        Youth & Young Manhood - Track 08
Tuning:                 Standard - [EADGBe]
Tabbed By:              Dean Hill - Comments, Suggestions? the.scotsman@blueyonder.co.uk


[Chords Used]   F#(244322); B(799877); A(577655); D([10][12][12][11][10][10])


[Intro]         [SEE LEAD TAB FOR INTRO RIFF]


[Verse 1]------>[PLAY INTRO RIFF ALL WAY THROUGH]
                
                  F#
                A free, that's all that she could be, that’s why she’ll never stay,
                
                A White, barenaked in the night, and lookin’ for some play
                
                A just another girl that wants to rule the world, or any time or place,

                And when she gets into your head, you know she’s there to stay.


[Chorus]      B              A
                You want it,    Well she’s got it,
              F#
                Molly’s Chambers gonna change your mind,
              B                 D
                She’s got your,   your pistol,
              F#
                Molly’s Chambers gonna change your mind,
                
                Molly’s Chambers gonna change your mind.
                
                
[Verse 2]------>[PLAY INTRO RIFF ALL WAY THROUGH]

                F#
                Slow, she’s burnin’ in your soul, with whispers in your ear,
                
                'S okay I’ll give it anyway, just get me out of here,
                
                You’ll plead, you’ll get down on your knees, for just another taste,
                
                And when you think she’s let you in, that’s when she fades away.
                
                
[Chorus]      B              A
                You want it,    Well she’s got it,
              F#
                Molly’s Chambers gonna change your mind,
              B                 D
                She’s got your,   your pistol,
              F#
                Molly’s Chambers gonna change your mind,
                
                Molly’s Chambers gonna change your mind.
                
                
[Solo]          |  B   D  |  F#     |
                |  B   D  |  F#     |
                |  B   D  |  F#     |
                |  A      |  B      |


[Outro]      (B)             A
                You want it,    Well she’s got it,
              F#
                Molly’s Chambers gonna change your mind,
              B                   D
                A she’s got your,   your pistol,
              F#
                Molly’s Chambers gonna change your mind.
              B              A
                You want it,    Well she’s got it,
              F#
                Molly’s Chambers gonna change your mind,
              B                 D
                She’s got your,   your pistol.




            *********************************************
            *KINGS OF LEON - MOLLY'S CHAMBERS LEAD PARTS*
            *********************************************


b  -  Bend
() -  Bracketed numbers are the note you bend up to
h  -  Hammer On
p  -  Pull Off
r  -  Return
/  -  Slide Up
\  -  Slide Down
d  -  Strum Down
u  -  Strum Up
PM -  Palm Mute
NH -  Natural Harmonics
^  -  Vibrato



[INTRO] - THERE'S 2 PARTS TO THIS.
CALEB (RHYTHM), PLAYS:

   1 & 2 & 3 & 4 & 1 & 2 & 3 & 4 & 1 & 2 & 3 & 4 & 1 & 2 & 3 & 4 & 
e ------------------------------------------------------------------
B ---------------------------------------------------------------22-
G ---------------------------------------------------------------33-
D -4-----4---4---4-4-----4---4---4-4-----4---4---4-4-----4---4---44-
A -4-----4---4---4-4-----4---4---4-4-----4---4---4-4-----4---4---44-
E -2-----0---0---0-2-----0---0---0-2-----0---0---0-2-----0---0---00-

   1 & 2 & 3 & 4 & 1 & 2 & 3 & 4 & 1 & 2 & 3 & 4 & 1 & 2 & 3 & 4 & 
  -----------------------------------------------------------------
  -2---------------------------------------------------------------
  -3---------------------------------------------------------------
  -4-----4---4---4-4-----4---4---4-4-----4---4---4-4-----4---4---4-
  -4-----4---4---4-4-----4---4---4-4-----4---4---4-4-----4---4---4-
  -2-----0---0---0-2-----0---0---0-2-----0---0---0-2-----0---0---0-


NOTE:- AFTER EVERY: -4- IS PLAYED, CALEB RESTS HIS INDEX FINGER ON THE 6TH STRING
                    -4- AT THE 2ND FRET, NOT ACTUALLY FRETTING IT, JUST DAMPING IT!
                    -0-


...AND MATTHEW (LEAD), PLAYS:

   1 & 2 & 3 & 4 & 1 & 2 & 3 & 4 & 1 & 2 & 3 & 4 & 1 & 2 & 3 & 4 & 
e -----------------------------------------------------------------
B -----------------------------------------------------------------
G -----------------------------------------------------------------
D -4---4-4-4-4-4-4-4---4-4-4-4-4-4-4---4-4-4-4-4-4-4---4-4-4-4-4-4-
A -4---4-4-4-4-4-4-4---4-4-4-4-4-4-4---4-4-4-4-4-4-4---4-4-4-4-4-4-
E -2---2-0-2-0-2-0-2---2-0-2-0-2-0-2---2-0-2-0-2-0-2---2-0-2-0-2-0-

   1 & 2 & 3 & 4 & 1 & 2 & 3 & 4 & 1 & 2 & 3 & 4 & 1 & 2 & 3 & 4 & 
  -----------------------------------------------------------------
  -----------------------------------------------------------------
  -----------------------------------------------------------------
  -4---4-4-4-4-4-4-4---4-4-4-4-4-4-4---4-4-4-4-4-4-4---4-4-4-4-4-4-
  -4---4-4-4-4-4-4-4---4-4-4-4-4-4-4---4-4-4-4-4-4-4---4-4-4-4-4-4-
  -2---2-0-2-0-2-0-2---2-0-2-0-2-0-2---2-0-2-0-2-0-2---2-0-2-0-2-0-



[VERSE 1] - ONLY CALEB PLAYS, AND HE PLAYS THIS:
   1 & 2 & 3 & 4 & 1 & 2 & 3 & 4 & 1 & 2 & 3 & 4 & 1 & 2 & 3 & 4 & 
  -----------------------------------------------------------------
  -----------------------------------------------------------------
  -----------------------------------------------------------------
  -4-----4---4---4-4-----4---4---4-4-----4---4---4-4-----4---4---4-
  -4-----4---4---4-4-----4---4---4-4-----4---4---4-4-----4---4---4-
  -2-----0---0---0-2-----0---0---0-2-----0---0---0-2-----0---0---0-



[CHORUS]
   1 & 2 & 3 & 4 & 1 & 2 & 3 & 4 & 1 & 2 & 3 & 4 & 1 & 2 & 3 & 4 & 
e -7---7---7---7---5---5---5---5----------------------------------
B -7---7---7---7---5---5---5---5----------------------------------
G -8---8---8---8---6---6---6---6----------------------------------
D -9---9---9---9---7---7---7---7---4---4-4-4-4-4-4-4---4-4-4-4-4--
A -9---9---9---9---7---7---7---7---4---4-4-4-4-4-4-4---4-4-4-4-4--
E -7---7---7---7---5---5---5---5---2---2-0-2-0-2-0-2---2-0-2-0-2--

   1 & 2 & 3 & 4 & 1  & 2  & 3  & 4
  -7---7---7---7---10---10---10---10-
  -7---7---7---7---10---10---10---10-
  -8---8---8---8---11---11---11---11-
  -9---9---9---9---12---12---12---12-
  -9---9---9---9---12---12---12---12-
  -7---7---7---7---10---10---10---10-

   1 & 2 & 3 & 4 & 1 & 2 & 3 & 4 & 1 & 2 & 3 & 4 & 1 & 2 & 3 & 4 & 
  -----------------------------------------------------------------
  -----------------------------------------------------------------
  -----------------------------------------------------------------
  -4---4-4-4-4-4-4-4---4-4-4-4-4-4-4---4-4-4-4-4-4-4---4-4-4-4-4-4-
  -4---4-4-4-4-4-4-4---4-4-4-4-4-4-4---4-4-4-4-4-4-4---4-4-4-4-4-4-
  -2---2-0-2-0-2-0-2---2-0-2-0-2-0-2---2-0-2-0-2-0-2---2-0-2-0-2-0-



[VERSE 2]
LET RING-------------¬-------------¬
"...whispers in your ear"
e -------------------0-------------0------------------------------------
B -------------------7---5-7-5-7-5-7---5-7-5-7-5------------------------
G ----------------------------------------------------------------------
D ----------------------------------------------------------------------
A ----------------------------------------------------------------------
E ----------------------------------------------------------------------

LET RING-------------¬-------------¬
"...get me out of    here"
e -------------------0-------------0------------------------------------
B -------------------7---5-7-5-7-5-7---5-7-5-7-5------------------------
G ----------------------------------------------------------------------
D ----------------------------------------------------------------------
A ----------------------------------------------------------------------
E ----------------------------------------------------------------------

LET RING-------------¬-------------¬
"...just another    taste"
e -------------------0-------------0------------------------------------
B -------------------7---5-7-5-7-5-7---5-7-5-7-5------------------------
G ----------------------------------------------------------------------
D ----------------------------------------------------------------------
A ----------------------------------------------------------------------
E ----------------------------------------------------------------------

LET RING-------------¬-------------¬
"...when she fades away"
e -------------------0-------------0------------------------------------
B -------------------7---5-7-5-7-5-7---5-7-5-7-5------------------------
G ----------------------------------------------------------------------
D ----------------------------------------------------------------------
A ----------------------------------------------------------------------
E ----------------------------------------------------------------------



[CHORUS 2]
LET RING-------------¬-------------¬

e -5-5-5-5-3-3-3-3---0-------------0-------------------------------------
B -5-5-5-5-3-3-3-3---7---5-7-5-7-5-7---5-7-5-7-5-------------------------
G -----------------------------------------------------------------------
D -----------------------------------------------------------------------
A -----------------------------------------------------------------------
E -----------------------------------------------------------------------

LET RING-----------------¬-------------¬-------------¬------------¬

e -7-7-7-7-10-10-10-10---0-------------0-------------0-------------0-------------
B -7-7-7-7-10-10-10-10---7---5-7-5-7-5-7---5-7-5-7-5-7---5-7-5-7-5-7---5-7-5-7-5-
G -------------------------------------------------------------------------------
D -------------------------------------------------------------------------------
A -------------------------------------------------------------------------------
E -------------------------------------------------------------------------------



[SOLO]
e ----------------------------------------------------------------------
B -17b(19)-17b(19)-17b(19)-17b(19)-17b(19)r17-14------------------------
G -----------------------------------------------16b(18)r16-14-14-14-16-
D ----------------------------------------------------------------------
A ----------------------------------------------------------------------
E ----------------------------------------------------------------------

  ----------------------------------------------------------------------
  -17-----------17-17-----------17-17---------17-17---------------------
  -16b(18)-(18)----16b(18)-(18)----16b(18)r16-14-16b(18)----------------
  ----------------------------------------------------------------------
  ----------------------------------------------------------------------
  ----------------------------------------------------------------------

  ----------------------------------------------------------------------
  ----------------------------------------------------------------------
  -4b(6)r4-2---2-4-4b(6)r4-2---2-4-4b(6)r4-4b(6)r4-2---2-4--------------
  -----------4---------------4-----------------------4------------------
  ----------------------------------------------------------------------
  ----------------------------------------------------------------------

  ----------------------------------------------------------------------
  ----------------------------------------------------------------------
  -4b(6)-4b(6)--(6)(6)(6)(6)(6)r4/6-------------------------------------
  ----------------------------------------------------------------------
  ----------------------------------------------------------------------
  ----------------------------------------------------------------------



[OUTRO]
LET RING-------------¬-------------¬

e -------------------0-------------0-------------------------------------
B -------------------7---5-7-5-7-5-7---5-7-5-7---------------------------
G -----------------------------------------------------------------------
D -----------------------------------------------------------------------
A -----------------------------------------------------------------------
E -----------------------------------------------------------------------

LET RING-----------------¬-------------¬

e -7-7-7-7-10-10-10-10---0-------------0---------------------------------
B -7-7-7-7-10-10-10-10---7---5-7-5-7-5-7---5-7-5-7-5---------------------
G -----------------------------------------------------------------------
D -----------------------------------------------------------------------
A -----------------------------------------------------------------------
E -----------------------------------------------------------------------

LET RING-------------¬-------------¬

e -5-5-5-5-3-3-3-3---0-------------0-------------------------------------
B -5-5-5-5-3-3-3-3---7---5-7-5-7-5-7---5-7-5-7-5-------------------------
G -----------------------------------------------------------------------
D -----------------------------------------------------------------------
A -----------------------------------------------------------------------
E -----------------------------------------------------------------------

DOUBLE TIME|------------|

e -7-7-777-10-10-10-10-10------------------------------------------------
B -7-7-777-10-10-10-10-10------------------------------------------------
G -----------------------------------------------------------------------
D -----------------------------------------------------------------------
A -----------------------------------------------------------------------
E -----------------------------------------------------------------------



****************************************************************************************
****************************************************************************************



Group/Singer Name:      Kings Of Leon
Song:                   "Genius"
Additional Info:        Youth & Young Manhood - Track 09
Tuning:                 Rhythm (Caleb) - Standard / Lead (Matthew) - Open G: [DGDGBd]
Tabbed By:              Dean Hill - Comments, Suggestions? the.scotsman@blueyonder.co.uk


[Chords Used]   G(355433); Bb(688766); A(577655); C(8[10][10]988);
                D([10][12][12][11][10][10]); B(799877)


[Intro]         | G       | G       | G       | G       |
                | G       | G       | G       | G       |


[Verse 1]       G
                Everybody wants to be a showman, yeah they all got another one,
                
                Everybody think they got a genius, everybody got me on the run,
                Bb                                    A
                Sometimes I think that you come here, just so you can say that you can,
                      G
                And I can't get alone in my bathroom, I need to give myself a hand.
                
                
[Link]          | G       | G       |
                
                
[Verse 2]       G
                Ya'll cuh, cuh, cuh, creepin', creepin' underneath my skin,
                
                Fuck you and your flashbulbs, snappin' my picture again,
                  Bb                          A
                A you drink all my whiskey, a you steal all my smoke,
                           G
                And you're crowded all around me, like I got nowhere to go.


[Bridge]                       C
                Eyes are gonna roll, back I'm here to kill,
                                Bb             A                | G       | G       |
                Time for you to go, I'm a gone spill, It ain't yo fast train,
                C
                I'll be the king, runnin' near the wheel,
                Bb                 D                   
                I ain't lookin' to make no deals here, (no!)


[Link]          | G       | G       | G       | G       |
                  no!
                

[Verse 3]       G
                A you keep stickin' to me, a like a prickly porcupine,

                You're gettin' your information, from the grocery checkout line,
                Bb                                  A
                Are you through confessin', of your little girl obsession,
                       G
                'Cause I was only messin', and I had a little time.
                
                
[Bridge]                       C
                Eyes are gonna roll, back I'm here to kill,
                                Bb             A                | G       | G       |
                Time for you to go, I'm a gone spill, It ain't yo fast train,
                C
                I'll be the king, runnin' near the wheel,
                Bb                 D                   
                I ain't lookin' to make no deals here, (no!)
                
                
[Link]          | G       | G       |
                  no!


[Pre-Solo]      | A       | A       | B       | C    D  |


[Solo]          |Bb A   |  G    |
                |Bb A   |  G    |
                |Bb A   |  G    |
                |Bb A   |  G    |
                
                
[Bridge]                       C
                Eyes are gonna roll, back I'm here to kill,
                                Bb             A                | G       | G       |
                Time for you to go, I'm a gone spill, It ain't yo fast train,
                C
                I'll be the king, runnin' near the wheel,
                Bb                 D                 | G       | G       |
                I ain't lookin' to make no deals here, No! No! No! No! No! No!
                               C
                Eyes are gonna roll, back I'm here to kill,
                                Bb             A                | G       | G       |
                Time for you to go, I'm a gone spill, It ain't yo fast train,
                C
                I'll be the king, runnin' near the wheel,
                Bb                 D                   
                I ain't lookin' to make no deals here, (no!)
                
                
[Outro]         | G       | G       | G       | G       |
                  no!
                | G       | G       | G       |




                ***********************************
                *KINGS OF LEON - GENIUS LEAD PARTS*
                ***********************************


b  -  Bend
() -  Bracketed numbers are the note you bend up to
h  -  Hammer On
p  -  Pull Off
r  -  Return
/  -  Slide Up
\  -  Slide Down
d  -  Strum Down
u  -  Strum Up
PM -  Palm Mute
NH -  Natural Harmonics
^  -  Vibrato



[INTRO] X8
d -------------5-
B ---0----5------
G -----0----0----
D ---------------
G ---------------
D -5-----5---5---


[VERSE 1] X4      THEN---¬       THEN BACK TO---¬ X2
d -------------5-       --------                -------------5-
B ---0----5------       -3----2-                ---0----5------
G -----0----0----       -3----2-                -----0----0----
D ---------------       -3----2-                ---------------
G ---------------       --------                ---------------
D -5-----5---5---       --------                -5-----5---5---



[LINK] X2
d -------------5-
B ---0----5------
G -----0----0----
D ---------------
G ---------------
D -5-----5---5---



[VERSE 2] X4      THEN---¬       THEN BACK TO---¬ X3
d -------------5-       --------                -------------5-
B ---0----5------       -3----2-                ---0----5------
G -----0----0----       -3----2-                -----0----0----
D ---------------       -3----2-                ---------------
G ---------------       --------                ---------------
D -5-----5---5---       --------                -5-----5---5---

THIS IS THE PART THAT I THINK THE SLIDE GUITAR IS OVER-DUBBED.
IT CAN'T POSSIBLY BE PLAYED BY CALEB AS HE'S IN STANDARD TUNING THROUGHOUT.
THE SLIDE GUITAR PART IN QUESTION, STARTS ON THE 3RD BAR OF THE LAST
ARPEGGIATED BIT, AND IT'S TAB IS:

                                d -X----X-
                                B -9-/-12-
                                G -9-/-12-
                                D -X----X-
                                G -X----X-
                                D -X----X-

SO YOU CAN DECIDE WHAT PART YOU WANT TO PLAY!



[BRIDGE]
"...Eyes are gonna roll"
d -----------------X-X-X-X-X-X-X-X-X-X-X-X-X-X-X-X----------------------
B -----------------X-X-X-X-X-X-X-X-X-X-X-X-X-X-X-X----------------------
G -----------------5-5-5-5-5-5-5-5-3-3-3-3-2-2-2-2----------------------
D -----------------5-5-5-5-5-5-5-5-3-3-3-3-2-2-2-2----------------------
G -----------------5-5-5-5-5-5-5-5-3-3-3-3-2-2-2-2----------------------
D -----------------X-X-X-X-X-X-X-X-X-X-X-X-X-X-X-X----------------------

  ----------------------------------------------------------------------
  -3--3--3----------3--3--3---------------------------------------------
  ----------5--3------------5-3-----------------------------------------
  ---------------5--------------5---------------------------------------
  ----------------------------------------------------------------------
  ----------------------------------------------------------------------

"...I'll be the king"
d --X-X-X-X-X-X-X-X-X-X-X-X-X-X-X---------------------------------------
B --X-X-X-X-X-X-X-X-X-X-X-X-X-X-X---------------------------------------
G --5-5-5-5-5-5-5-5-3-3-3-3-7-7-7---------------------------------------
D --5-5-5-5-5-5-5-5-3-3-3-3-7-7-7---------------------------------------
G --5-5-5-5-5-5-5-5-3-3-3-3-7-7-7---------------------------------------
D --X-X-X-X-X-X-X-X-X-X-X-X-X-X-X---------------------------------------



[LINK] X4
d -------------5-
B ---0----5------
G -----0----0----
D ---------------
G ---------------
D -5-----5---5---



[VERSE 3] X4      THEN---¬       THEN BACK TO---¬ X3
d -------------5-       --------                -------------5-
B ---0----5------       -3----2-                ---0----5------
G -----0----0----       -3----2-                -----0----0----
D ---------------       -3----2-                ---------------
G ---------------       --------                ---------------
D -5-----5---5---       --------                -5-----5---5---


AND THAT SLIDE GUITAR PART.
JUST A LITTLE DIFFERENT THIS TIME:
                                 d -X----X--X--X--X--X-
                                 B -9-/-12-12-12-12-12
                                 G -9-/-12-12-12-12-12-
                                 D -X----X--X--X--X--X-
                                 G -X----X--X--X--X--X-
                                 D -X----X--X--X--X--X-



[BRIDGE]
"...Eyes are gonna roll"
d -----------------X-X-X-X-X-X-X-X-X-X-X-X-X-X-X-X----------------------
B -----------------X-X-X-X-X-X-X-X-X-X-X-X-X-X-X-X----------------------
G -----------------5-5-5-5-5-5-5-5-3-3-3-3-2-2-2-2----------------------
D -----------------5-5-5-5-5-5-5-5-3-3-3-3-2-2-2-2----------------------
G -----------------5-5-5-5-5-5-5-5-3-3-3-3-2-2-2-2----------------------
D -----------------X-X-X-X-X-X-X-X-X-X-X-X-X-X-X-X----------------------

  ----------------------------------------------------------------------
  -3--3--3----------3--3--3---------------------------------------------
  ----------5--3------------5-3-----------------------------------------
  ---------------5--------------5---------------------------------------
  ----------------------------------------------------------------------
  ----------------------------------------------------------------------

"...I'll be the king"
d --X-X-X-X-X-X-X-X-X-X-X-X-X-X-X-X-------------------------------------
B --X-X-X-X-X-X-X-X-X-X-X-X-X-X-X-X-------------------------------------
G --5-5-5-5-5-5-5-5-3-3-3-3-7-7-7-7-------------------------------------
D --5-5-5-5-5-5-5-5-3-3-3-3-7-7-7-7-------------------------------------
G --5-5-5-5-5-5-5-5-3-3-3-3-7-7-7-7-------------------------------------
D --X-X-X-X-X-X-X-X-X-X-X-X-X-X-X-X-------------------------------------

  ----------------------------------------------------------------------
  -3--3--3----------3--3--3---------------------------------------------
  ----------5--3------------5-3-----------------------------------------
  ---------------5--------------5---------------------------------------
  ----------------------------------------------------------------------
  ----------------------------------------------------------------------



[PRE-SOLO]
d ----------------------------------------------------------------------
B ----------------------------------------------------------------------
G -X-2-X-2-X-2-X-2-X-2-X-2-X-2-X-2-X-4-X-4-X-4-X-4/5-5-/7-7-------------
D -X-2-X-2-X-2-X-2-X-2-X-2-X-2-X-2-X-4-X-4-X-4-X-4/5-5-/7-7-------------
G ----------------------------------------------------------------------
D ----------------------------------------------------------------------



[SOLO]
d ----------------------------------------------------------------------
B -14b(16)-12-14b(16)-12-14b(16)-12-14b(16)-12^^\--18b(20)-(20)r18------
G ----------------------------------------------------------------------
D ----------------------------------------------------------------------
G ----------------------------------------------------------------------
D ----------------------------------------------------------------------

  -------------------------------------------------12-------------------
  -18p15------------18b(20)r18--18-18b(20)--r18-15-15-------------------
  ------17p1517p15------------------------------------------------------
  ----------------------------------------------------------------------
  ----------------------------------------------------------------------
  ----------------------------------------------------------------------

  ----------------------------------------------------------------------
  ---------------14-----------------------------------------------------
  -17-15-17-15-17---17-15-12-\------------------------------------------
  ----------------------------------------------------------------------
  ----------------------------------------------------------------------
  ----------------------------------------------------------------------



[BRIDGE]
"...Eyes are gonna roll"
d -----------------X-X-X-X-X-X-X-X-X-X-X-X-X-X-X-X----------------------
B -----------------X-X-X-X-X-X-X-X-X-X-X-X-X-X-X-X----------------------
G -----------------5-5-5-5-5-5-5-5-3-3-3-3-2-2-2-2----------------------
D -----------------5-5-5-5-5-5-5-5-3-3-3-3-2-2-2-2----------------------
G -----------------5-5-5-5-5-5-5-5-3-3-3-3-2-2-2-2----------------------
D -----------------X-X-X-X-X-X-X-X-X-X-X-X-X-X-X-X----------------------

  ----------------------------------------------------------------------
  -3--3--3----------3--3--3---------------------------------------------
  ----------5--3------------5-3-----------------------------------------
  ---------------5--------------5---------------------------------------
  ----------------------------------------------------------------------
  ----------------------------------------------------------------------

"...I'll be the king"
d --X-X-X-X-X-X-X-X-X-X-X-X-X-X-X-X-------------------------------------
B --X-X-X-X-X-X-X-X-X-X-X-X-X-X-X-X-------------------------------------
G --5-5-5-5-5-5-5-5-3-3-3-3-7-7-7-7-------------------------------------
D --5-5-5-5-5-5-5-5-3-3-3-3-7-7-7-7-------------------------------------
G --5-5-5-5-5-5-5-5-3-3-3-3-7-7-7-7-------------------------------------
D --X-X-X-X-X-X-X-X-X-X-X-X-X-X-X-X-------------------------------------

  ----------------------------------------------------------------------
  -3--3--3----------3--3--3---------------------------------------------
  ----------5--3------------5-3-----------------------------------------
  ---------------5--------------5---------------------------------------
  ----------------------------------------------------------------------
  ----------------------------------------------------------------------

"...Eyes are gonna roll"
d -----------------X-X-X-X-X-X-X-X-X-X-X-X-X-X-X-X----------------------
B -----------------X-X-X-X-X-X-X-X-X-X-X-X-X-X-X-X----------------------
G -----------------5-5-5-5-5-5-5-5-3-3-3-3-2-2-2-2----------------------
D -----------------5-5-5-5-5-5-5-5-3-3-3-3-2-2-2-2----------------------
G -----------------5-5-5-5-5-5-5-5-3-3-3-3-2-2-2-2----------------------
D -----------------X-X-X-X-X-X-X-X-X-X-X-X-X-X-X-X----------------------

  ----------------------------------------------------------------------
  -3--3--3----------3--3--3---------------------------------------------
  ----------5--3------------5-3-----------------------------------------
  ---------------5--------------5---------------------------------------
  ----------------------------------------------------------------------
  ----------------------------------------------------------------------

"...I'll be the king"
d --X-X-X-X-X-X-X-X-X-X-X-X-X-X-X---------------------------------------
B --X-X-X-X-X-X-X-X-X-X-X-X-X-X-X---------------------------------------
G --5-5-5-5-5-5-5-5-3-3-3-3-7-7-7---------------------------------------
D --5-5-5-5-5-5-5-5-3-3-3-3-7-7-7---------------------------------------
G --5-5-5-5-5-5-5-5-3-3-3-3-7-7-7---------------------------------------
D --X-X-X-X-X-X-X-X-X-X-X-X-X-X-X---------------------------------------



[OUTRO] X7 TO FADE
d -------------5-
B ---0----5------
G -----0----0----
D ---------------
G ---------------
D -5-----5---5---




****************************************************************************************
****************************************************************************************



Group/Singer Name:      Kings Of Leon
Song:                   "Dusty"
Additional Info:        Youth & Young Manhood - Track 10
Tuning:                 Standard - [EADGBe]
Tabbed By:              Dean Hill - Comments, Suggestions? the.scotsman@blueyonder.co.uk


[Chords Used]   E(022100); G6(355400); Aadd9(577600); Badd11(799800); A(X02220);
                G7#9/D(X5530X)


[Intro]         | E     G6 | E     G6 | E     G6 | E     G6 |


[Verse 1]     E                  Badd11   E                 Aadd9
                Dusty in your eye-s,         dirty from cha-ins,
              E                  G6  E                        G6
                Lips of your kisses,   are stickin' like taint.
              E                  Badd11   E                Aadd9
                Woke you at sunri-se,        cold as a gra-ave,
              E                     G6  E                   G6  E                   G6
                I cut you some flowe-rs,   now don't be afra-id.    No don't be afra-id.

                
[Bridge]      A
                I'm a lookin' for something,
                                               | E     G6 | E     G6 |
                To sink in my teeth, without any cryin'.
              A
                But I can't find no place or nuthin',
                                                     | E     G6 | E     G6 |
                Where thrills are cheap, and love is divine.
                
                
[Verse 2]     E                 Badd11   E                 Aadd9
                Home by the river,          tall grassy fields,
              E            G6 E                   G6
                Under willow,    where for to kneel.
              E              Badd11  E                  Aadd9
                Dusty oh Dusty,         this is your ni-ight,
              E                   G6 E                    G6 E                       G6
                You'll be so pretty,    all laced in white.     All laced up in white.
                
                
[Bridge]      A
                I'm a lookin' for something,
                                               | E     G6 | E     G6 |
                To sink in my teeth, without any cryin'.
              A
                But I can't find no place or nuthin',
                                                    | E     G6 | E     G6 |
                Where thrills are cheap and love is divine.
                
                
[Bridge]      A
                I'm a lookin' for something,
                                               | E     G6 | E     G6 |
                To sink in my teeth, without any cryin'.
              A
                But I can't find no place or nuthin',
                                                    | E     G6 | E        |
                Where thrills are cheap and love is divine.
                
                
[Middle 8]      | G7#9/D  | G7#9/D  | E     G6 | E     G6 |
                | G7#9/D  | G7#9/D  | E     G6 | E     G6 |


[Bridge]      A
                I'm a lookin' for something,
                                               | E           G6 | E           G6 |
                To sink in my teeth, without any cryin'. (Yeah!, Oh!)
              A
                But I can't find no place or nuthin', (Hey!)
                                                    | E           G6 | E           G6 |
                Where thrills are cheap and love is divine. (Hey!)
                
                
[Outro]         | E     G6 | E     <------[STRUMMING ENDS AT END OF 2ND BEAT OF 2ND BAR]

                                  Badd11<---Aadd9-------------E-[STRUMMING STARTS AGAIN]
                Where thrills are cheap,         and love's divine.
                                  Badd11    Aadd9             E
                Where thrills are cheap,         and love's divine.
                                  Badd11    Aadd9             E
                Where thrills are cheap,         and love's divine.
                                  Badd11    Aadd9             E
                Where thrills are cheap,         and love's divine.
                                  Badd11    Aadd9             E(.)
                Where thrills are cheap,         and love's divine.




               **********************************
               *KINGS OF LEON - DUSTY LEAD PARTS*
               **********************************


b  -  Bend
() -  Bracketed numbers are the note you bend up to
h  -  Hammer On
p  -  Pull Off
r  -  Return
/  -  Slide Up
\  -  Slide Down
d  -  Strum Down
u  -  Strum Up
PM -  Palm Mute
NH -  Natural Harmonics
^  -  Vibrato



[INTRO] - @ [00:04] (USING A SLIDE)
e -9/12-----------------------------------------------------------------
B -9/12-----------------------------------------------------------------
G ----------------------------------------------------------------------
D ----------------------------------------------------------------------
A ----------------------------------------------------------------------
E ----------------------------------------------------------------------



[VERSE 1] - @ [00:34]
e ----------------------------------------------------------------------
B -8---------------------------------------------------------------------
G ----------------------------------------------------------------------
D ----------------------------------------------------------------------
A ----------------------------------------------------------------------
E ----------------------------------------------------------------------



[BRIDGE] - @ [00:46]            @  [01:00]---¬
e ----------------------------------------------------------------------
B -7/8----------------8-----------------------8--------------8----------
G -----------------9--------------------------------------------9-7-9---
D ----------------------------------------------------------------------
A ----------------------------------------------------------------------
E ----------------------------------------------------------------------



[VERSE 2] - [01:26]     @ [01:33]--¬
PLAY GENTLY-¬
e ----------------------------------------------------------------------
B ----------------------------------------------------------------------
G ----------------------------------6/7----7----------------------------
D ----------7-9--------------------------9------------------------------
A ----------------------------------------------------------------------
E ----------------------------------------------------------------------



[BRIDGE] - @ [01:45]   SLIGHT BEND--¬
e ----------------------------------------------------------------------
B -7/8--8-8-8-8----8--10-8-10-8---8-8-----------------------------------
G ---------------9--------------------9----7-9-7-9--7-------------------
D ----------------------------------------------------9-----------------
A ----------------------------------------------------------------------
E ----------------------------------------------------------------------

[01:59]
  ----------------------------------------------------------------------
  -7/8--8-10-8-10-------X---8-------------------------------------------
  ----------------------------7-----------------------------------------
  ----------------------------------------------------------------------
  ----------------------------------------------------------------------
  ----------------------------------------------------------------------



[BRIDGE] - @ [02:12]
  -------------5--5-----------------------------------------------------
  -7/8--8-8-8--8--8----------------------10-----8-----------------------
  ------------------------------------------9---------------------------
  ----------------------------------------------------------------------
  ----------------------------------------------------------------------
  ----------------------------------------------------------------------

[02:30]
  -----------------------------------------------0----------------------
  -------------------------------6/8-8-8----8-8-10-8-/------------------
  ----------------------------------------9-----------------------------
  ---5---5-------------5------------------------------------------------
  -7---7-----7-5---5/7---7----------------------------------------------
  ----------------------------------------------------------------------



[MIDDLE 8] - @ [02:41]
(SIMULATED)
  -----------------------------------3/88888888-8-8-8-------------------
  -0-0-0-0-0---0-0-0-0-0---0-0-0-0-0------------------0-----------------
  -3-3-3-3-3---3-3-3-3-3---3-3-3-3-3------------------3---3--3-/-12--12-
  ----------------------------------------------------------------------
  ----------------------------------------------------------------------
  ----------------------------------------------------------------------

  -------------------------------------------------------------------------------
  -0-0-0-0-0-0-0-0-0-0-0-0-0-0-0-0-0-0-0-0-0-0-0-0-------------------------------
  -3-3-3-3-3-3-3-3-3-3-3-3-3-3-3-3-3-3-3-3-3-3-3-3/12-12-12-12-12-12-12-12-12-12-
  -------------------------------------------------------------------------------
  -------------------------------------------------------------------------------
  -------------------------------------------------------------------------------



[BRIDGE] - @ [03:22]
e ------------------------------------------0---------------------------
B ---------------------9b(10)--------(10)-(10)-r9-----------------------
G ------------------------------------------------9--7-9-7------7-9-9-7-
D ---------------------------------------------------------9--9---------
A ----------------------------------------------------------------------
E ----------------------------------------------------------------------



[OUTRO] - @ [03:53]
This end bit is real sketchy and I couldn't tell you what is played exactly.
It sounds a bit like a distorted E-Bow at the 12th fret, 1st string.
To replicate this, or what I THINK I hear, try continually playing this.

e -12-12-12-12-12-12-12-12-12-12-12-12-12-12-12-12-12-12-12-12-12-12-12-
B ----------------------------------------------------------------------
G --9--9--9--9--9--9--9--9--9--9--9--9--9--9--9--9--9--9--9--9--9--9--9-
D ----------------------------------------------------------------------
A ----------------------------------------------------------------------
E ----------------------------------------------------------------------

It's not perfect in any way, but it's a work-around.




****************************************************************************************
****************************************************************************************


Group/Singer Name:      Kings Of Leon
Song:                   "Holy Roller Novocaine"
Additional Info:        Youth & Young Manhood - Track 11
Tuning:                 Standard - [EADGBe]
Tabbed By:              Dean Hill - Comments, Suggestions? the.scotsman@blueyonder.co.uk


[Chords Used]   E(022100); G(355433); Bb(688766); C(8[10][10]988); A(577655)


[Intro]         [8 BAR INTRO]           [BASS LINE]-----> E--0--0-3--0--0-5-3--
                                        [GUITAR ENTERS AFTER 4TH BAR][PALM MUTED]


[Verse 1]       [PALM MUTED CHORDS]
                   E                          G
                My darling you look lovely, I come to lay you down,
                E                                         G
                Uncover your head and submit to me, we’ll make a joyful sound,
                E
                I don’t care if you’re by yourself,
                          G
                Or you’re all alone when you need my help,
                E
                Keep that smile on your pretty face,
                          G
                Cause you don’t have much I can’t take away.


[Bridge]     C                        Bb
                Don’t you worry baby, you won’t feel a thing,
             C                        Bb<--------------------------[EVERYTHING CUTS OUT]
                Close your eyes, Holy Roller Novocaine.
                
                
[Chorus]     E
                Lord’s gone get us back, Lord’s gone get us back,
             G                                                              E
                Lord’s gone get us back, Lord’s gone get us back, I know, I know.
                
                Lord’s gone get us back, Lord’s gone get us back,
             G
                Lord’s gone get us back, Lord’s gone get us back.
                
                
[Link]          |  E  |  E  |  G  |  G  |


[Verse 2]       E                                G
                You’ll be hearin’ me comin’, but I can’t come inside,
                E                                                G
                I’ll be out back in my white Cadillac, won’t you join me for a ride,
                E
                We'll go up, to the mountain top,
                           G
                There I’ll show you all of the goods I got,
                E
                Don’t look back keep your eyes ahead,
                           G
                This could be the night that the moon goes red, Oh Lord!


[Bridge]     C                          Bb
                Don’t you worry baby, a you won’t feel a thing,
             C                        Bb<--------------------------[EVERYTHING CUTS OUT]
                Close your eyes, Holy Roller Novocaine.


[Chorus]     E
                Lord’s gone get us back, Lord’s gone get us back,
             G                                                              E
                Lord’s gone get us back, Lord’s gone get us back, I know, I know.
                
                Lord’s gone get us back, Lord’s gone get us back,
             G
                Lord’s gone get us back, Lord’s gone get us back.
                
                
[Solo]          |  A  |  A  |  C  |  C  |
                |  A  |  A  |  C  |  C  |<-------------------------[EVERYTHING CUTS OUT]
                
                
[Outro/Verse]   | CLAPPING  | CLAPPING  |
                
                [CLAPPING PLAYED OVER LYRICS]
                [ORGAN PLAYS OVER LYRICS] [NO GUITARS]
                
                E                             G
                All the world is moanin’, and baby so am I,
             E                                   G               <-[EVERYTHING CUTS OUT]
                I’m just givin’ you warning, and I’m telling you why.


[Outro ]     E
                Lord’s gone get us back, Lord’s gone get us back,
             G                                                              E
                Lord’s gone get us back, Lord’s gone get us back, I know, I know.
                
                Lord’s gone get us back, Lord’s gone get us back,
             G                                                          E
                Lord’s gone get us back, Lord’s gone get us back, I kno-w.

                Lord’s gone get us back, Lord’s gone get us back,
             G                                                              E
                Lord’s gone get us back, Lord’s gone get us back, I know, I know.
                
                Lord’s gone get us back, Lord’s gone get us back,
             G                                                              E(.)
                Lord’s gone get us back, Lord’s gone get us back, I know, I know.




           **************************************************
           *KINGS OF LEON - HOLY ROLLER NOVOCAINE LEAD PARTS*
           **************************************************



b  -  Bend
() -  Bracketed numbers are the note you bend up to
h  -  Hammer On
p  -  Pull Off
r  -  Return
/  -  Slide Up
\  -  Slide Down
d  -  Strum Down
u  -  Strum Up
PM -  Palm Mute
NH -  Natural Harmonics
^  -  Vibrato


[INTRO] - NOTHING PLAYED



[VERSE 1] - @ [00:37] FOLLOW CHORDS AS NORMAL. (PALM MUTED)



[BRIDGE]
e -XXX------------------------------------------------------------------
B -XXX------------------------------------------------------------------
G -XXX--9--9----9----9----9----7----7----7----7----9----9----9----9--7--
D -XXX-10-10---10---10---10----8----8----8----8---10---10---10---10--8--
A -XXX-10-10---10---10---10----8----8----8----8---10---10---10---10--8--
E -XXX--8--8----8----8----8----6----6----6----6----8----8----8----8--6--



[CHORUS] - FOLLOW CHORDS AS NORMAL



[LINK]
e -7-7-7-7-7-7-7-7-7-7-7-7-7-7-7-7-0-0-0-0-0-0-0-0-0-0-0-0-0-0-0-0------
B -5-5-5-5-5-5-5-5-0-0-0-0-0-0-0-0-3-3-3-3-3-3-3-3-3-3-3-3-3-3-3-3------
G ----------------------------------------------------------------------
D ----------------------------------------------------------------------
A ----------------------------------------------------------------------
E ----------------------------------------------------------------------



[VERSE 2] - FOLLOW CHORDS AS NORMAL. (PALM MUTED)



[BRIDGE]
e -XXX------------------------------------------------------------------
B -XXX------------------------------------------------------------------
G -XXX--9--9----9----9----9----7----7----7----7----9----9----9----9--7--
D -XXX-10-10---10---10---10----8----8----8----8---10---10---10---10--8--
A -XXX-10-10---10---10---10----8----8----8----8---10---10---10---10--8--
E -XXX--8--8----8----8----8----6----6----6----6----8----8----8----8--6--



[CHORUS] - FOLLOW CHORDS AS NORMAL



[SOLO]
e -8-8-8-8-8-8-8-8-8-8-8-11-11-11-11-11-11-11-11-11-11-11---------------
B ----------------------------------------------------------------------
G ----------------------------------------------------------------------
D ----------------------------------------------------------------------
A ----------------------------------------------------------------------
E ----------------------------------------------------------------------

  ------------------------8b(9)-8b(9)-8b(9)-8b(9)-8b(9)-[PICK 19TH FRET FAST]-
  ----------------------------------------------------------------------------
  ----------------------------------------------------------------------------
  ----------------------------------------------------------------------------
  ----------------------------------------------------------------------------
  -3sb(5)---(5)(5)(4)3--------------------------------------------------------



[OUTRO/VERSE] - NOTHING PLAYED



[OUTRO] - FOLLOW CHORDS AS NORMAL 'TIL [03:30], THEN PLAY...

e -7-7-7-7-7-7-7-7-7-7-7-7-7-7-7-7-0-0-0-0-0-0-0-0-0-0-0-0-0-0-0-0------
B -5-5-5-5-5-5-5-5-0-0-0-0-0-0-0-0-3-3-3-3-3-3-3-3-3-3-3-3-3-3-3-3------
G ----------------------------------------------------------------------
D ----------------------------------------------------------------------
A ----------------------------------------------------------------------
E ----------------------------------------------------------------------

  -7-7-7-7-7-7-7-7-7-7-7-7-7-7-7-7-10-10-10-10-10-10-10-10-10-10-10-10-10-10-10-10-7-
  -5-5-5-5-5-5-5-5-5-5-5-5-5-5-5-5--8--8--8--8--8--8--8--8--8--8--8--8--8--8--8--8-5-
  -----------------------------------------------------------------------------------
  -----------------------------------------------------------------------------------
  -----------------------------------------------------------------------------------
  -----------------------------------------------------------------------------------




****************************************************************************************
****************************************************************************************



Group/Singer Name:      Kings Of Leon
Song:                   "Talihina Sky"
Additional Info:        Youth & Young Manhood - Track 12 (Bonus, 08:21 into Track 11)
Tuning:                 Standard [EADGBe]
Tabbed By:              Dean Hill - Comments, Suggestions? the.scotsman@blueyonder.co.uk


[Chords Used]   D(X57775); Bm(X24432); G(320003); A(X02220)


[Intro]         |D        |Bm       |D        |Bm       |


[Verse 1]       D                              Bm
                Winds, blow, down, on the bro-ken train track,
                D                            Bm
                Ruby draws we're fissin' to get high,
             D                                                              Bm
                Maybe we'll hit the blunts and find ourselves the same old road.


[Bridge]     G                                              A
                But everybody says this place is beautiful,
                                                    G
                And you'd be so crazy to say goodby-e,
                                                                A
                But everything's the same this town is pitiful,
                                    A(.)
                And I'll be gettin' out as soon as I ca(-n fly.)
                
                
[Link]          |D        |Bm       |
                 -n fly.


[Chorus]        D               Bm
                Life goes by,       under Talihina sky.


[Verse 2]         D                                   Bm
                A hopped, up, boys, are lookin' for their trouble,
                    D                                          Bm
                And knocked, up, girls, well they've all got their share,
             D                                                         D
                Ruby seems out her mind, swears she won't give in this time, hey.
                
                
[Bridge]     G                                               A
                Well everybody says this place is beautiful,
                                                   G
                And you'd be so crazy to say good-bye,
                                                                A
                But everything's the same this town is pitiful,
                                    A(.)
                And I'll be gettin' out as soon as I ca(-n fly.)
                
                
[Link]          |D        |Bm       |
                 -n fly.


[Chorus]        D               Bm
                Life goes by,       under Talihina sky.
                  D              Bm
                A Life goes by,       under Talihina sky. Here a I go boy(-s!)
                
                
[Link]          |D        |Bm       |D        |Bm       |
                 -s!


[Bridge]     G                                               A
                Well everybody says this place is beautiful,
                                                   G
                And you'd be so crazy to say goodbye,
                                                                A
                But everything's the same this town is pitiful,
                                    A(.)
                And I'll be gettin' out as soon as I ca(-n fly.)
                
                
[Link]          |D        |Bm       |
                 -n fly.


[Chorus]        D               Bm
                Life goes by,       under Talihina sky.
                  D              Bm
                A Life goes by,       under Talihina sky. Ahh!
                
                
[Outro]         |D        |Bm       |D        |Bm       |
                |Bm(.)






                *****************************************
                *KINGS OF LEON - TALIHINA SKY LEAD PARTS*
                *****************************************


b  -  Bend
() -  Bracketed numbers are the note you bend up to
h  -  Hammer On
p  -  Pull Off
r  -  Return
/  -  Slide Up
\  -  Slide Down
d  -  Strum Down
u  -  Strum Up
PM -  Palm Mute
NH -  Natural Harmonics
^  -  Vibrato


THERE'S NOT A LOT TO THIS, BUT IT TAKES A LITTLE BIT OF PRACTICE
TO GET THE NOTES SOUNDING PERFECT. - SO HERE GOES:



[INTRO] - FIRST 2 BARS, RHYTHM PLAYS STATED D AND Bm CHORDS.
          THE NEXT 2 BARS, LEAD JOINS IN AND PLAYS:
          D([10][12][12][11][10][10]) AND Bm(799777).
          
          

[VERSE 1]
THE D CHORD PART: X3

e ---------10------12------10------
B -10--10-----10------10------10---
G -11----11-----11------11------11-
D -12------------------------------
A -12------------------------------
E ---------------------------------

AND THE Bm CHORD PART: X3

e ---------------------------------
B -7-----7----10----7--------------
G -7--7----7-----7----7------------
D -9---9----9-----9----9-----------
A -9-------------------------------
E ---------------------------------



[BRIDGE] - RHYTHM PLAYS STATED G AND A CHORDS, WHILE LEAD PLAYS
           G AND A BARRE CHORDS: G(355433) AND A(577655).



[LINK] - RHYTHM PLAYS STATED D AND Bm CHORDS.
         LEAD PLAYS: D([10][12][12][11][10][10]) AND Bm(799777).
         


[CHORUS]
THE D CHORD PART: X1

e ---------10------12------10------
B -10--10-----10------10------10---
G -11----11-----11------11------11-
D -12------------------------------
A -12------------------------------
E ---------------------------------

AND THE Bm CHORD PART: X1

e ---------------------------------
B -7-----7----10----7--------------
G -7--7----7-----7----7------------
D -9---9----9-----9----9-----------
A -9-------------------------------
E ---------------------------------




[VERSE 2]
THE D CHORD PART: X3

e ---------10------12------10------
B -10--10-----10------10------10---
G -11----11-----11------11------11-
D -12------------------------------
A -12------------------------------
E ---------------------------------

AND THE Bm CHORD PART: X3

e ---------------------------------
B -7-----7----10----7--------------
G -7--7----7-----7----7------------
D -9---9----9-----9----9-----------
A -9-------------------------------
E ---------------------------------



[BRIDGE] - RHYTHM PLAYS STATED G AND A CHORDS, WHILE LEAD PLAYS
           G AND A BARRE CHORDS: G(355433) AND A(577655).



[LINK] - RHYTHM PLAYS STATED D AND Bm CHORDS.
         LEAD PLAYS: D([10][12][12][11][10][10]) AND Bm(799777).



[CHORUS]
THE D CHORD PART: X2

e ---------10------12------10------
B -10--10-----10------10------10---
G -11----11-----11------11------11-
D -12------------------------------
A -12------------------------------
E ---------------------------------

AND THE Bm CHORD PART: X2

e ---------------------------------
B -7-----7----10----7--------------
G -7--7----7-----7----7------------
D -9---9----9-----9----9-----------
A -9-------------------------------
E ---------------------------------



[LINK] - RHYTHM PLAYS STATED D AND Bm CHORDS.
         LEAD PLAYS THIS: X4
e ------------9----5----
B ---7--5--5----5----5--
G -7--7-----7----7----7-
D ----------------------
A ----------------------
E ----------------------

THERE'S ALSO A CLEAN ELECTRIC GUITAR THAT PLAYS THE ABOVE PART X3,
THEN ON THE 4TH TIME IT PLAYS:
e ------------9------------5-
B ---7--5--5------5--7-5-----
G -7--7-----7---7--7-----7---
D ---------------------------
A ---------------------------
E ---------------------------



[BRIDGE] - RHYTHM PLAYS STATED G AND A CHORDS, WHILE LEAD PLAYS
           G AND A BARRE CHORDS: G(355433) AND A(577655).



[LINK] - RHYTHM PLAYS STATED D AND Bm CHORDS.
         LEAD PLAYS: D([10][12][12][11][10][10]) AND Bm(799777).



[CHORUS]
THE D CHORD PART: X2

e ---------10------12------10------
B -10--10-----10------10------10---
G -11----11-----11------11------11-
D -12------------------------------
A -12------------------------------
E ---------------------------------

AND THE Bm CHORD PART: X2

e ---------------------------------
B -7-----7----10----7--------------
G -7--7----7-----7----7------------
D -9---9----9-----9----9-----------
A -9-------------------------------
E ---------------------------------



[OUTRO] - RHYTHM PLAYS STATED D AND Bm CHORDS.
          ACOUSTIC LEAD PLAYS THIS 4 TIMES.
e ------------9----5----
B ---7--5--5----5----5--
G -7--7-----7----7----7-
D ----------------------
A ----------------------
E ----------------------
          THE CLEAN ELECTRIC LEAD PLAYS THE ABOVE PART 3 TIMES.
          THEN ON THE 4TH TIME IT PLAYS:
e ------------9------------5-
B ---7--5--5------5--7-5-----
G -7--7-----7---7--7-----7---
D ---------------------------
A ---------------------------
E ---------------------------


          AND THE ACOUSTIC LEAD GIVES A FINAL STRUM OF:
e --7--
B --7--
G --7--
D --9--
A --9--
E --7--



****************************************************************************************
****************************************************************************************
                                           PHEW!
                             THANK YOU FOR DOWNLOADING THIS FILE
****************************************************************************************
****************************************************************************************
comments
print report bad tab
8 comments total. Showing first comments.
+1 reply
tom_b87 wrote on February 7 2004, 12:00 am

cheers mate. that must have taken you ages!

+1 reply
Nixon wrote on May 6 2004, 12:00 am

Decent work bruv...keep it up.This album is the dogs nachos!

+1 reply
chrkr wrote on May 9 2004, 12:00 am

Great Tab, one little thing though, the bass line on holy roller novocaine isn't E|--0--0-3--0--0-5-3--| , it is
E|--0--0-3--0--0-6-5--| , nevertheless best album tab i've ever seen

I want to post or [tab]
guest
You may want to rate the tab now too:
select rating
Please do not post tabs as comments. Select "correction" instead!