Oops, an error
Loading. Please wait.

2000 Man Tab

by Kiss
ver2
ver2

Whole song

Interactive

More versions @911Tabs.com
3,260 views 3 this week
no commentswrite comment
1 2 3 4 5
worth learning
x 2
Autoscroll
+/-
esc
set tempo
stop
Contributor
Difficulty
Tuning
novice
D# G# C# F# A# D#
Hey! There's an official Ultimate Guitar app which is ideal
for learning songs when you're away from computer. Get the app
WARNING: You are trying to view
                                    content from Ultimate-Guitar.com
                                    in an unauthorized application,
                                    which is prohibited.

                                    Please use an official Ultimate
                                    Guitar Tabs application for iPhone,
                                    iPad or Android to access legitimate
                                    chords, guitar, bass, and drum tabs
                                    from Ultimate-Guitar.com database.

                                    Type "ultimate guitar tabs" in Apple
                                    App Store's or Android Market's
                                    search to find the application.
2,000 MAN
Mick Jagger, Keith Richards

Intro
Eb|---------------------------------------------------|
Bb|--------------------------------------------2/-----|
Gb|--2--------2--------2-----2--------2--------2/-----|
Db|--2--2--2--2--2--2--2--2--2--2--2--2--2--2--2/-----|
Ab|--0--0--0--0--0--0--0--0--0--0--0--0--0--0--0------|
Eb|---------------------------------------------------|


    
                                                 
Eb|---------------------------------------------------|
Bb|---------------------------------------------------|
Gb|--9--------9--------9\---2--------2--------2-------|
Db|--9--9--9--9--9--9--9\---2--2--2--2--2--2--2-------|
Ab|--7--7--7--7--7--7--7\---0--0--0--0--0--0--0--0----|
Eb|---------------------------------------------------|


                                                     
Eb|---------------------------------------------------|
Bb|--------------------------------------------2/-----|
Gb|--2--------2--------2-----2--------2--------2/-----|
Db|--2--2--2--2--2--2--2--2--2--2--2--2--2--2--2/-----|
Ab|--0--0--0--0--0--0--0--0--0--0--0--0--0--0--0------|
Eb|---------------------------------------------------|


                                                    
Eb|---------------------------------------------------|
Bb|-------------------------------------------2/------|
Gb|--9--------9--------9\---2--------2--------2/------|
Db|--9--9--9--9--9--9--9\---2--2--2--2--2--2--2/------|
Ab|--7--7--7--7--7--7--7\---0--0--0--0--0--0--0-------|
Eb|---------------------------------------------------|

Eb|---------------------------------------------------|
Bb|---------------------------------------------------|
Gb|--7--------7--------7-----7--------7--------7--x---|
Db|--7--7--7--7--7--7--7--7--7--7--7--7--7--7--7--x---|
Ab|--5--5--5--5--5--5--5--5--5--5--5--5--5--5--5--x---|
Eb|---------------------------------------------------|



                                                    
Eb|---------------------------------------------------|
Bb|-----------------2--3-----2-----------------2/-----|
Gb|--2--------2--2--2--2-----2--------2--------2/-----|
Db|--2--2--2--2--2--2--4-----2--2--2--2--2--2--2/-----|
Ab|--0--0--0--0--0--0--0-----0--0--0--0--0--0--0------|
Eb|---------------------------------------------------|



                                                      
Eb|---------------------------------------------------|
Bb|---------------------------------------------------|
Gb|--7--------7--------7-----7--------7--------7--x---|
Db|--7--7--7--7--7--7--7--7--7--7--7--7--7--7--7--x---|
Ab|--5--5--5--5--5--5--5--5--5--5--5--5--5--5--5--x---|
Eb|---------------------------------------------------|




                                              
Eb|---------------------------------------------------|
Bb|---------------------------------------------------|
Gb|--2--------2--------2------------------------------|
Db|--2--2--2--2--2--2--2------------------------------|
Ab|--0--0--0--0--0--0--0--0---------------------------|
Eb|---------------------------------------------------|


Eb|---------------------------------------------------|
Bb|---------------------------------------------------|
Gb|--9-----------------------9------------------------|
Db|--9-----------------------9------------------------|
Ab|--7-----------------------7------------------------|
Eb|-------0--0--0--0--0--0----------------------------|
    < - - - - - 3x - - - - >



Verse 1
Eb|---------------------------------------------------|
Bb|--------------------------------------------2/-----|
Gb|--2--------2--------2-----2--------2--------2/-----|
Db|--2--2--2--2--2--2--2--2--2--2--2--2--2--2--2/-----|
Ab|--0--0--0--0--0--0--0--0--0--0--0--0--0--0--0------|
Eb|---------------------------------------------------|


    
                                                 
Eb|---------------------------------------------------|
Bb|---------------------------------------------------|
Gb|--9--------9--------9\---2--------2--------2-------|
Db|--9--9--9--9--9--9--9\---2--2--2--2--2--2--2-------|
Ab|--7--7--7--7--7--7--7\---0--0--0--0--0--0--0--0----|
Eb|---------------------------------------------------|


                                                     
Eb|---------------------------------------------------|
Bb|--------------------------------------------2/-----|
Gb|--2--------2--------2-----2--------2--------2/-----|
Db|--2--2--2--2--2--2--2--2--2--2--2--2--2--2--2/-----|
Ab|--0--0--0--0--0--0--0--0--0--0--0--0--0--0--0------|
Eb|---------------------------------------------------|


                                                    
Eb|---------------------------------------------------|
Bb|-------------------------------------------2/------|
Gb|--9--------9--------9\---2--------2--------2/------|
Db|--9--9--9--9--9--9--9\---2--2--2--2--2--2--2/------|
Ab|--7--7--7--7--7--7--7\---0--0--0--0--0--0--0-------|
Eb|---------------------------------------------------|


Well, my name it is a number
It's on a piece of plastic film
And I've been growin' funny flowers
Outside on my little window sill



                                                      
Eb|---------------------------------------------------|
Bb|---------------------------------------------------|
Gb|--7--------7--------7-----7--------7--------7--x---|
Db|--7--7--7--7--7--7--7--7--7--7--7--7--7--7--7--x---|
Ab|--5--5--5--5--5--5--5--5--5--5--5--5--5--5--5--x---|
Eb|---------------------------------------------------|



                                                    
Eb|---------------------------------------------------|
Bb|-----------------2--3-----2-----------------2/-----|
Gb|--2--------2--2--2--2-----2--------2--------2/-----|
Db|--2--2--2--2--2--2--4-----2--2--2--2--2--2--2/-----|
Ab|--0--0--0--0--0--0--0-----0--0--0--0--0--0--0------|
Eb|---------------------------------------------------|



                                                      
Eb|---------------------------------------------------|
Bb|---------------------------------------------------|
Gb|--7--------7--------7-----7--------7--------7--x---|
Db|--7--7--7--7--7--7--7--7--7--7--7--7--7--7--7--x---|
Ab|--5--5--5--5--5--5--5--5--5--5--5--5--5--5--5--x---|
Eb|---------------------------------------------------|




                                              
Eb|---------------------------------------------------|
Bb|---------------------------------------------------|
Gb|--2--------2--------2------------------------------|
Db|--2--2--2--2--2--2--2------------------------------|
Ab|--0--0--0--0--0--0--0--0---------------------------|
Eb|---------------------------------------------------|
And don't you know I'm a 2,000 man
And my kids, they just don't understand me at all
Eb|---------------------------------------------------|
Bb|---------------------------------------------------|
Gb|--9-----------------------9------------------------|
Db|--9-----------------------9------------------------|
Ab|--7-----------------------7------------------------|
Eb|-------0--0--0--0--0--0----------------------------|


Eb|---------------------------------------------------|
Bb|--------------------------------------------2/-----|
Gb|--2--------2--------2-----2--------2--------2/-----|
Db|--2--2--2--2--2--2--2--2--2--2--2--2--2--2--2/-----|
Ab|--0--0--0--0--0--0--0--0--0--0--0--0--0--0--0------|
Eb|---------------------------------------------------|


    
                                                 
Eb|---------------------------------------------------|
Bb|---------------------------------------------------|
Gb|--9--------9--------9\---2--------2--------2-------|
Db|--9--9--9--9--9--9--9\---2--2--2--2--2--2--2-------|
Ab|--7--7--7--7--7--7--7\---0--0--0--0--0--0--0--0----|
Eb|---------------------------------------------------|


                                                     
Eb|---------------------------------------------------|
Bb|--------------------------------------------2/-----|
Gb|--2--------2--------2-----2--------2--------2/-----|
Db|--2--2--2--2--2--2--2--2--2--2--2--2--2--2--2/-----|
Ab|--0--0--0--0--0--0--0--0--0--0--0--0--0--0--0------|
Eb|---------------------------------------------------|


                                                    
Eb|---------------------------------------------------|
Bb|-------------------------------------------2/------|
Gb|--9--------9--------9\---2--------2--------2/------|
Db|--9--9--9--9--9--9--9\---2--2--2--2--2--2--2/------|
Ab|--7--7--7--7--7--7--7\---0--0--0--0--0--0--0-------|
Eb|---------------------------------------------------|

Verse 2
You know, my wife still respects me
Even though I really misuse her
I am having an affair
With the Random computer

Eb|---------------------------------------------------|
Bb|---------------------------------------------------|
Gb|--7--------7--------7-----7--------7--------7--x---|
Db|--7--7--7--7--7--7--7--7--7--7--7--7--7--7--7--x---|
Ab|--5--5--5--5--5--5--5--5--5--5--5--5--5--5--5--x---|
Eb|---------------------------------------------------|



                                                    
Eb|---------------------------------------------------|
Bb|-----------------2--3-----2-----------------2/-----|
Gb|--2--------2--2--2--2-----2--------2--------2/-----|
Db|--2--2--2--2--2--2--4-----2--2--2--2--2--2--2/-----|
Ab|--0--0--0--0--0--0--0-----0--0--0--0--0--0--0------|
Eb|---------------------------------------------------|



                                                      
Eb|---------------------------------------------------|
Bb|---------------------------------------------------|
Gb|--7--------7--------7-----7--------7--------7--x---|
Db|--7--7--7--7--7--7--7--7--7--7--7--7--7--7--7--x---|
Ab|--5--5--5--5--5--5--5--5--5--5--5--5--5--5--5--x---|
Eb|---------------------------------------------------|




                                              
Eb|---------------------------------------------------|
Bb|---------------------------------------------------|
Gb|--2--------2--------2------------------------------|
Db|--2--2--2--2--2--2--2------------------------------|
Ab|--0--0--0--0--0--0--0--0---------------------------|
Eb|---------------------------------------------------|

But don't you know I'm a 2,000 man
And my kids, they just don't understand me at all

Eb|---------------------------------------------------|
Bb|---------------------------------------------------|
Gb|--9-----------------------9------------------------|
Db|--9-----------------------9------------------------|
Ab|--7-----------------------7------------------------|
Eb|-------0--0--0--0--0--0----------------------------|


Bridge
Eb|---------------------------------------------------|
Bb|---------------------------------------------------|
Gb|--6----6--x-x-7----------9-------7----6----x-x-----|
Db|--7----7--x-x-7--7-------9-------7----7----x-x-----|
Ab|--7----7--x-x-5--7-------7----0--5----7----x-x-----|
Eb|--5----5---------5--------------------5------------|



                                                
Eb|---------------------------------------------------|
Bb|---------------------------------------------------|
Gb|--6----6--x-x-7----------9----7--6-----------------|
Db|--7----7--x-x-7--7-------9----7--7------2/---------|
Ab|--7----7--x-x-5--7-------7----5--7------2/---------|
Eb|--5----5---------5---------------5-----------------|
Oh daddy, proud of your planet
Oh mommy, proud of your sun

Eb|---------------------------------------------------|
Bb|---------------------------------------------------|
Gb|--6----6--x-x-7----------9-------7----6----x-x-----|
Db|--7----7--x-x-7--7-------9-------7----7----x-x-----|
Ab|--7----7--x-x-5--7-------7----0--5----7----x-x-----|
Eb|--5----5---------5--------------------5------------|



                                                
Eb|---------------------------------------------------|
Bb|----------------------------------------2/---------|
Gb|--6----6--x-x-7----------9----7--6------2/---------|
Db|--7----7--x-x-7--7-------9----7--7------2/---------|
Ab|--7----7--x-x-5--7-------7----5--7------0----------|
Eb|--5----5---------5---------------5-----------------|

Oh daddy, proud of your planet
Oh mommy. proud of your sun


Eb|---------------------------------------------------|
Bb|---------------------------------------------------|
Gb|--7--7--7--7--7--7--7--7--7--7--7--7--7--7--7------|
Db|--7--7--7--7--7--7--7--7--7--7--7--7--7--7--7------|
Ab|--5--5--5--5--5--5--5--5--5--5--5--5--5--5--5--0---|
Eb|---------------------------------------------------|


                                                      
Eb|---------------------------------------------------|
Bb|-----------------------------------------------3---|
Gb|--4--4--4--4--4--4--4--4--2--2--2--2--2--2--2--2---|
Db|--4--4--4--4--4--4--4--4--2--2--2--2--2--2--2--4---|
Ab|--2--2--2--2--2--2--2--2--0--0--0--0--0--0--0--0---|
Eb|---------------------------------------------------|


                                           
Eb|---------------------------------------------------|
Bb|----3----3----2------------------------------------|
Gb|----2----2----2----x-x-----------------------------|
Db|----4----4----2----x-x-----------------------------|
Ab|----0----0----0----x-x-----------------------------|
Eb|---------------------------------------------------|

Oh daddy, your brain's still flashin'
Like they did when you were young
Or did they come down crashin'


Eb|---------------------------------------------------|
Bb|---------------------------------------------------|
Gb|--9-------------------------------9----------------|
Db|--9-----------------------9-------9----------------|
Ab|--7-----------------------9-------7----------------|
Eb|--0----0--0--0--0--0--0---7----0--0----0--0--0-----|
Seeing all the things you'd done
Spacin' out and havin' fun



Eb|---------------------------------------------------|
Bb|---------------------------------------------------|
Gb|--6----6--x-x-7----------9-------7----6----x-x-----|
Db|--7----7--x-x-7--7-------9-------7----7----x-x-----|
Ab|--7----7--x-x-5--7-------7----0--5----7----x-x-----|
Eb|--5----5---------5--------------------5------------|



                                                
Eb|---------------------------------------------------|
Bb|---------------------------------------------------|
Gb|--6----6--x-x-7----------9----7--6-----------------|
Db|--7----7--x-x-7--7-------9----7--7------2/---------|
Ab|--7----7--x-x-5--7-------7----5--7------2/---------|
Eb|--5----5---------5---------------5-----------------|
Oh daddy, proud of your planet
Oh mommy, proud of your sun


Eb|---------------------------------------------------|
Bb|---------------------------------------------------|
Gb|--6----6--x-x-7----------9-------7----6----x-x-----|
Db|--7----7--x-x-7--7-------9-------7----7----x-x-----|
Ab|--7----7--x-x-5--7-------7----0--5----7----x-x-----|
Eb|--5----5---------5--------------------5------------|


                                                 
Eb|---------------------------------------------------|
Bb|---------------------------------------------------|
Gb|--6----6--x-x-7----------9----7--6-----------------|
Db|--7----7--x-x-7--7-------9----7--7-----------------|
Ab|--7----7--x-x-5--7-------7----5--7-----------------|
Eb|--5----5---------5---------------5------12\--------|
Oh daddy, proud of your planet
Oh mommy, proud of your sun




Solo
Eb|---------5---------------------------5-------------|
Bb|--5---5--5--5-----------------5---5--5--5----------|
Gb|--7b--------7b----------------7b--------7b---------|
Db|---------------------------------------------------|
Ab|---------------------------------------------------|
Eb|---------------------------------------------------|
              Slow, gradual bend          Slow, gradual bend




Eb|---------5----------5---------5----------5---------|
Bb|--5---5--5--5-------5--5---5--5--5-------5--5---5--|
Gb|--7b--------7b---------7b--------7b---------7b-----|
Db|---------------------------------------------------|
Ab|---------------------------------------------------|
Eb|---------------------------------------------------|




Eb|--5---------5---------5---------5-----5-----5------|
Bb|--5--5---5--5--5---5--5--5---5--5------------------|
Gb|-----7b--------7b--------7b--------6-----7-----8---|
Db|---------------------------------------------------|
Ab|---------------------------------------------------|
Eb|---------------------------------------------------|
                                      Let ring - - - >



Eb|--5-----5------------------------------------------|
Bb|-----5---------------------------------------------|
Gb|-----------7~--------------------------------------|
Db|---------------------------------------------------|
Ab|---------------------------------------------------|
Eb|---------------------------------------------------|




Eb|---------------------------------------------------|
Bb|---------------------------------------------------|
Gb|--7--7--7--7--7--7--7--7--7--7--7--7--7--7--7------|
Db|--7--7--7--7--7--7--7--7--7--7--7--7--7--7--7------|
Ab|--5--5--5--5--5--5--5--5--5--5--5--5--5--5--5--0---|
Eb|---------------------------------------------------|


                                                      
Eb|---------------------------------------------------|
Bb|-----------------------------------------------3---|
Gb|--4--4--4--4--4--4--4--4--2--2--2--2--2--2--2--2---|
Db|--4--4--4--4--4--4--4--4--2--2--2--2--2--2--2--4---|
Ab|--2--2--2--2--2--2--2--2--0--0--0--0--0--0--0--0---|
Eb|---------------------------------------------------|


                                           
Eb|---------------------------------------------------|
Bb|----3----3----2------------------------------------|
Gb|----2----2----2----x-x-----------------------------|
Db|----4----4----2----x-x-----------------------------|
Ab|----0----0----0----x-x-----------------------------|
Eb|---------------------------------------------------|

Oh daddy, your brain's still flashin'
Like they did when you were young
Or did they come down crashin'



Eb|---------------------------------------------------|
Bb|---------------------------------------------------|
Gb|--9-------------------------------9----------------|
Db|--9-----------------------9-------9----------------|
Ab|--7-----------------------9-------7----------------|
Eb|--0----0--0--0--0--0--0---7----0--0----0--0--0-----|

Seeing all the things you'd done

Eb|---------------------------------------------------|
Bb|---------------------------------------------------|
Gb|--9-------------------------------9----------------|
Db|--9-----------------------9-------9----------------|
Ab|--7-----------------------9-------7----------------|
Eb|--0----0--0--0--0--0--0---7----0--0----------------|
Spacin' out and havin' fun




Eb|---------------------------------------------------|
Bb|---------------------------------------------------|
Gb|--7--------7--------7-----7--------7--------7--x---|
Db|--7--7--7--7--7--7--7--7--7--7--7--7--7--7--7--x---|
Ab|--5--5--5--5--5--5--5--5--5--5--5--5--5--5--5--x---|
Eb|---------------------------------------------------|



                                                    
Eb|---------------------------------------------------|
Bb|-----------------2--3-----2-----------------2/-----|
Gb|--2--------2--2--2--2-----2--------2--------2/-----|
Db|--2--2--2--2--2--2--4-----2--2--2--2--2--2--2/-----|
Ab|--0--0--0--0--0--0--0-----0--0--0--0--0--0--0------|
Eb|---------------------------------------------------|



                                                      
Eb|---------------------------------------------------|
Bb|---------------------------------------------------|
Gb|--7--------7--------7-----7--------7--------7--x---|
Db|--7--7--7--7--7--7--7--7--7--7--7--7--7--7--7--x---|
Ab|--5--5--5--5--5--5--5--5--5--5--5--5--5--5--5--x---|
Eb|---------------------------------------------------|




                                              
Eb|---------------------------------------------------|
Bb|---------------------------------------------------|
Gb|--2--------2--------2------------------------------|
Db|--2--2--2--2--2--2--2------------------------------|
Ab|--0--0--0--0--0--0--0--0---------------------------|
Eb|---------------------------------------------------|

And don't you know I'm a 2,000 man
And my kids, they just don't understand me at all





Eb|---------------------------------------------------|
Bb|---------------------------------------------------|
Gb|--7--------7--------7-----7--------7--------7--x---|
Db|--7--7--7--7--7--7--7--7--7--7--7--7--7--7--7--x---|
Ab|--5--5--5--5--5--5--5--5--5--5--5--5--5--5--5--x---|
Eb|---------------------------------------------------|



                                                    
Eb|---------------------------------------------------|
Bb|-----------------2--3-----2-----------------2/-----|
Gb|--2--------2--2--2--2-----2--------2--------2/-----|
Db|--2--2--2--2--2--2--4-----2--2--2--2--2--2--2/-----|
Ab|--0--0--0--0--0--0--0-----0--0--0--0--0--0--0------|
Eb|---------------------------------------------------|



                                                      
Eb|---------------------------------------------------|
Bb|---------------------------------------------------|
Gb|--7--------7--------7-----7--------7--------7--x---|
Db|--7--7--7--7--7--7--7--7--7--7--7--7--7--7--7--x---|
Ab|--5--5--5--5--5--5--5--5--5--5--5--5--5--5--5--x---|
Eb|---------------------------------------------------|




                                              
Eb|---------------------------------------------------|
Bb|---------------------------------------------------|
Gb|--2--------2--------2------------------------------|
Db|--2--2--2--2--2--2--2------------------------------|
Ab|--0--0--0--0--0--0--0--0---------------------------|
Eb|---------------------------------------------------|

And don't you know I'm a 2,000 man
And my kids, they just don't understand me at all
Understand me, u-understand me




Eb|---------------------------------------------------|
Bb|---------------------------------------------------|
Gb|--------------------9----------------------9-------|
Db|--------------------9----------------------9-------|
Ab|--------------------7----------------------7-------|
Eb|--0--0--0--0--0--0-------0--0--0--0--0--0----------|


                                                 
Eb|---------------------------------------------------|
Bb|---------------------------------------------------|
Gb|--------9----------9----------9----7----9----------|
Db|--------9----------9----------9----7----9----------|
Ab|--------7----------7----------7----5----7----------|
Eb|--0--0-------0--0-------0--0-----------------------|
U-understand me, now understand me





Eb|---------------------------------------------------|
Bb|---------------------------------------------------|
Gb|--7--------7--------7-----7--------7--------7--x---|
Db|--7--7--7--7--7--7--7--7--7--7--7--7--7--7--7--x---|
Ab|--5--5--5--5--5--5--5--5--5--5--5--5--5--5--5--x---|
Eb|---------------------------------------------------|



                                                    
Eb|---------------------------------------------------|
Bb|-----------------2--3-----2-----------------2/-----|
Gb|--2--------2--2--2--2-----2--------2--------2/-----|
Db|--2--2--2--2--2--2--4-----2--2--2--2--2--2--2/-----|
Ab|--0--0--0--0--0--0--0-----0--0--0--0--0--0--0------|
Eb|---------------------------------------------------|



                                                      
Eb|---------------------------------------------------|
Bb|---------------------------------------------------|
Gb|--7--------7--------7-----7--------7--------7--x---|
Db|--7--7--7--7--7--7--7--7--7--7--7--7--7--7--7--x---|
Ab|--5--5--5--5--5--5--5--5--5--5--5--5--5--5--5--x---|
Eb|---------------------------------------------------|




                                              
Eb|---------------------------------------------------|
Bb|---------------------------------------------------|
Gb|--2--------2--------2------------------------------|
Db|--2--2--2--2--2--2--2------------------------------|
Ab|--0--0--0--0--0--0--0--0---------------------------|
Eb|---------------------------------------------------|
And don't you know I'm a 2,000 man
And my kids, they just don't understand me at all





Eb|---------------------------------------------------|
Bb|---------------------------------------------------|
Gb|--7--------7--------7-----7--------7--------7--x---|
Db|--7--7--7--7--7--7--7--7--7--7--7--7--7--7--7--x---|
Ab|--5--5--5--5--5--5--5--5--5--5--5--5--5--5--5--x---|
Eb|---------------------------------------------------|



                                                    
Eb|---------------------------------------------------|
Bb|-----------------2--3-----2-----------------2/-----|
Gb|--2--------2--2--2--2-----2--------2--------2/-----|
Db|--2--2--2--2--2--2--4-----2--2--2--2--2--2--2/-----|
Ab|--0--0--0--0--0--0--0-----0--0--0--0--0--0--0------|
Eb|---------------------------------------------------|



                                                      
Eb|---------------------------------------------------|
Bb|---------------------------------------------------|
Gb|--7--------7--------7-----7--------7--------7--x---|
Db|--7--7--7--7--7--7--7--7--7--7--7--7--7--7--7--x---|
Ab|--5--5--5--5--5--5--5--5--5--5--5--5--5--5--5--x---|
Eb|---------------------------------------------------|




                                              
Eb|---------------------------------------------------|
Bb|---------------------------------------------------|
Gb|--2--------2--------2------------------------------|
Db|--2--2--2--2--2--2--2------------------------------|
Ab|--0--0--0--0--0--0--0--0---------------------------|
Eb|---------------------------------------------------|
And don't you know I'm a 2,000 man
And my kids, they just don't understand me at all




Outro solo

Eb|---------5--------5---------5--------5---------5---|
Bb|--5---5--5--5-----5--5---5--5--5-----5--5---5------|
Gb|--7b--------7b-------7b--------7b-------7b---------|
Db|---------------------------------------------------|
Ab|---------------------------------------------------|
Eb|---------------------------------------------------|




Eb|-----------10----------10-----------10---------10--|
Bb|--10---10--10--10------10--10---10--10--10-----10--|
Gb|--12b----------12b---------12b----------12b--------|
Db|---------------------------------------------------|
Ab|---------------------------------------------------|
Eb|---------------------------------------------------|




Eb|-----------10-------------12-----------12------12--|
Bb|--10---10--------12---12--12--12---12--12--12--12--|
Gb|--12b------------14b----------14b----------14b-----|
Db|---------------------------------------------------|
Ab|---------------------------------------------------|
Eb|---------------------------------------------------|




Eb|-----------10-----------10------10-----------------|
Bb|--10---10--10--10---10--10--10--10-----------------|
Gb|--12b----------12b----------12b--------------------|
Db|---------------------------------------------------|
Ab|---------------------------------------------------|
Eb|---------------------------------------------------|


comments
We did not receive enough feedback on this tab! Please rate:
print report bad tab
1 2 3 4 5
I want to post or [tab]
guest
You may want to rate the tab now too:
select rating
Please do not post tabs as comments. Select "correction" instead!