Oops, an error
Loading. Please wait.

Animalize Guitar Tab

by Kiss
3,874 views 6 this week
1 commentread comment
1 2 3 4 5
excellent!
x 3
Autoscroll
+/-
esc
set tempo
stop
Contributor
Hey! There's an official Ultimate Guitar app which is ideal
for learning songs when you're away from computer. Get the app
WARNING: You are trying to view
                                    content from Ultimate-Guitar.com
                                    in an unauthorized application,
                                    which is prohibited.

                                    Please use an official Ultimate
                                    Guitar Tabs application for iPhone,
                                    iPad or Android to access legitimate
                                    chords, guitar, bass, and drum tabs
                                    from Ultimate-Guitar.com database.

                                    Type "ultimate guitar tabs" in Apple
                                    App Store's or Android Market's
                                    search to find the application.
Key:
/    = slide up
\    = slide down
b    = bend (whole step)
b^   = bend (1/2 step)
b^^  = bend (1 1/2 steps)
pb   = pre-bend
r    = release-bend
t    = tap with righthand finger
h    = hammer-on
p    = pull-off
~    = Vibrato
*    = Natural Harmonic
#(#) = Trill
**   = Artificial Harmonic
x    = Dead notes (no pitch)
P.M. = Palm mute (- -> underneath indicates which notes)
(\)  = Dive w\bar
(/)  = Release w\bar
Tp   = Tap w\plectrum



Track 1 - I've Had Enough (Into The Fire)

Rhythm Fig. 1 (P.M. on 6th throughout)
                                                                
Eb|------------------------------------------------------------------|

Bb|------------------------------------------------------------------|
Gb|----------9----------7------------12----------7------9------------|
Db|----------9----------7------------12----------7------9------------|
Ab|----------7----------5------------10----------5------7------------|
Eb|--0-0-0-0----0-0-0-0----0-0-0-0-------0-0-0-0---------------------|


                                                                               
Eb|------------------------------------------------------------------|
Bb|------------------------------------------------------------------|
Gb|----------9----------7------------12----------7------7------------|
Db|----------9----------7------------12----------7------7------------|
Ab|----------7----------5------------10----------5------5------------|
Eb|--0-0-0-0----0-0-0-0----0-0-0-0-------0-0-0-0---------------------|



Rhythm Fig. 2a (P.M. on 6th throughout)


Eb|------------------------------------------------------------------|

Bb|------------------------------------------------------------------|
Gb|----------9----------7------------12----------7------9------------|
Db|----------9----------7------------12----------7------9------------|
Ab|----------7----------5------------10----------5------7------------|
Eb|--0-0-0-0----0-0-0-0----0-0-0-0-------0-0-0-0---------------------|

   
                                                                             
Eb|------------------------------------------------------------------|
Bb|------------------------------------------------------------------|
Gb|----------9----------7------------12----------9------12-----------| 
Db|----------9----------7------------12----------9------12-----------| 
Ab|----------7----------5------------10----------7------10-----------| 
Eb|--0-0-0-0----0-0-0-0----0-0-0-0-------0-0-0-0---------------------| 



Rhythm Fig. 2b (P.M. on 6th throughout)


Eb|------------------------------------------------------------------|

Bb|------------------------------------------------------------------|
Gb|----------9----------7------------12----------7------9------------|
Db|----------9----------7------------12----------7------9------------|
Ab|----------7----------5------------10----------5------7------------|
Eb|--0-0-0-0----0-0-0-0----0-0-0-0-------0-0-0-0---------------------|

   
                                                                             
Eb|------------------------------------------------------------------|
Bb|------------------------------------------------------------------|
Gb|----------9----------7------------12----------9------9------------| 
Db|----------9----------7------------12----------9------9------------| 
Ab|----------7----------5------------10----------7------7------------| 
Eb|--0-0-0-0----0-0-0-0----0-0-0-0-------0-0-0-0---------------------| 



Rhythm Fig. 3 (P.M. on 6th throughout)
                                                                              
Eb|------------------------------------------------------------------|
Bb|------------------------------------------------------------------|
Gb|--7-------------------9----------7-----------7----------9----5/7--|
Db|--7-------------------9----------7-----------7----------9----5/7--|
Ab|--5-------------------7----------5-----------5----------7----3/5--|
Eb|--------------0-0-0-0----0-0-0-0----0-0-0-0-----0-0-0-0-----------|


                                                                                         
Eb|------------------------------------------------------------------|
Bb|---------------------5----------7-----------8----------7----------|
Gb|--7----------------------5----------5-----------5----------5------|
Db|--7--------------------------5----------5-----------5----------5--|
Ab|--5---------------------------------------------------------------|
Eb|------------------------------------------------------------------|
                        Let ring - - - - - - - - - - - - - - - - - >

                                                                                
Eb|------------------------------------------------------------------|
Bb|--------------------------------------3-3-3-----------------------|
Gb|--7-----------------------------------2-2-2----------4------------|
Db|--7--------------5------5------5------0-0-0----------4------------|
Ab|--5--------------3------2------0---------------------2------------|
Eb|------------------------------------------------------------------|



Rhythm Fig. 4 (P.M. on single notes)
                                                                                      
Eb|------------------------------------------------------------------|
Bb|--7---5---------------7---5---------8---5---------------7---8-----|
Gb|--5---5---------------5---5---------7---7---------------7---7-----|
Db|--5---5---------------5---5---------7---7---------------7---7-----|
Ab|-------------3--3--3----------------------------0--0--0-----------|
Eb|------------------------------------------------------------------|
    < - - - - - - 2x - - - - - - >    < - - - - - - - 2x - - - - - >

                                                                                  
Eb|------------------------------------------------------------------|
Bb|--7---5---------------7---5---------------------------------------|
Gb|--5---5---------------5---5-----4---------------------------------|
Db|--5---5---------------5---5-----4-------4--4--4--4--4--4--4--4----|
Ab|-------------3--3--3------------2-------2--2--2--2--2--2--2--2----|
Eb|------------------------------------------------------------------|
    < - - - - - - 2x - - - - - >           P.M. - - - - - - - - >



Rhythm Fig. 5
                                                                                  
Eb|------------------------------------------------------------------|
Bb|------------------------------------------------------------------|
Gb|------------------------------------------------------------------|
Db|--5------4------2------7------4------7----------------------------|
Ab|--3------2------0------5------2------5----------------------------|
Eb|------------------------------------------------------------------|



Rhythm Fig. 6
                                                                                  
Eb|------------------------------------------------------------------|
Bb|------------------------------------------------------------------|
Gb|------------------------------------------------------------------|
Db|--5------4------2------7------5------4------12----11----7---------|
Ab|--3------2------0------5------3------2------10----9-----5---------|
Eb|------------------------------------------------------------------|



Rhythm Fig. 7a (P.M. on 6th throughout)
                                                                
Eb|------------------------------------------------------------------|

Bb|------------------------------------------------------------------|
Gb|----------9----------7------------12----------7------9------------|
Db|----------9----------7------------12----------7------9------------|
Ab|----------7----------5------------10----------5------7------------|
Eb|--0-0-0-0----0-0-0-0----0-0-0-0-------0-0-0-0---------------------|


                                                                               
Eb|------------------------------------------------------------------|
Bb|------------------------------------------------------------------|
Gb|----------9----------7------------12-------------7-7----7-7-------|
Db|----------9----------7------------12-------------7-7----7-7-------|
Ab|----------7----------5------------10-------------5-5----5-5-------|
Eb|--0-0-0-0----0-0-0-0----0-0-0-0-------0-0-0-0-0-------------------|



Rhythm Fig. 7b (P.M. on 6th throughout)
                                                                
Eb|------------------------------------------------------------------|

Bb|------------------------------------------------------------------|
Gb|----------9----------7------------12----------7------9------------|
Db|----------9----------7------------12----------7------9------------|
Ab|----------7----------5------------10----------5------7------------|
Eb|--0-0-0-0----0-0-0-0----0-0-0-0-------0-0-0-0---------------------|


                                                                               
Eb|------------------------------------------------------------------|
Bb|------------------------------------------------------------------|
Gb|----------9----------7------------12----------7-7----7-7----------|
Db|----------9----------7------------12----------7-7----7-7----------|
Ab|----------7----------5------------10----15\---5-5----5-5----------|
Eb|--0-0-0-0----0-0-0-0----0-0-0-0---------15\-----------------------|



Rhythm Fig. 8 (P.M. on 6th throughout)
                                                                
Eb|------------------------------------------------------------------|

Bb|------------------------------------------------------------------|
Gb|----------9----------7------------12----------7----9----9-9-9-9-9-|
Db|----------9----------7------------12----------7----9----9-9-9-9-9-|
Ab|----------7----------5------------10----------5----7----7-7-7-7-7-|
Eb|--0-0-0-0----0-0-0-0----0-0-0-0-------0-0-0-0---------------------|


Riff 1

Eb|------------------------------------------------------------------|
Bb|------------------------------------------------------------------|
Gb|--5*(\)-----------------------------------------------------------|
Db|------------------------------------------------------------------|
Ab|------------------------------------------------------------------|
Eb|------------------------------------------------------------------|
         Gradual lowering of bar



Riff 2

Eb|------------------------------------------------------------------|
Bb|------------------------------------------------------------------|
Gb|--12*(\)----------------------------------------------------------|
Db|--12*(\)----------------------------------------------------------|
Ab|------------------------------------------------------------------|
Eb|------------------------------------------------------------------|
         Gradual lowering of bar



Riff 3

Eb|--8------10-----12-----10-----12------14--------------------------|
Bb|--11b----12b----15b----13b----15b-----17b-------------------------|
Gb|------------------------------------------------------------------|
Db|------------------------------------------------------------------|
Ab|------------------------------------------------------------------|
Eb|------------------------------------------------------------------|




Riff 4

Eb|--8------10-----12-----10-----12------14-----15----17-----19(\)---|
Bb|--11b----12b----15b----13b----15b-----17b----18b---20b------------|
Gb|------------------------------------------------------------------|
Db|------------------------------------------------------------------|
Ab|------------------------------------------------------------------|
Eb|------------------------------------------------------------------|



Riff 5

Eb|--12-12-12-12-12\-------------------------------------------------|
Bb|------------------------------------------------------------------|
Gb|------------------------------------------------------------------|
Db|------------------------------------------------------------------|
Ab|------------------------------------------------------------------|
Eb|------------------------------------------------------------------|




Intro solo
                                              
Eb|---------------15p14p12-------12----------------------------------|
Bb|-15b--15b~--------------15-13----15-13-12-15-13-12----13p12-------|
Gb|---------------------------------------------------14-------14-12-|
Db|------------------------------------------------------------------|
Ab|------------------------------------------------------------------|
Eb|------------------------------------------------------------------|



                                                    
Eb|------------------------------------------------------------------|
Bb|--------15--------------------------------------------------------|
Gb|--14b-------r14----12----14---14b---------------------------------|
Db|--------------------------------------0(\)------------------------|
Ab|------------------------------------------------------------------|
Eb|------------------------------------------------------------------|


                                                         
Eb|------------------------------------------------------------------|
Bb|--15p13p12-------13p12--------------------------------------------|
Gb|-----------14-12-------14-12-16-14-12-11-14p12p11-----------------|
Db|--------------------------------------------------14-12-----------|
Ab|------------------------------------------------------------------|
Eb|------------------------------------------------------------------|


                                                   
Eb|------------------------------------------------------------------|
Bb|------------------------------------------------------------------|
Gb|--12p11-------11--------------------------------------------------|
Db|--------14-12----14-12-10-14p12p10--------------------------------|
Ab|-----------------------------------14p12p10-10~-------------------|
Eb|------------------------------------------------------------------|


                                                           
Eb|------------------------------------------------------------------|
Bb|------------------------------------------------------------------|
Gb|-----------------------------------------9h11h12------------------|
Db|-----------------9h10h12---------9h10h12--------------------------|
Ab|--7-9-10-9-10-12---------9h10h12-----------------12h14h15---------|
Eb|------------------------------------------------------------------|


                                                         
Eb|------------------------------------------------------------------|
Bb|--------------12-15--15b-----15b---15~----------------------------|
Gb|-----------14-----------------------------------------------------|
Db|--12h14h16--------------------------------------------------------|
Ab|------------------------------------------------------------------|
Eb|------------------------------------------------------------------|


Solo
                                          
Eb|--15-14-0-14-12-0-12-10-0-10-8-0-7---------------------------|
Bb|-----------------------------------10-8----------------------|
Gb|-------------------------------------------------------------|
Db|-------------------------------------------------------------|
Ab|-------------------------------------------------------------|
Eb|-------------------------------------------------------------|

    
                                   
Eb|--15-14-0-14-12-0-12-10-0-8-7--------------------------------|
Bb|------------------------------10-8---------------------------|
Gb|-------------------------------------------------------------|
Db|-------------------------------------------------------------|
Ab|-------------------------------------------------------------|
Eb|-------------------------------------------------------------|
                                      

Eb|--15-14-0-14-12-0-12-10-0-10-8-0-7---------------------------|
Bb|-----------------------------------10-8----------------------|
Gb|-------------------------------------------------------------|
Db|-------------------------------------------------------------|
Ab|-------------------------------------------------------------|
Eb|-------------------------------------------------------------|

                                                    
Eb|------------------------------------------------7------------|
Bb|-----------------------------------------8--10---------------|
Gb|--------------5h7h9---------------7h9h11---------------------|
Db|--------5h7h9--------------7h9h10----------------------------|
Ab|--5h7h9-------------7h9h10-----------------------------------|
Eb|-------------------------------------------------------------|


                                          
Eb|--10b------12-14h15p14p12----12-15p12------------------------|
Bb|--------------------------15----------15---------------------|
Gb|-------------------------------------------------------------|
Db|-------------------------------------------------------------|
Ab|-------------------------------------------------------------|
Eb|-------------------------------------------------------------|


                                                        
Eb|-------------------------------------------------------------|
Bb|--13-12-----------------------3------------3-----------------|
Gb|--------14(/)-14(/)~----0(\/)--------0(\/)---------4p2p0-----|
Db|---------------------------------------------------------2p0-|
Ab|-------------------------------------------------------------|
Eb|-------------------------------------------------------------|


                                                              
Eb|----------------------------19------------19-17--------------|
Bb|-------------------------17------------17--------------17----|
Gb|--2r---0--------------16------------16--------------16-------|
Db|----------2-2------------------------------------------------|
Ab|-------------------------------------------------------------|
Eb|-------------------------------------------------------------|


                                                  
Eb|--17-15-----------12-15-14--12-15p14p12----------------------|
Bb|---------------12-----------------------15p13p12-------------|
Gb|------------12-----------------------------------------------|
Db|-------------------------------------------------------------|
Ab|-------------------------------------------------------------|
Eb|-------------------------------------------------------------|


                                                      
Eb|--12---------------------------------------------------------|
Bb|-----15-12-15-12---------------------------------------------|
Gb|-----------------14-12-14-12----12h14p12----------12---------|
Db|-----------------------------16----------16-12-14----14(\)---|
Ab|-------------------------------------------------------------|
Eb|-------------------------------------------------------------|

                                               
Eb|--5h7h8-------5h7h8/10-0-7-8-10-0-7h8h10/12-0----------------|
Bb|--------5h7h8------------------------------------------------|
Gb|-------------------------------------------------------------|
Db|-------------------------------------------------------------|
Ab|-------------------------------------------------------------|
Eb|-------------------------------------------------------------|


                                                   
Eb|--8-10-12-0-8h10h12/14-0-10-12-14-0-10h12h14/15-0------------|
Bb|-------------------------------------------------------------|
Gb|-------------------------------------------------------------|
Db|-------------------------------------------------------------|
Ab|-------------------------------------------------------------|
Eb|-------------------------------------------------------------|


                                                     
Eb|--12-14-15-0-12h14h15/17-0-14-15-17-0-14h15h17/19-0----------|
Bb|-------------------------------------------------------------|
Gb|-------------------------------------------------------------|
Db|-------------------------------------------------------------|
Ab|-------------------------------------------------------------|
Eb|-------------------------------------------------------------|


                                                                
Eb|--17-19-20-0-19-20-22/24-22b---22----20b---20r-20~-----------|
Bb|-------------------------------------------------------------|
Gb|-------------------------------------------------------------|
Db|-------------------------------------------------------------|
Ab|-------------------------------------------------------------|
Eb|-------------------------------------------------------------|



I'VE HAD ENOUGH (INTO THE FIRE)
Stanley, Child

[Rhy. Fig 1]
[Rhy. Fig 1 w/ Riff 1]
[Intro solo over Rhy. Fig 1]
[Rhy. Fig 2a]

[Rhy. Fig 3]
How many times have they lied with the truth in their eyes
Treat you like dirt, wasting the days of our lives
They try and deny it, ain¥t gonna buy it
Just look around
Before it¥s all over it¥s gonna get rough
[Riff 2]

[Rhy. Fig 1]
I¥ve had enough
(Out of the cold into the fire)
Nothin¥ and no one is stopping me now
[Rhy. Fig 2a]
(Out of the cold into the fire)
Just hang tough and we¥ll make it somehow

[Rhy. Fig 3]
How many times have you given up more than you got
Counting on things turning out when you know they will not
Ain¥t gonna take it, kick it and break it
Just look around
Before it¥s all over it¥s gonna get rough
[Riff 2]

[Rhy. Fig 1]
I¥ve had enough
(Out of the cold into the fire)
Nothin¥ and no one is stopping me now
[Rhy. Fig 7a]
(Out of the cold into the fire)
Just hang tough and we¥ll make it somehow

[Rhy. Fig 1]
I¥ve had enough
(Out of the cold into the fire)
Nothin¥ and no one is stopping me now
[Rhy. Fig 2b]
(Out of the cold into the fire)
Just hang tough and we¥ll make it somehow

[Rhy. Fig 4]
Wishin¥ and hopin¥
Won¥t get you nothin¥
Prayin¥ and scheming
No time for dreaming
I¥ve got the power
This is the hour now
[Rhy. Fig 5 w/ Riff 3]

[Solo over Rhy. Fig 7a (3x)]
[Rhy. Fig 2b]

[Rhy. Fig 4]
Wishin¥ and hopin¥
Won¥t get you nothin¥
Prayin¥ and scheming
No time for dreaming
I¥ve got the power
This is the hour now
[Rhy. Fig 6 w/ Riff 4]

[Rhy. Fig 7a] (2x)
I¥ve had enough
(Out of the cold into the fire)
Nothin¥ and no one is stopping me now
(Out of the cold into the fire)
Just hang tough and we¥ll make it somehow

[Rhy. Fig 7b]
I¥ve had enough
(Out of the cold into the fire)
Nothin¥ and no one is stopping me now
[Rhy. Fig 8 w/ Riff 3]
(Out of the cold into the fire)

Track 2 - Heavens On Fire (Suprisingly in open G)

Rhythm Fig. 1
                                           
Db|--------------------------------------------------------|
Bb|--------------------------------------------------------|
Gb|--0----------0----0-------------------------------------|
Db|--0----------0----0-------------------------------------|
Gb|--0----------0----0-------------------------------------|
Db|--------------------------------------------------------|



Rhythm Fig. 2
                                          
Db|--------------------------------------------------------|
Bb|--0----------0----0--------------0----------------------|
Gb|--0----------0----0--------------0----------------------|
Db|--0----------0----0--------------0----------------------|
Gb|--0----------0----0--------------0----------------------|
Db|--------------------------------------------------------|


                                        End 1    
Db|------------------------------------|-------------------|
Bb|--7----------7----0-----------------|----------0--0--5--|
Gb|--7----------7----0-----------------|----------0--0--5--|
Db|--7----------7----0-----------------|----------0--0--5--|
Gb|--7----------7----0-----------------|----------0--0--5--|
Db|------------------------------------|-------------------|



Rhythm Fig. 3a
                                             
Db|--------------------------------------------------------|
Bb|--5----6----5----6----5----6--5-------------------------|
Gb|--5----5----5----5----5----5--5-------------------------|
Db|--5----7----5----7----5----7--5-------------------------|
Gb|--5----5----5----5----5----5--5-------------------------|
Db|--------------------------------------------------------|


                                              
Db|--------------------------------------------------------|
Bb|---------------------------------------5----------------|
Gb|--0----3----0------0----0--3----0------5----------------|
Db|--0----3----0------0----0--3----0------5----------------|
Gb|--0----3----0------0----0--3----0------5----------------|
Db|--------------------------------------------------------|


                                                
Db|--------------------------------------------------------|
Bb|--5----6----5----6----5----6--5------5--8-8-------------|
Gb|--5----5----5----5----5----5--5------5--8-8-------------|
Db|--5----7----5----7----5----7--5------5--8-8-------------|
Gb|--5----5----5----5----5----5--5------5--8-8-------------|
Db|--------------------------------------------------------|


                                                  
Db|--------------------------------------------------------|
Bb|--8----9-----8------10----10--11----10------------------|
Gb|--8----8-----8------10----10--10----10------------------|
Db|--8----10----8------10----10--12----10------------------|
Gb|--8----8-----8------10----10--10----10------------------|
Db|--------------------------------------------------------|



Rhythm Fig. 3b
                                                
Db|--------------------------------------------------------|
Bb|--5----6----5----6----5----6--5------0-0-0--------------|
Gb|--5----5----5----5----5----5--5------0-0-0--------------|
Db|--5----7----5----7----5----7--5------0-0-0--------------|
Gb|--5----5----5----5----5----5--5------0-0-0--------------|
Db|--------------------------------------------------------|


                                                
Db|--------------------------------------------------------|
Bb|--5----6----5----6----5----6--5------5--8-8-------------|
Gb|--5----5----5----5----5----5--5------5--8-8-------------|
Db|--5----7----5----7----5----7--5------5--8-8-------------|
Gb|--5----5----5----5----5----5--5------5--8-8-------------|
Db|--------------------------------------------------------|


                                                  
Db|--------------------------------------------------------|
Bb|--8----9-----8------10----10--11----10------------------|
Gb|--8----8-----8------10----10--10----10------------------|
Db|--8----10----8------10----10--12----10------------------|
Gb|--8----8-----8------10----10--10----10------------------|
Db|--------------------------------------------------------|



Rhythm Fig. 4
                                             
Db|--------------------------------------------------------|
Bb|--------------------------------------------------------|
Gb|--0----3----0------0----0--3----5-----------------------|
Db|--0----3----0------0----0--3----5-----------------------|
Gb|--0----3----0------0----0--3----5-----------------------|
Db|--------------------------------------------------------|


                                             
Db|--------------------------------------------------------|
Bb|--------------------------------------------------------|
Gb|--5----3----5------5----5--3----0-----------------------|
Db|--5----3----5------5----5--3----0-----------------------|
Gb|--5----3----5------5----5--3----0-----------------------|
Db|--------------------------------------------------------|



Rhythm Fig. 5a
                                         
Db|--------------------------------------------------------|
Bb|--10------------------5---------------------------------|
Gb|--10------------------5---------------------------------|
Db|--10------------------5---------------------------------|
Gb|--10------------------5---------------------------------|
Db|--------------------------------------------------------|


                                                   
Db|--------------------------------------------------------|
Bb|--------------------------------------------------------|
Gb|--------------------------------------------------------|
Db|-----3\-2-----3\-2-----3\-2-----3\-2--------------------|
Gb|--0--3\-2--0--3\-2--0--3\-2--0--3\-2--0-----------------|
Db|--------------------------------------------------------|



Rhythm Fig. 5b
                                         
Db|--------------------------------------------------------|
Bb|--10------------------5---------------------------------|
Gb|--10------------------5---------------------------------|
Db|--10------------------5---------------------------------|
Gb|--10------------------5---------------------------------|
Db|--------------------------------------------------------|



Rhythm Fig. 6a (Let ring throughout)
                                                               
Db|-----10------------------12------------10--10/-12-------|
Bb|---------10----------12------10------------10/-12-------|
Gb|-------------10/-12----------------10-------------------|
Db|--------------------------------------------------------|
Gb|--0--------------------------------------------------0--|
Db|--------------------------------------------------------|



Rhythm Fig. 6b

Db|--------------------------------------------------------|
Bb|--------------------------------------------------------|
Gb|--------------------------------------------------------|
Db|--------------------------------------------------------|
Gb|--0--------------------------------------------------0--|
Db|--------------------------------------------------------|



HEAVEN'S ON FIRE
Stanley/Child

[Rhy. Fig 1]

[Rhy. Fig 2]
I look at you and my blood boils hot, I feel my temperature rise 
[Rhy. Fig 2 w/ End 1]
I want it all, give me what you got, there's hunger in your eyes 

[Rhy. Fig 3a]
I'm getting closer, baby hear me breathe 
You know the way to give me what I need 
Just let me love you and you'll never leave 

[Rhy. Fig 4] (2x)
Feel my heat takin' you higher, burn with me, Heaven's on fire 
Paint the sky with desire, angel fly, Heaven's on fire 

[Rhy. Fig 2]
I got a fever ragin' in my heart, you make me shiver and shake 
[Rhy. Fig 2 w/ End 1]
Baby don't stop, take it to the top, eat it like a piece of cake 

[Rhy. Fig 3a]
You're comin' closer, I can hear you breathe 
You drive me crazy when you start to tease 
You could bring the devil to his knees 

[Rhy. Fig 4] (2x)
Feel my heat takin' you higher, burn with me, Heaven's on fire 
Paint the sky with desire, angel fly, Heaven's on fire 

[Rhy. Fig 5a] (2x)
Oooh Heaven's on fire, oh Heaven's on fire 
[Rhy. Fig 5b]
Oooh

[Rhy. Fig 6a w/ Rhy. Fig 6b] (3x)

[Rhy. Fig 3b]
I'm getting closer, baby hear me breathe 
You know the way to give me what I need 
Just let me love you and you'll never leave 

[Rhy. Fig 4]
Feel my heat takin' you higher, burn with me, Heaven's on fire 
Paint the sky with desire, angel fly, Heaven's on fire

(repeat and fade)

Track 3 - Burn Bitch Burn

Rhythm Fig. 1 
                                                                             
Eb|----------------------------------------------------------|
Bb|-----------------------------------------------3----------|
Gb|--------2------2-----2-------------2-----------2----------|
Db|--------2------2-----2-------------2-----------0----------|
Ab|--------0------0-----0-------------0----------------------|
Eb|--0-2-3----------3-3---3~----0-2-3---------0-0------------|
     P.M.           P.M.        P.M.          P.M.




Rhythm Fig. 2 
                                                                      
Eb|----------------------------------------------------------|
Bb|----------------------------------------------------------|
Gb|--------2------2-----2-------------2----------------------|
Db|--------2------2-----2-------------2----------------------|
Ab|--------0------0-----0-------------0----------------------|
Eb|--0-2-3----------3-3---3~----0-2-3------------------------|
     P.M.           P.M.        P.M.



Rhythm Fig. 3a
                                                                            
Eb|----------------------------------------------------------|
Bb|--------------------------------------3----------3--------|
Gb|----------2------------4--------------2----------0--------|
Db|----------2------------4-------------------------0--------|
Ab|-------------------------------------------------x--------|
Eb|--0-2-2-2------0-2-2-2--------0-2-2-2------0-1-2-3--------|
     P.M. ->      P.M. ->        P.M. ->     P.M.->




Rhythm Fig. 3b
                                                                                              
Eb|----------------------------------------------------------|
Bb|----------------------------------3---------3---3---3-----|
Gb|---------2-----------4------------2---------0---0---0-----|
Db|---------2-----------4----------------------0---0---0---2-|
Ab|--------------------------------------------x---x---x---2-|
Eb|-0-2-2-2-----0-2-2-2------0-2-2-2-----0-1-2-3---3---3---0-|
    P.M. ->     P.M. ->      P.M. ->    P.M.->




Rhythm Fig. 4
                                                                                   
Eb|----------------------------------------------------------|
Bb|-------------------------3--------------------------------|
Gb|--2----2----2----2-----2-0--------------------------------|
Db|--2----2----2----2-----2-0--------------------------------|
Ab|--0----0----0----0-----0-x--------------------------------|
Eb|-------------------------3--------------------------------|



Eb|----------------------------------------------------------|
Bb|-------------------------3---3----------------------------|
Gb|--2----2----2----2-----2-0---2----------------------------|
Db|--2----2----2----2-----2-0---0----------------------------|
Ab|--0----0----0----0-----0-x--------------------------------|
Eb|-------------------------3--------------------------------|



Eb|----------------------------------------------------------|
Bb|-------------------------3--------------------------------|
Gb|--2----2----2----2-----2-0--------------------------------|
Db|--2----2----2----2-----2-0--------------------------------|
Ab|--0----0----0----0-----0-x--------------------------------|
Eb|-------------------------3--------------------------------|




Eb|----------------------------------------------------------|
Bb|----------------------------------------------------------|
Gb|--2----2----2----2-----2----------------------------------|
Db|--2----2----2----2-----2-----2----------------------------|
Ab|--0----0----0----0-----0-----2----------------------------|
Eb|-------------------------3---0----------------------------|



Interlude solo

Eb|----------------------------------------------------------|
Bb|-----------------------13---------------------------------|
Gb|--12*(\)--------12b-------14~--(\/)(\/)(\/)-14p12h14p12---|
Db|--12*(\)--------------------------------------------------|
Ab|----------------------------------------------------------|
Eb|----------------------------------------------------------|
                                               Lower whammy



Eb|----------------------------------------------------------|
Bb|--13b~----------------------------------------------------|
Gb|---------14-(\/)(\/)(\/)(\/)-5b-----r5-0h2p0h2p0---14-----|
Db|----------------------------------------------------------|
Ab|----------------------------------------------------------|
Eb|----------------------------------------------------------|
                                          Lower whammy



Eb|----------------------------12-15p12----------------------|
Bb|--13b----r13----------13-15----------13h15-13\10h13p10----|
Gb|--------------14~-----------------------------------------|
Db|----------------------------------------------------------|
Ab|----------------------------------------------------------|
Eb|----------------------------------------------------------|




Eb|----------------------------------------------------------|
Bb|----------------------------------------------------------|
Gb|--12-9----9-----------------------------------------------|
Db|-------12---12-10~--(\/)(\/)(\/)(\/)(\)-------------------|
Ab|----------------------------------------------------------|
Eb|----------------------------------------------------------|




Riff 1

Eb|-------------------------------------10-9-----------------|
Bb|------------------------------------------10-(\)----------|
Gb|--5~------------------------------------------------------|
Db|--5~------------------------------------------------------|
Ab|----------------------------------------------------------|
Eb|----------------------------------------------------------|
     Fade in w/ volume knob
 


Eb|----------------------------------------------------------|
Bb|----------------------------------------------------------|
Gb|--2-------------------------------------------------------|
Db|--2-------------------------------------------------------|
Ab|----------------------------------------------------------|
Eb|----------------------------------------------------------|
     Fade in w/ volume knob



Solo

Eb|----------------------------------------------------------|
Bb|----------------------------------------------------------|
Gb|--(/)-4*-(\)------------------/9~----9p7~-----------12----|
Db|----------------------------------------------------------|
Ab|----------------------------------------------------------|
Eb|----------------------------------------------------------|
    Hammer-on from nowhere



Eb|----------------------------------------------------------|
Bb|---------13--------------------------------------17-20p17-|
Gb|--12b-------14~---(\/)(\/)(\/)(\/)(\)---------19----------|
Db|----------------------------------------------------------|
Ab|---------------------------------------(12)---------------|
Eb|----------------------------------------------------------|
                                                 < - 2x - - >



Eb|------------------------------20b~-----17-19-17-19b--r19p-|
Bb|--20b---20p17----17-20b----17-----------------------------|
Gb|--------------19------------------------------------------|
Db|----------------------------------------------------------|
Ab|----------------------------------------------------------|
Eb|----------------------------------------------------------|




Eb|--17-19b--r19p17------------------------------------------|
Bb|-----------------20b~-------------------------------5-----|
Gb|----------------------------------------5---5h7p5h7---7---|
Db|--------------------------------5h7p5h7---7---------------|
Ab|----------------------------------------------------------|
Eb|----------------------------------------------------------|




Eb|----------5---5h8p5h8p8-t10-5h8p8-t8-5h8p5-t10-5h8p5-t12--|
Bb|--5h8p5h8---8---------------------------------------------|
Gb|----------------------------------------------------------|
Db|----------------------------------------------------------|
Ab|----------------------------------------------------------|
Eb|----------------------------------------------------------|




Eb|--5h8p5-t10-5h8p5------/17--15~---------------------------|
Bb|-----------------------------------10h13p10h13p10-13b-----|
Gb|----------------------------------------------------------|
Db|----------------------------------------------------------|
Ab|----------------------------------------------------------|
Eb|----------------------------------------------------------|




Eb|----------------------------------------------------------|
Bb|--r13--10(\/)(\/)-13b----r13-10(\/)(\/)(\/)---------13-15-|
Gb|------------------------------------------------/14-------|
Db|----------------------------------------------------------|
Ab|----------------------------------------------------------|
Eb|----------------------------------------------------------|




Eb|--12-12h15p12-15-15b------r15p14~~------------------------|
Bb|----------------------------------------------------------|
Gb|----------------------------------------------------------|
Db|----------------------------------------------------------|
Ab|----------------------------------------------------------|
Eb|----------------------------------------------------------|






BURN BITCH BURN
Simmons

[Rhy. Fig 1] (4x)

[Rhy. Fig 1]
Well it¥s out of the frying pan and into the fire
[Rhy. Fig 2]
You bent over baby and let me be the driver
[Rhy. Fig 1]
Just a cut of pink wouldn¥t believe me if I told you
[Rhy. Fig 2]
But this time you bit off more than you can chew
[Rhy. Fig 1]
My, my, yeah
[Rhy. Fig 2]
Just listen to this babe

[Rhy. Fig 3a] (3x)
You got nasty habits, it¥s a fine line
So many girls so, little time
When love rears its head, I wanna get on your case
[Rhy. Fig 3b]
Ooh baby, wanna put my log in your fireplace
Maybe baby, you wanna get played

[Rhy. Fig 4]
Burn bitch burn, oooh
Ain¥t starvin¥ for love, won¥t die of thirst
Burn bitch burn, oooh
There ain¥t no deposit, no return

[Interlude solo over Rhy. Fig 1]
[Rhy. Fig 2]

[Rhy. Fig 1]
Well it¥s an act of trust and any way you slice it
[Rhy. Fig 2 w/ Riff 1]
No sticks and stones, no kicks and groans can hide it
[Rhy. Fig 1]
So why kid yourself, it¥s so cut and dry
[Rhy. Fig 2]
Your body¥s condemned, figures don¥t lie

[Rhy. Fig 3a] (3x)
Gonna cover my class, won¥t sit up and beg
Gotta keep my tail between my legs
You¥re cuttin¥ off your nose to spit in your face
[Rhy. Fig 3b]
Ooh yeah, gonna put you in your place

[Rhy. Fig 4]
Burn bitch burn, oooh
Ain¥t starvin¥ for love, won¥t die of thirst
Burn bitch burn, oooh
There ain¥t no deposit, no return

[Rhy. Fig 1] (4x)
We all are blue baby (So just burn)

[Solo over Rhy. Fig 1 alternated with Rhy. Fig 2]

[Rhy. Fig 3a] (2x)
Well the heels are stacked, against you
So don¥t burn your bridges, we¥re all through
[Rhy. Fig 3b]
Ooh, ooh
There¥s nothing you can do

[Rhy. Fig 4]
Burn bitch burn, oooh
Ain¥t starvin¥ for love, won¥t die of thirst
Burn bitch burn, oooh
There ain¥t no deposit, no return

Track 4 - Get All You Can Take

Rhythm Fig. 1
                                                             
Eb|--------------------------------------------------------|
Bb|--------------------------------------------------------|
Gb|--7/9-9-9-9\----7--7-7--9-------------------------------|
Db|--7/9-9-9-9\----7--7-7--9------------------5~--4--------|
Ab|--5/7-7-7-7\----5--5-5--7---4p0--5p0--7p0--------7-5----|
Eb|--------------------------------------------------------|



End 1
                                                       
Eb|--------------------------------------------------------|
Bb|--------------------------------------------------------|
Gb|--7/9-9-9-9\----7--7-7--9----------------------2--------|
Db|--7/9-9-9-9\----7--7-7--9----------------------2--------|
Ab|--5/7-7-7-7\----5--5-5--7---4p0--5p0--7p0------0--------|
Eb|-------------------------------------------2b-----------|



End 2
                                                       
Eb|--------------------------------------------------------|
Bb|-----------------------------------------------3--------|
Gb|--7/9-9-9-9\----7--7-7--9----------------------2--------|
Db|--7/9-9-9-9\----7--7-7--9----------------------0--------|
Ab|--5/7-7-7-7\----5--5-5--7---4p0--5p0--7p0---------------|
Eb|-------------------------------------------2b-----------|



Rhythm Fig. 2
                                                        
Eb|--------------------------------------------------------|
Bb|-------------------------3------------------------------|
Gb|---2p0-0-2----2p0-0-2--x-2---2p0-0-2----2p0-------------|
Db|---2p0-0-2----2p0-0-2--x-0---2p0-0-2----2p0-------------|
Ab|---0----------0--------------0--------------------------|
Eb|--------------------------------------------0h2b--------|



End 1
                                                      
Eb|--------------------------------------------------------|
Bb|-------------------------3------------------------------|
Gb|---2p0-0-2----2p0-0-2--x-2---2p0-0-2--------x-2---------|
Db|---2p0-0-2----2p0-0-2--x-0---2p0-0-2--------x-2---------|
Ab|---0----------0--------------0--------------x-0---------|
Eb|--------------------------------------------------------|



End 2
                                                    
Eb|--------------------------------------------------------|
Bb|-------------------------3------------------------------|
Gb|---2p0-0-2----2p0-0-2--x-2---2p0-0-2--------------------|
Db|---2p0-0-2----2p0-0-2--x-0---2p0-0-2--------------------|
Ab|---0----------0--------------0-----0--------------------|
Eb|--------------------------------------------------------|



Rhythm Fig. 3 (Let ring)
                                                    
Eb|--------------------------------------------------------|
Bb|-------------------------------------------3------------|
Gb|--------4-----------4-----------4-----2----2------------|
Db|-----4-----4-----4-----4-----4-----4--2----0------------|
Ab|--2-----------------------------------0-----------------|
Eb|--------------2-----------3-----------------------------|



End 1
                                                      
Eb|--------------------------------------------------------|
Bb|----------------------------------------3---------------|
Gb|--------4-----------4-----------4-----x-2---x-2---------|
Db|-----4-----4-----4-----4-----4-----4--x-0---x-2---------|
Ab|--2-------------------------------------------0---------|
Eb|--------------2-----------3-----------------------------|



End 2
                                                    
Eb|--------------------------------------------------------|
Bb|----------------------------------------------3---------|
Gb|--------4-----------4-----------4-----x-2---x-2---------|
Db|-----4-----4-----4-----4-----4-----4--x-2---x-0---------|
Ab|--2-------------------------------------0---------------|
Eb|--------------2-----------3-----------------------------|



Rhythm Fig. 4a
                                                          
Eb|--------------------------------------------------------|
Bb|--------------------------------------------------------|
Gb|---5\4-0-2p0-0-5\4-0-7~------5\4-0-2p0-0-5\4-0-5~-------|
Db|---5\4-0-2p0-0-5\4-0-7~------5\4-0-2p0-0-5\4-0-5~-------|
Ab|--------------------------------------------------------|
Eb|--------------------------------------------------------|



Rhythm Fig. 4b
                                                        
Eb|--------------------------------------------------------|
Bb|--------------------------------------------------------|
Gb|---5\4-0-2p0-0-5\4-0-7~------5\4-0h2----5\4-0h2---------|
Db|---5\4-0-2p0-0-5\4-0-7~------5\4-0h2----5\4-0h2---------|
Ab|--------------------------------------------------------|
Eb|--------------------------------------------------------|



Rhythm Fig. 5a (Let ring)
                                                            
Eb|--------------------------------------------------------|
Bb|-------9-------10-----9----------12---------13------12--|
Gb|----------9--9------9----------------12--12------12-----|
Db|--------------------------------------------------------|
Ab|---------------------------10---------------------------|
Eb|--0-----------------------------------------------------|
    < - - - - - 4x - - - - >  < - - - - - - 4x - - - - - >

                                                          
Eb|--------------------------------------------------------|
Bb|--------15---------16------15---------------------------|
Gb|------------15--15------15-------3----3----x-5---x-7----|
Db|---------------------------------3----3----x-5---x-7----|
Ab|--13-----------------------------1----1------3-----5----|
Eb|--------------------------------------------------------|
    < - - - - - - 3x - - - - - >


Rhythm Fig. 5b
                                           
Eb|--------------------------------------------------------|
Bb|---------------------------3----------------------------|
Gb|--9------------------------0----------------------------|
Db|--9------------------------0----------------------------|
Ab|--7-----------------------------------------------------|
Eb|--0------------------------3----------------------------|
   < 4x >                  < 4x >

                                              
Eb|--------------------------------------------------------|
Bb|--------------------------------------------------------|
Gb|--3-------------------------------3----3----x-5---x-7---|
Db|--3-------------------------------3----3----x-5---x-7---|
Ab|--1-------------------------------1----1------3-----5---|
Eb|--------------------------------------------------------|
   < 3x >




Solo

Eb|-------12-------12--------------------------------------|
Bb|--12------15p12------15(12)----------15p12h15~----15p12-|
Gb|--14b---------------------------------------------------|
Db|--------------------------------------------------------|
Ab|--------------------------------------------------------|
Eb|--------------------------------------------------------|
   < - - - 4x - - - >    Lower whammy



Eb|--------------------------------------------------------|
Bb|--------------------------------------------------------|
Gb|--14b~-----r14-12h14p(\/)12---12h14h(\/)12---p0(\)------|
Db|--------------------------------------------------------|
Ab|--------------------------------------------------------|
Eb|--------------------------------------------------------|




Eb|-------------------------------------6p3---3------------|
Bb|--15**-----------------------------------6---6-3h6p3----|
Gb|----------(/)14p12h(\/)14p12-------------------------5--|
Db|--------------------------------------------------------|
Ab|--------------------------------------------------------|
Eb|--------------------------------------------------------|




Eb|--------------------------------------------------------|
Bb|--6p3---3-----------------------------------------------|
Gb|------5---5-3h5p3---5p3---3------5* (\/)-(\/)----5p3p0--|
Db|------------------5-----5---5p3-------------------------|
Ab|--------------------------------------------------------|
Eb|--------------------------------------------------------|




Eb|-----------------------------------------------6---8/---|
Bb|-----------------------------------------3h6/8----------|
Gb|--5p3p0----------------------------0h3h5----------------|
Db|--------5p3p0-5p3p0(\)---0h3p0-3h5----------------------|
Ab|--------------------------------------------------------|
Eb|--------------------------------------------------------|




Eb|--13~---------------------------------------------------|
Bb|---------11h13p(\/)11-13p(\/)11-(\/)---\----------------|
Gb|-----------------------------------------3(\)-----------|
Db|--------------------------------------------------------|
Ab|--------------------------------------------------------|
Eb|--------------------------------------------------------|




Eb|-------------13/-16-------------------------------------|
Bb|---------15---------------------------------------------|
Gb|--(/)15--------------pb^13----r13-----------------------|
Db|---------------------------------------------10h11h13---|
Ab|-------------------------------------10h11h13-----------|
Eb|--------------------------------------------------------|




Eb|--------------------------------------------------------|
Bb|-----------10/16---14--13-------------------------------|
Gb|--10h11h13-----------------15~---------------------6-8--|
Db|--------------------------------------6-8-6-8~----------|
Ab|--------------------------------------------------------|
Eb|--------------------------------------------------------|




Eb|-------------------------(6)-----------16b--16--16b--16-|
Bb|------------6-9-6-9~------------------------------------|
Gb|--6-8~--------------------------------------------------|
Db|--------------------------------8\----------------------|
Ab|--------------------------------------------------------|
Eb|--------------------------------------------------------|




Eb|--16b~----18b----r18------------------------------------|
Bb|----------------------18~-------------------------------|
Gb|--------------------------------------------------------|
Db|--------------------------------------------------------|
Ab|--------------------------------------------------------|
Eb|--------------------------------------------------------|




Outro solo

Eb|--------------------------------------------------------|
Bb|--------------------------------------------------------|
Gb|--5p2p0-2p0-5**b----------------------------------------|
Db|--------------------------------------------------------|
Ab|--------------------------------------------------------|
Eb|--------------------------------------------------------|




Eb|--------------------------------------------------------|
Bb|--15b--15--13--15--13b---r13-(\)--------------13--15----|
Gb|------------------------------------------14------------|
Db|--------------------------------------------------------|
Ab|--------------------------------------------------------|
Eb|--------------------------------------------------------|




Eb|--------------------------------------------------------|
Bb|--13h15-13h15-13h15-----------13--15--13h15-13h15--13~--|
Gb|--14----14----14----14~---14----------14----14----------|
Db|--------------------------------------------------------|
Ab|--------------------------------------------------------|
Eb|--------------------------------------------------------|
     Semi-harmonics - >



Eb|--20b---17-20p17----20b---17-20p17----20b---17-20p17----|
Bb|-----------------20----------------20-------------------|
Gb|--------------------------------------------------------|
Db|--------------------------------------------------------|
Ab|--------------------------------------------------------|
Eb|--------------------------------------------------------|




Eb|--------------------------------------------------------|
Bb|--20b~------20b-r20p17-20b--\---------------------------|
Gb|--------------------------------------------------------|
Db|--------------------------------------------------------|
Ab|--------------------------------------------------------|
Eb|--------------------------------------------------------|




GET ALL YOU CAN TAKE
Stanley/Weissman

[Rhy. Fig 1 w/ End 1] (2x)

[Rhy. Fig 2 w/ End 1] (2x)
I didn't know 'bout the modern ways of life, I didn't really care 
I never gave a damn about the future, I never got my share 
Somebody said, boy your time's a wastin',
you're movin' much too slow 
So many things in life worth tastin',
so much you oughta know - look out 

[Rhy. Fig 3 w/ End 1]
Get down, fool around, if you got half a chance, you take it 
Ooh yeah, stand your ground, you gotta bend the rules to make it 
[Rhy. Fig 3 w/ End 2]
Hold tight, see the light, think of all the dues you're payin' 
So true, I'm tellin' you, wise up, can't you hear me sayin' 

[Rhy. Fig 1 w/ End 1] (2x)
You gotta get all you can take 
sing along, gotta keep on hummin' 
Stop waitin' for your lucky break - stop waitin', wastin' time 
What fuckin' difference does it make? - ooh, gotta keep it comin' 
You gotta get all you can take 
dontcha know I'm gonna take what's mine 

[Rhy. Fig 2 w/ End 2] (2x)
People lookin', eyes wide open, tell me what you see 
Bodies tired, minds 'a chokin', you gotta set 'em free 
Don't think about the race they're runnin',
they'll never let you in 
With all the rules, it's a race of fools,
and you can never win - look out 

[Rhy. Fig 3 w/ End 2]
Get down, fool around, think of all the dues you're payin' 
Oh yeah, stand your ground, wise up, can't you hear me sayin' 

[Rhy. Fig 1 w/ End 1]
You gotta get all you can take 
sing along, gotta keep on hummin' 
Stop waitin' for your lucky break - stop waitin', wastin' time 
[Rhy. Fig 1 w/ End 2]
What fuckin' difference does it make? - ooh, gotta keep it comin' 
You gotta get all you can take 
Ooooh! 

[Rhy. Fig 4a] (3x)
(Yeah you know what I'm talking about,
ah just take a look around you) 
[Rhy. Fig 4b]

[Solo over Rhy. Fig 5a w/ Rhy. Fig 5b]

[Rhy. Fig 1 w/ End 1] (2x)
You gotta get all you can take 
sing along, gotta keep on hummin' 
Stop waitin' for your lucky break - stop waitin', wastin' time 
What fuckin' difference does it make? - ooh, gotta keep it comin' 
You gotta get all you can take 
Ah, dontcha know I'm gonna take what's mine

[Rhy. Fig 2 w/ End 1 and Outro solo]
[Rhy. Fig 2 w/ End 2]

Track 5 - Lonely Is The Hunter

Rhythm Fig. 1
                                                                                       
Eb|-------------------------------------------------------------------------|
Bb|-------------------------3--2---------------------------3-2---2--3-2---2-|
Gb|-------------------------2--2---------------------------2-2---2--2-2---2-|
Db|-----------2-------------4--2----------------2----------4-2---2--4-2---2-|
Ab|-------------------------0--0---------------------------0-0---0--0-0---0-|
Eb|-0---0--3-----3--0----0------------0---0--3-----3--0--0------------------|






Rhythm Fig. 2a
                                                                                
Eb|-------------------------------------------------------------------------|
Bb|----------------------------3--2------------------------------------2----|
Gb|----------------------------2--2------------------------------------2----|
Db|--------------2-------------4--2-------------------2----------------2----|
Ab|----------------------------0--0------------------------------------0----|
Eb|--0-----0--3-----3--0----0-------------0-----0--3-----3--0----0--3-------|


                                                                                   
Eb|-------------------------------------------------------------------------|
Bb|---------------------------3--2-------------------------3-2---2--3-2---2-|
Gb|---------------------------2--2-------------------------2-2---2--2-2---2-|
Db|-------------2-------------4--2----------------2--------4-2---2--4-2---2-|
Ab|---------------------------0--0-------------------------0-0---0--0-0---0-|
Eb|--0----0--3-----3--0----0-----------0----0--3-----3--0-------------------|



Rhythm Fig. 2b
                                                                                
Eb|-------------------------------------------------------------------------|
Bb|----------------------------3--2------------------------------------2----|
Gb|----------------------------2--2------------------------------------2----|
Db|--------------2-------------4--2-------------------2----------------2----|
Ab|----------------------------0--0------------------------------------0----|
Eb|--0-----0--3-----3--0----0-------------0-----0--3-----3--0----0--3-------|


                                                                                
Eb|-------------------------------------------------------------------------|
Bb|----------------------------3--2---------------------------------3--3----|
Gb|----------------------------2--2---------------------------------0--2----|
Db|--------------2-------------4--2-------------------2-------------0--0----|
Ab|----------------------------0--0---------------------------------x-------|
Eb|--0-----0--3-----3--0----0-------------0-----0--3-----3--0----0--3-------|



Rhythm Fig. 3
                                                                                   
Eb|-------------------------------------------------------------------------|
Bb|--------------3-------3--3--------------------------------3------3-------|
Gb|--------------0-------2--2--------------------------------0------2-------|
Db|--2--2--------0-------0--0--------------------2--2--------0------0-------|
Ab|--2--2--------x-------------------------------2--2--------x--------------|
Eb|--0--0--------3-------------------------------0--0--------3--------------|



Rhythm Fig. 4
                                                                                
Eb|-------------------------------------------------------------------------|
Bb|----------------------------3--2------------------------------------2----|
Gb|----------------------------2--2------------------------------------2----|
Db|--------------2-------------4--2-------------------2----------------2----|
Ab|----------------------------0--0------------------------------------0----|
Eb|--0-----0--3-----3--0----0-------------0-----0--3-----3--0----0--3-------|


Eb|-------------------------------------------------------------------------|
Bb|-------------------------3--2---------------------------8--8--8--7--7--7-|
Gb|-------------------------2--2---------------------------7--7--7--7--7--7-|
Db|-----------2-------------4--2---------------2-----------9--9--9--7--7--7-|
Ab|-------------------------0--0--------------------------------------------|
Eb|-0---0--3-----3--0----0-----------0---0--3-----3--0---0------------------|




Rhythm Fig. 5
                                                                   
Eb|-------------------------------------------------------------------------|
Bb|--------------------------------------------------8---8---8---7---7---7--|
Gb|--------------------------------------------------7---7---7---7---7---7--|
Db|--------------------------------------------------9---9---9---7---7---7--|
Ab|-------------------------------------------------------------------------|
Eb|--3p0-3p0-3p0-0-0--0-3p0-3p0-0-0--3p0-3p0-3p0-0-0------------------------|
    < - - - - - - - - - - - - - - - - 4x - - - - - - - - - - - - - - - - - >


                                                                                  
Eb|-------------------------------------------------------------------------|
Bb|--8---8---8---7---7---7---8---8---8---7---7---7---5---5---5----2---------|
Gb|--7---7---7---7---7---7---7---7---7---7---7---7---5---5---5----2---------|
Db|--9---9---9---7---7---7---9---9---9---7---7---7---5---5---5----2---------|
Ab|---------------------------------------------------------------0---------|
Eb|-------------------------------------------------------------------------|



Rhythm Fig. 6

Eb|-------------------------------------------------------------------------|
Bb|--8---8---8---7---7---7---5---5---5----2---------------------------------|
Gb|--7---7---7---7---7---7---5---5---5----2-------------9--9\---------------|
Db|--9---9---9---7---7---7---5---5---5----2-------------9--9\---------------|
Ab|---------------------------------------0-------------7--7\---------------|
Eb|-------------------------------------------------------------------------|
    < - - - - 2x - - - - >



Riff 1
                                                                         
Eb|-------------------------------------------------------------------------|
Bb|-------------------------------------------------------------------------|
Gb|-------------------------------------------------------------------------|
Db|---7\6--7--8/9~----\-----------------------------------------------------|
Ab|-------------------------------------------------------------------------|
Eb|---5\4--5--6/7~----\-----------------------------------------------------|



Riff 2

Eb|-------------------------------------------------------------------------|
Bb|-------------------------------------------------------------------------|
Gb|--9\---------------------------------------------------------------------|
Db|--9\---------------------------------------------------------------------|
Ab|--7\---------------------------------------------------------------------|
Eb|-------------------------------------------------------------------------|







Intro solo

Eb|----------------------------------------------------15-------------------|
Bb|-------------------15-------------15p12------15b-------15b~--------------|
Gb|-------------------14b~--------------------------------------------------|
Db|-------------------------------------------------------------------------|
Ab|--0-(\)------------------------------------------------------------------|
Eb|-------------------------------------------------------------------------|



Eb|----------------------------17b-----17b--17b----19-18-17-15-17-18-17b-17-|
Bb|--15(12)-------12(\/)----------------------------------------------------|
Gb|-------------------------------------------------------------------------|
Db|-------------------------------------------------------------------------|
Ab|-------------------------------------------------------------------------|
Eb|-------------------------------------------------------------------------|
    Lower whammy



Eb|--15h17p(\/)15-(\)-------------------------------------------------------|
Bb|----------------------(/)15h17p15-(\)------------------------------------|
Gb|-------------------------------------------------------------------------|
Db|-------------------------------------------------------------------------|
Ab|-------------------------------------------------------------------------|
Eb|-------------------------------------------------------------------------|




Solo

Eb|-------------------------------------------------------------------------|
Bb|--------------------------------------15---------------------------------|
Gb|--------------------------------------14b~----------------14b--14b--14b--|
Db|-------------------------------------------------------------------------|
Ab|-------------------------------------------------------------------------|
Eb|-------------------------------------------------------------------------|
   Low whammy bar noise w/ pick scrapes  Vib w/ bar



Eb|--------------------------------------------------------12-------12-x----|
Bb|--------------------------------------------------12-15----12-15------15-|
Gb|--14-14b--14-14b--14--14b~----14(/)~~-(\)--------------------------------|
Db|-------------------------------------------------------------------------|
Ab|-------------------------------------------------------------------------|
Eb|-------------------------------------------------------------------------|
                                 Up two steps



Eb|---------------12-----------12-15p12----12-------------------------------|
Bb|--12h15p12--------15p12-15----------15----15-12h15p12----12--------------|
Gb|-----------14b-----------------------------------------14----14p12-(\/)--|
Db|-------------------------------------------------------------------------|
Ab|-------------------------------------------------------------------------|
Eb|-------------------------------------------------------------------------|




Eb|-----12-------12-------12--15--17b----19b^^~---19-18-17------------------|
Bb|--15------15-------15-----------------------------------20-19-17----17---|
Gb|-----------------------------------------------------------------19------|
Db|-------------------------------------------------------------------------|
Ab|-------------------------------------------------------------------------|
Eb|-------------------------------------------------------------------------|
   < - - - 3x - - - >



Eb|-------------------------------------------------------------------------|
Bb|--20b^^------17----20-20-17----17--------------17-20-17-20b^^-r20-17-----|
Gb|----------------19----------19----19b~-------------------------------19--|
Db|-------------------------------------------------------------------------|
Ab|-------------------------------------------------------------------------|
Eb|-------------------------------------------------------------------------|




Eb|-------------------------------------12-------12------12-------12--------|
Bb|--20p17----17\15----15------(12)--12----15p12------------15p12-----------|
Gb|--------19-------16---16~----14b------------------14b--------------------|
Db|-------------------------------------------------------------------------|
Ab|-------------------------------------------------------------------------|
Eb|-------------------------------------------------------------------------|
                                                    < - - - 2x - - - >



Eb|-------------------------------------------------------------------------|
Bb|------12h15p12----12h15p12----12--------------------------15-15----15-15-|
Gb|--14b----------14----------14----14p12(\/)-----\-----/16--------16-------|
Db|-------------------------------------------------------------------------|
Ab|-------------------------------------------------------------------------|
Eb|-------------------------------------------------------------------------|
                                                                   < - 3x - >



Eb|---------------------------------14-15-17p15p14----15-----15----15----15-|
Bb|------15--16--17---17(/)-(\)~-------------------17----17b----19----17----|
Gb|--16---------------------------------------------------------------------|
Db|-------------------------------------------------------------------------|
Ab|-------------------------------------------------------------------------|
Eb|-------------------------------------------------------------------------|
                                                         < - - - 2x - - - - >



Eb|------15----15-17-19--19b^^~---------------------------------------------|
Bb|--17b----19--------------------------------------------------------------|
Gb|-------------------------------------------------------------------------|
Db|-------------------------------------------------------------------------|
Ab|-------------------------------------------------------------------------|
Eb|-------------------------------------------------------------------------|





LONELY IS THE HUNTER
Simmons

[Rhy. Fig 1]
[Rhy. Fig 2a]

[Rhy. Fig 2a]
My eggs in one basket
But she threw me a bone
She was dealt a full deck
But she likes to live alone

[Rhy. Fig 2b]
Ain¥t just talking to myself
Need a reason to stop (oh yeah)
With a flower in her teeth
She drained the last drop

[Rhy. Fig 3 with Riff 1]
I said
Girls like money
Like bees to honey

[Rhy. Fig 2a w/ Riff 2]
But, lonely is the hunter
You¥re my one and only
And lonely is the hunter

[Rhy. Fig 2a]
Asked her for a refill
Sweat flew off my face
She¥s a torture chamber
Kept me in a cage

[Rhy. Fig 2b]
She¥s a legendary figure
When I seduced her in my bed
She gave a cold reading
Success went to her head

[Rhy. Fig 3 with Riff 1]
I said
In heart of battle
The heart cannot rule
I¥m such a fool

[Rhy. Fig 2a w/ Riff 2]
But, lonely is the hunter
You¥re my one and only
And lonely is the hunter

[Rhy. Fig 4 w/ Riff 2]
But, lonely is the hunter
You¥re me one and only
And lonely is the hunter

[Rhy. Fig 5]
[Rhy. Fig 2a]

[Solo over Rhy. Fig 2a (2x)]

[Rhy. Fig 2a w/ Riff 2]
But, lonely is the hunter
You¥re my one and only
And lonely is the hunter

[Rhy. Fig 4 w/ Riff 2]
But, lonely is the hunter
You¥re my one and only
And lonely is the hunter
[Rhy. Fig 6]

Track 6 - Under The Gun

Rhythm Fig. 1a
                                                                     
Eb|-------------------------------------------------------------|
Bb|-------------------------------------------------------------|
Gb|--5------------------------5--5-------------------------5--5-|
Db|--5------------------------5--5-------------------------5--5-|
Ab|-----0-0-0-0-0-0-0-0-0-0-0--------0-0-0-0-0-0-0-0-0-0-0------|
Eb|-------------------------------------------------------------|
        P.M. - - - - - - - - >        P.M. - - - - - - - - >

                                                                 
Eb|-------------------------------------------------------------|
Bb|-------------------------------------------------------------|
Gb|--------------------------5--5-------------------------------|
Db|--------------------------5--5-------------------------------|
Ab|----0-0-0-0-0-0-0-0-0-0-0--------0-0-0-0-0-0-0-0-0-0-0-0-0-0-|
Eb|-------------------------------------------------------------|
        P.M. - - - - - - - - >      P.M. - - - - - - - - - - - >


Rhythm Fig. 1b
                                                                 
Eb|-------------------------------------------------------------|
Bb|-------------------------------------------------------------|
Gb|--5------------------------5--5-------------------------5--5-|
Db|--5------------------------5--5-------------------------5--5-|
Ab|-----0-0-0-0-0-0-0-0-0-0-0--------0-0-0-0-0-0-0-0-0-0-0------|
Eb|-------------------------------------------------------------|
        P.M. - - - - - - - - >        P.M. - - - - - - - - >


                                                        
Eb|-------------------------------------------------------------|
Bb|-------------------------------------------------------------|
Gb|--------------------------------10---/12-------\-------------|
Db|--------------------------------10---/12-------\-------------|
Ab|----0-0-0-0-0-0-0-0-0-0-0-0-0-0-8----/10-------\-------------|
Eb|-------------------------------------------------------------|



Rhythm Fig. 2
                                                                 
Eb|-------------------------------------------------------------|
Bb|-------------------------------------------------------------|
Gb|--2----------0--2--0--5~---------0--2--0--5~-----------------|
Db|--2----------0--2--0--5~---------0--2--0--5~-----------------|
Ab|--0----------------------------------------------------------|
Eb|-------------------------------------------------------------|


                                                              
Eb|-------------------------------------------------------------|
Bb|-------------------------------------------------------------|
Gb|--0--5--0--2-------------------------------------------------|
Db|--0--5--0--2-------------------------------------------------|
Ab|-----------0-------------------------------------------------|
Eb|-------------------------------------------------------------|



Rhythm Fig. 3a
                                                  
Eb|-------------------------------------------------------------|
Bb|----------------------------3-------3-------3----------------|
Gb|----------------------------2---2---2---2---2----------------|
Db|-----2------2p0---0---2-----0---2---0---2---0----------------|
Ab|----------------0---------------0-------0--------------------|
Eb|--0----------------------------------------------------------|
    Let ring >


Rhythm Fig. 3b
                                                  
Eb|-------------------------------------------------------------|
Bb|----------------------------3---2---3---2---3----------------|
Gb|----------------------------2---2---2---2---2----------------|
Db|-----2------2p0---0---2-----4---2---4---2---4----------------|
Ab|----------------0-----------0---0---0---0---0----------------|
Eb|--0----------------------------------------------------------|
    Let ring >


Rhythm Fig. 3c
                                                                     
Eb|-------------------------------------------------------------|
Bb|-------------------------------------------------------------|
Gb|---------------------------5---5---7-------------------------|
Db|-----2------2p0---0---2----5---5---7-------------------------|
Ab|----------------0----------3---3---5-------------------------|
Eb|--0-------------------------------------17\------------------|
    Let ring >


Rhythm Fig. 4
                                                 
Eb|-------------------------------------------------------------|
Bb|-------------------------------------------------------------|
Gb|-------------------------------------------------------------|
Db|-------2---------------2p0----0--2p0---0---2p0---------------|
Ab|----------------------------0--------0-----------------------|
Eb|--0----------------------------------------------------------|
    Let ring - >


Rhythm Fig. 5
                                                            
Eb|-------------------------------------------------------------|
Bb|-------------------------------------------------------------|
Gb|-------------------------------------------------------------|
Db|-----2p0--4p0--5p0-4p0-2p0--------2p0--4p0--5p0-4p0-2~-------|
Ab|--0------------------------3---0-----------------------------|
Eb|-------------------------------------------------------------|



Rhythm Fig. 6a
                                                              
Eb|-------------------------------------------------------------|
Bb|----3-------3-------3----------------------------------------|
Gb|----2---2---2---2---2----------------------------------------|
Db|----0---2---0---2---0----------------------------------------|
Ab|--------0-------0--------------------------------------------|
Eb|-------------------------------------------------------------|



Rhythm Fig. 6b
                                                              
Eb|-------------------------------------------------------------|
Bb|----3---2---3---2---3----------------------------------------|
Gb|----2---2---2---2---2----------------------------------------|
Db|----4---2---4---2---4----------------------------------------|
Ab|----0---0---0---0---0----------------------------------------|
Eb|-------------------------------------------------------------|



Rhythm Fig. 7
                                         
Eb|-------------------------------------------------------------|
Bb|-------------------------------------------------------------|
Gb|-------------------------------------------------------------|
Db|--2----------------------------------------2-2---------------|
Ab|--2----------------------------------------2-2---------------|
Eb|--0----------------------------------------0-0---------------|



Intro solo

Eb|-------------------------------------------------------------|
Bb|-------------------------------------------------------------|
Gb|--4*----(\)----(/)---(\)-------------------------------------|
Db|-------------------------------------------------------------|
Ab|----------------------------------x/-------------------------|
Eb|----------------------------------x/-------------------------|



Eb|-------------------------------------------------------------|
Bb|---------------------13b--r13-12h13p12-----------------------|
Gb|--12b----r12-12b~----------------------14p12p11--------------|
Db|------------------------------------------------14p12p10-9~--|
Ab|-------------------------------------------------------------|
Eb|-------------------------------------------------------------|
  |                                                             |
  |                                                             |
  |                                                             |
Eb|---------------------12b--r12-10h12p10-----------------------|
Bb|--15b----r15-15b~----------------------13p12p10--------------|
Gb|------------------------------------------------12p11p9--7~--|
Db|---------------------------------------------------------9~--|
Ab|-------------------------------------------------------------|
Eb|-------------------------------------------------------------|




Eb|----------------------------------8h10h12--8h10h12--10h12h14-|
Bb|-----------------8h10h12-8h10h12-----------------------------|
Gb|--7h9h11-7h9h11----------------------------------------------|
Db|-------------------------------------------------------------|
Ab|-------------------------------------------------------------|
Eb|-------------------------------------------------------------|
  |                                                             |
  |                                                             |
  |                                                             |
Eb|-----------------------------------12h14h15-12h14h15-14h15h17|
Bb|------------------12h13h15-12h13h15--------------------------|
Gb|-11h12h14-11h12h14-------------------------------------------|
Db|-------------------------------------------------------------|
Ab|-------------------------------------------------------------|
Eb|-------------------------------------------------------------|



Eb|--10h12h14-12h14h15-12h14h15-12--15--17~---------------------|
Bb|-------------------------------------------------------------|
Gb|-------------------------------------------------------------|
Db|-------------------------------------------------------------|
Ab|-------------------------------------------------------------|
Eb|-------------------------------------------------------------|
  |                                                             |
  |                                                             |
  |                                                             |
Eb|--14h15h17-15h17h19-15h17h19-15--19--20~---------------------|
Bb|-------------------------------------------------------------|
Gb|-------------------------------------------------------------|
Db|-------------------------------------------------------------|
Ab|-------------------------------------------------------------|
Eb|-------------------------------------------------------------|



Riff 1

Eb|-------------------------------------------------------------|
Bb|-------------------------------------------------------------|
Gb|--12*-(\/)-(\)-----------------------------------------------|
Db|--12*-(\/)-(\)-----------------------------------------------|
Ab|-------------------------------------------------------------|
Eb|-------------------------------------------------------------|



Riff 2

Eb|-------------------------------------------------------------|
Bb|--15p13p12-13p12----12---------------------------------------|
Gb|-----------------14----14p12-14p12p11-14p12p11-12p11----11---|
Db|-----------------------------------------------------14------|
Ab|-------------------------------------------------------------|
Eb|-------------------------------------------------------------|



Eb|-------------------------------------------------------------|
Bb|-------------------------------------------------------------|
Gb|-------------------------------------------------------------|
Db|--14p12p10---------------------------------------------------|
Ab|-----------14p12p10~-----------------------------------------|
Eb|------------------------12-(\)-------------------------------|



Solo

Eb|-------------------------------------------------------------|
Bb|---------------------------5*(\)------5-/8-t10(8)-\5h8-t10p8-|
Gb|--4*(\)------------------------------------------------------|
Db|-------------------------------------------------------------|
Ab|-------------------------------------------------------------|
Eb|------------(/)5~--------------------------------------------|



Eb|--------------------------------------------/15~------17--15-|
Bb|--t10p8-t10/-5h8p5-------------------------------------------|
Gb|-------------------7b-r7p5(\/)-(/)7p5~-----------------------|
Db|-------------------------------------------------------------|
Ab|-------------------------------------------------------------|
Eb|-------------------------------------------------------------|
  |                                     w/ bar                  | 
  |                                                             |
  |                                                             |
Eb|--------------------------------------------/19~------20--19-|
Bb|-------------------------------------------------------------|
Gb|-------------------------------------------------------------|
Db|-------------------------------------------------------------|
Ab|-------------------------------------------------------------|
Eb|-------------------------------------------------------------|



Eb|--17--15--17--15~----------------------------0--/17-15----0--|
Bb|-------------------------------------------------------17----|
Gb|-----------------------14(12)-----(/)12(\)-------------------|
Db|-------------------------------------------------------------|
Ab|-------------------------------------------------------------|
Eb|-------------------------------------------------------------|
  |                       Lower bar                             |
  |                                                             |
  |                                                             |
Eb|--20--19--20--19~--------------------------------------------|
Bb|-------------------------------------------------------------|
Gb|-------------------------------------------------------------|
Db|-------------------------------------------------------------|
Ab|-------------------------------------------------------------|
Eb|-------------------------------------------------------------|



Eb|-15-12-------------------------------------------------------|
Bb|-------15-13-17-15-13----15-13----------13-------------------|
Gb|----------------------14-------14-12-14----12-14-12----------|
Db|----------------------------------------------------14-12-10-|
Ab|-------------------------------------------------------------|
Eb|-------------------------------------------------------------|



Eb|------------------------------x-x-17~----x-x-19~----x-x-20---|
Bb|-------------------------------------------------------------|
Gb|-------------------------------------------------------------|
Db|-----12p10----10---------------------------------------------|
Ab|--12-------12----12-10~--------------------------------------|
Eb|-------------------------------------------------------------|
  |                                                             |
  |                                                             |
  |                                                             |
Eb|-------------------------------------------------------------|
Bb|------------------------------x-x-13~----x-x-15~----x-x-17---|
Gb|-------------------------------------------------------------|
Db|-------------------------------------------------------------|
Ab|-------------------------------------------------------------|
Eb|-------------------------------------------------------------|



Eb|--x-x-22--x-x-22b~-------------------------------------------|
Bb|-------------------------15p13----13-------------------------|
Gb|-------------------------------14----14-12-14p12----12----12-|
Db|-------------------------------------------------14----14----|
Ab|-------------------------------------------------------------|
Eb|-------------------------------------------------------------|
  |                                                             |
  |                                                             |
  |                                                             |
Eb|-------------------------------------------------------------|
Bb|--x-x-20--x-x-20b~-------------------------------------------|
Gb|-------------------------------------------------------------|
Db|-------------------------------------------------------------|
Ab|-------------------------------------------------------------|
Eb|-------------------------------------------------------------|



Eb|-----------------------------12----12-15-15b---15---15b---15-|
Bb|-----------13----13-15p13-15----15---------------------------|
Gb|--14p12-14----14---------------------------------------------|
Db|-------------------------------------------------------------|
Ab|-------------------------------------------------------------|
Eb|-------------------------------------------------------------|
  |                                                             |
  |                                                             |
  |                                                             |
Eb|-----------------------------------------19b^--19---19b^--19-|
Bb|-------------------------------------------------------------|
Gb|-------------------------------------------------------------|
Db|-------------------------------------------------------------|
Ab|-------------------------------------------------------------|
Eb|-------------------------------------------------------------|



Eb|--15b~-------------------------------------------------------|
Bb|-------------------------------------------------------------|
Gb|-------------------------------------------------------------|
Db|-------------------------------------------------------------|
Ab|--------------0(\)-------------------------------------------|
Eb|-------------------------------------------------------------|
  |                                                             |
  |                                                             |
  |                                                             |
Eb|--19b^~------------------------------------------------------|
Bb|-------------------------------------------------------------|
Gb|-------------------------------------------------------------|
Db|-------------------------------------------------------------|
Ab|-------------------------------------------------------------|
Eb|-------------------------------------------------------------|



Riff 3

Eb|-----12-15p12----12-15p1----12-15-12h15hp12----15p12----12---|
Bb|--15----------15---------15-----------------15-------15------|
Gb|-------------------------------------------------------------|
Db|-------------------------------------------------------------|
Ab|-------------------------------------------------------------|
Eb|-------------------------------------------------------------|



Eb|--15--15b~---\-----------------------------------------------|
Bb|-------------------------------------------------------------|
Gb|-------------------------------------------------------------|
Db|--------------------------------------------------t14-10h12--|
Ab|----------------------------------------t15-10h12------------|
Eb|--------------------------------t15-8h10---------------------|



Eb|-------------------t15-8h10-t15p8-t15p10~--------------------|
Bb|----------t13-8h10-------------------------------------------|
Gb|--t14-7h9----------------------------------------------------|
Db|-------------------------------------------------------------|
Ab|-------------------------------------------------------------|
Eb|-------------------------------------------------------------|



Eb|------17h20p17----17-20p17----20b-r20p17-20b-r20p17-20b~-----|
Bb|--/20----------20----------20--------------------------------|
Gb|-------------------------------------------------------------|
Db|-------------------------------------------------------------|
Ab|-------------------------------------------------------------|
Eb|-------------------------------------------------------------|



Eb|---------8h10p8\7h8p7----7-----------------------------------|
Bb|----------------------10---10-8h10p8p6h8p6---6---------------|
Gb|-------------------------------------------9---9-7h9p7p5h7p5-|
Db|-------------------------------------------------------------|
Ab|-------------------------------------------------------------|
Eb|-------------------------------------------------------------|



Eb|-------------------------------------------------------------|
Bb|-------------------------------------------------------------|
Gb|----5--------------------------------------------7*(\)-------|
Db|--9---9-7h9p7p5h7h5------------------------------------------|
Ab|--------------------7-(\/)(\/)(\)----------------------------|
Eb|-------------------------------------------------------------|



Riff 4
                                                        
Eb|--10p8p7h8p7----8--------------------------------------------|
Bb|-------------10---10-8h10p8p7-10p8p7h8p7---7-----------------|
Gb|-----------------------------------------9---9-7h9p7p5-------|
Db|-------------------------------------------------------------|
Ab|-------------------------------------------------------------|
Eb|-------------------------------------------------------------|


                                     
Eb|-------------------------------------------------------------|
Bb|-------------------------------------------------------------|
Gb|--9p7p5h7p5---5----------------------------------------------|
Db|------------9---9-7h9p7p5------------------------------------|
Ab|--------------------------7-7--------------------------------|
Eb|-------------------------------------------------------------|



Riff 5
                                                                         
Eb|--14p12p10h12p10----10---------------------------------------|
Bb|-----------------14----14-12h14p12p10-14p12p10h12p10---------|
Gb|-----------------------------------------------------12------|
Db|-------------------------------------------------------------|
Ab|-------------------------------------------------------------|
Eb|-------------------------------------------------------------|


                                            
Eb|-------------------------------------------------------------|
Bb|--10---------------------------------------------------------|
Gb|-----12-11h12p11p9-12p11p9h11p9----9-------------------------|
Db|--------------------------------12---12-11h12p11p9-----------|
Ab|-------------------------------------------------------------|
Eb|-------------------------------------------------------------|





UNDER THE GUN
Stanley/Carr/Child

[Rhy. Fig 1a]

[Rhy. Fig 2] (2x)
Lookin' for a thrill, you'll get it my way 
Let's hit the highway, I'll take you down 
Shoot out in the night, lookin' for action 
The main attraction is back in town

[Rhy. Fig 3a w/ Rhy. Fig 3b] 
Press the pedal to the metal
[Rhy. Fig 3c]
On your mark, set, go 

[Rhy. Fig 1a] (2x)
Under the gun - do your living on the trigger 
Under the gun - walk on the wire 
Under the gun - when the stakes are gettin' bigger 
Under the gun - take aim and fire 

[Rhy. Fig 2] (2x)
I don't need a reason to get crazy,
I'm gettin' crazy and that's enough 
[Riff 1]
Show me somethin' strange, I'll make it stranger 
I swear that danger runs in my blood 
[Riff 2]

[Rhy. Fig 3a w/ Rhy. Fig 3b] (3x)
Press the pedal to the metal, on your mark, set, go 
When the dust begins to settle, 
[Rhy. Fig 3c]
everybody's gonna know

[Rhy. Fig 1a]
Under the gun - do your living on the trigger 
Under the gun - walk on the wire 
[Rhy. Fig 1b]
Under the gun - when the stakes are gettin' bigger 
Under the gun - take aim and fire 

[Rhy. Fig 4] (4x)
Fire, fire, fire...

[Rhy. Fig 5] (2x)

[Rhy. Fig 5] (2x)
Well there's no speed limit where I'm comin' from 
Let's hit the highway doin' 69!! 

[Solo over Rhy. Fig 1a]

[Rhy. Fig 3a w/ Rhy. Fig 3b] (3x)
Press the pedal to the metal, on your mark, set, go 
When the dust begins to settle
[Rhy. Fig 3c]
Everybody's gonna know 

[Rhy. Fig 1a]
Under the gun - do your living on the trigger 
Under the gun - walk on the wire 
[Rhy. Fig 2b]
Under the gun - when the stakes are gettin' bigger 
Under the gun - take aim and fire 

[Rhy. Fig 1a]

[Rhy. Fig 1a (2x) w/ Riff 3]
Under the gun, under the gun
Under the gun, under the gun 

[Rhy. Fig 5] (4x)
C'mon boys (fire) I can't hear you - (fire) 

[Rhy. Fig 6a w/ Rhy. Fig 6b] (3x)
[Rhy. Fig 7 w/ Riff 4 and Riff 5]
Fire!

Track 7 - Thrills In The Night

Rhythm Fig. 1
                                                   
E|--------------------------------------------------------------|
B|--------------------------------------------------------------|
G|--7/-9--9----9------7/----9--9----9---------------------------|
D|--7/-9--9----9------7/----9--9----9---------------------------|
A|--5/-7--7----7------5/----7--7----7----0--2-------------------|
E|--------------------------------------------------------------|


End 1
                                                 
E|--------------------------------------------------------------|
B|--------------------------------------------------------------|
G|--5----5-----------9--7------7----7--7--7---------------------|
D|--5-------5-----9-----7------7----7--7--7---------------------|
A|--3----------7--------5------5----5--5--5---------------------|
E|--------------------------------------------------------------|
    Let ring > Let ring 


End 2
                                               
E|--------------------------------------------------------------|
B|--------------------------------------------------------------|
G|--5----5-----------9--7---------------------------------------|
D|--5-------5-----9-----7---------------------------------------|
A|--3----------7--------5---------------------------------------|
E|----------------------------------------------------------10--|
    Let ring > Let ring                                    P.M.


End 3
                                                   
E|--------------------------------------------------------------|
B|--------------------------------------------------------------|
G|--5----5-----------9--7-------x-x-5--x-x-4--------------------|
D|--5-------5-----9-----7-------x-x-5--x-x-4--------------------|
A|--3----------7--------5-------x-x-3--x-x-2--------------------|
E|--------------------------------------------------------------|
    Let ring > Let ring 


End 4
                                                       
E|--------------------------------------------------------------|
B|--------------------------------------------------------------|
G|--5----5-----------9--7-------x-x-12--x-x-11------------------|
D|--5-------5-----9-----7-------x-x-12--x-x-11------------------|
A|--3----------7--------5-------x-x-10--x-x-9-------------------|
E|----------------------------------------------------------10--|
    Let ring > Let ring                                    P.M.


Rhythm Fig. 2
                                               
E|--------------------------------------------------------------|
B|--------------------------------------------------------------|
G|--7/-9--9----9------7/----9--9----9------5--------------------|
D|--7/-9--9----9------7/----9--9----9------5--------------------|
A|--5/-7--7----7------5/----7--7----7------3--------------------|
E|--------------------------------------------------------------|



End 1
                                              
E|--------------------------------------------------------------|
B|--------------------------------------------------------------|
G|----5----9----9----7-------7----7--7--7-----------------------|
D|----5----9----9----7-------7----7--7--7-----------------------|
A|----3----7----7----5-------5----5--5--5-----------------------|
E|--------------------------------------------------------------|



End 2
                                               
E|--------------------------------------------------------------|
B|--------------------------------------------------------------|
G|----5----9----9----7------------------------------------------|
D|----5----9----9----7------------------------------------------|
A|----3----7----7----5------------------------------------------|
E|--------------------------------------------------------10----|
                                                         P.M.


End 3
                                                   
E|--------------------------------------------------------------|
B|--------------------------------------------------------------|
G|----5----9----9----7-----7--x-x-12--x-x-11--------------------|
D|----5----9----9----7-----7--x-x-12--x-x-11--------------------|
A|----3----7----7----5-----5--x-x-10--x-x-9---------------------|
E|--------------------------------------------------------------|


End 4
                                                 
E|--------------------------------------------------------------|
B|--------------------------------------------------------------|
G|----5----9----9----7-----7--x-x-5--x-x-4----------------------|
D|----5----9----9----7-----7--x-x-5--x-x-4----------------------|
A|----3----7----7----5-----5--x-x-3--x-x-2----------------------|
E|--------------------------------------------------------------|



Rhythm Fig. 3a
                                                          
E|--------------------------------------------------------------|
B|--------------------------------------------------------------|
G|--------------12------------------------14--------------------|
D|--------------12------------------------14--------------------|
A|--------------10------------------------12--------------------|
E|--12--10--12------------10--12--10--12--------------------10--|
   P.M. - - - >           P.M. - - - - ->                   P.M.

                                                          
E|--------------------------------------------------------------|
B|--------------------------------------------------------------|
G|-------------(9~)----------------------(11~)------------------|
D|--------------10~-----------------------12~-------------------|
A|--------------10~-----------------------12~-------------------|
E|--12--10--12------------10--12--10--12--------------------10--|
   P.M. - - - >           P.M. - - - - ->                   P.M.



Rhythm Fig. 3b
                                                                  
E|--------------------------------------------------------------|
B|--------------------------------------------------------------|
G|------------------12----------------------------14------------|
D|------------------12----------------------------14------------|
A|------------------10----------------------------12------------|
E|--12-12-10-10-12------------10--12-12-10-10-12------------10--|
    P.M. - - - - >            P.M. - - - - - - >           P.M.

                                                                  
E|--------------------------------------------------------------|
B|--------------------------------------------------------------|
G|-----------------(9~)--------------------------(11~)----------|
D|------------------10~---------------------------12~-----------|
A|------------------10~---------------------------12~-----------|
E|--12-12-10-10-12------------10--12-12-10-10-12------------10--|
    P.M. - - - - >            P.M. - - - - - - >           P.M.



Rhythm Fig. 4
                                                
E|--------------------------------------2-----------------------|
B|-----------5---------------3--------------3-------------------|
G|--5------------5---------------0------------------------------|
D|--5----------------5--------------0---------------------------|
A|--3-----------------------------------------------------------|
E|-----------------------3--------------------------------------|
   Let ring - - - - - >  Let ring > Let ring >


End 1
                                              
E|--------------------------------3---2-------------------------|
B|--5------3--3------3---3----------------3---------------------|
G|--5------0--0------2---2--------------------------------------|
D|--5------0--0------0---0--------------------------------------|
A|--3-----------------------------------------------------------|
E|---------3--3-------------------------------------------------|
                         Let ring - - - - - >


End 2
                                                  
E|--------------------------------------------------------------|
B|--------------------------------------------------------------|
G|--4----4--4--4--4--x-x-x-x--5------4------7-------------------|
D|--4----4--4--4--4--x-x-x-x--5------4------7-------------------|
A|--2----2--2--2--2--x-x-x-x--3------2------5-------------------|
E|--------------------------------------------------------------|



Rhythm Fig. 5
                                                      
E|--------------------------------------------------------------|
B|-----------------------------12--12---------------------------|
G|----10--10----10--10--10-----12--12----14---------------------|
D|----8---8-----8---8---8------12--12----12---------------------|
A|----8---8-----8---8---8------10--10----12---------------------|
E|--------------------------------------------------------------|
   < - - - - - - - - - 3x - - - - - - - - - >

                                                
E|--------------------------------------------------------------|
B|--------------0-----------------------------------------------|
G|-----------0--------------12----12--7-------------------------|
D|--------0-----------------12----12--7-------------------------|
A|--2h-3--------------------10----10--5-------------------------|
E|--------------------------------------------------------------|
       Let ring - >


Rhythm Fig. 6
                                                              
E|--------------------------------------------------------------|
B|--------------------------------------------------------------|
G|--------------12--------------------------14------------------|
D|--------------12--------------------------14------------------|
A|--------------10--------------------------12------------------|
E|--12--10--12--------12---10---12--10--12--------12---10-------|
    P.M. - - >        P.M. - - - - - - - >        P.M. - >


End 1
                                                              
E|--------------------------------------------------------------|
B|--------------------------------------------------------------|
G|--------------9~--------------------------11~-----------------|
D|--------------10~-------------------------12~-----------------|
A|--------------10~-------------------------12~-----------------|
E|--12--10--12--------12---10---12--10--12--------12---10-------|
    P.M. - - >        P.M. - - - - - - - >        P.M. - >


End 2
                                                           
E|--------------------------------------------------------------|
B|--------------------------------------------------------------|
G|--------------9~--------------------------11~-----------------|
D|--------------10~-------------------------12~-----------------|
A|--------------10~-------------------------12~-----------------|
E|--12--10--12--------12---10---12--10--12----------------------|
    P.M. - - >        P.M. - - - - - - - >       




Intro solo

E|--------------------------------------------------------------|
B|--15--15b---15b---15b~---------15b--15b--r15--15b--r15--13----|
G|--------------------------------------------------------------|
D|--------------------------------------------------------------|
A|--------------------------------------------------------------|
E|--------------------------------------------------------------|



E|-----12-14-15-14-12----14-12-------12-------------------------|
B|--15----------------15-------15-13----15-13-12-15-13-12-------|
G|--------------------------------------------------------14----|
D|--------------------------------------------------------------|
A|--------------------------------------------------------------|
E|--------------------------------------------------------------|



E|--------------------------------------------------------------|
B|--------------------12----12-15p12-12--12-15p12-12--12-15p12--|
G|--11~-------\-------14b------------14b----------14b-----------|
D|--------------------------------------------------------------|
A|--------------------------------------------------------------|
E|--------------------------------------------------------------|



E|---------15b----15--12h15p12----------------------------------|
B|--12--12---------------------15--15b~-------12-13-15-13-12----|
G|--14b------------------------------------------------------14-|
D|--------------------------------------------------------------|
A|--------------------------------------------------------------|
E|--------------------------------------------------------------|



E|--------------------------------------------------------------|
B|--13-12-------12----------------------------------------------|
G|--------14-12----14-12-11-14-12-11----------------------------|
D|-----------------------------------14-12~---------------------|
A|--------------------------------------------------------------|
E|--------------------------------------------------------------|



Riff 1

E|--------------------------------------------------------------|
B|--------------------------------------------------------------|
G|--5*--(\/)--(\/)--(\/)-(\/)-(\/)----12*--(\/)--(\/)--(\/)-----|
D|--------------------------------------------------------------|
A|--------------------------------------------------------------|
E|--------------------------------------------------------------|




E|--------------------------------------------------------------|
B|--------------------------------------------------------------|
G|--5*--(\/)--(\/)--(\/)-(\/)-(\/)---4*--(\)--------------------|
D|--------------------------------------------------------------|
A|--------------------------------------------------------------|
E|--------------------------------------------------------------|



Solo

E|--------------------------------------------------------------|
B|--8-----8-----8----------12----12-15p12-12--12-15p12-12--12---|
G|--10b---10b---10b~-------14b------------14b----------14b------|
D|--------------------------------------------------------------|
A|--------------------------------------------------------------|
E|--------------------------------------------------------------|




E|---------------------------------------12--14--15-15p14p12----|
B|--15p12-12--12-15b~----15b--15b~------------------------------|
G|--------14b---------------------------------------------------|
D|--------------------------------------------------------------|
A|--------------------------------------------------------------|
E|--------------------------------------------------------------|




E|--------------------------------------------------------------|
B|--15p13p12-13p12----------------------------------------------|
G|-----------------14-12-11-12-11h12p11-------------------------|
D|--------------------------------------12----------------------|
A|-----------------------------------------12-(\/)--~----0(\)---|
E|--------------------------------------------------------------|




E|--------------------------------------------------------------|
B|---------------------------------10b-----t13-p10~---r10-------|
G|--2b-----t5-p2~---r2-t9p4-/-----------------------------------|
D|--------------------------------------------------------------|
A|--------------------------------------------------------------|
E|--------------------------------------------------------------|
    Hold bend - ->                 Hold bend - - - >



E|----------------17p15p14h15p14----14--------------------------|
B|--t17p12~----------------------17----17-15h17p15p13-17p15p13--|
G|--------------------------------------------------------------|
D|--------------------------------------------------------------|
A|--------------------------------------------------------------|
E|--------------------------------------------------------------|




E|--------------------------------------------------------------|
B|--h15p13----13------------------------------------------------|
G|---------16----16-14h16p14p12-16p14p12h14p12------------------|
D|---------------------------------------------16p14p12-16p14p12|
A|--------------------------------------------------------------|
E|--------------------------------------------------------------|




E|--------------------------------------------------------------|
B|--------------------------------------------------------------|
G|---------------------------------------------------t16-12h14--|
D|-------------------------------t17-12h14-t17-12h14------------|
A|--14p12~-------(\/)(\/)-(\)-----------------------------------|
E|--------------------------------------------------------------|




E|-----------------------------t17-12h15-t17-12h15-t17/19-15h17-|
B|----------t17-12h15-t7-12h15----------------------------------|
G|-t16-12h14----------------------------------------------------|
D|--------------------------------------------------------------|
A|--------------------------------------------------------------|
E|--------------------------------------------------------------|



E|--t19-15h17p15-17b~-------15p14--15--17--/19--17--15--17/19---|
B|--------------------------------------------------------------|
G|--------------------------------------------------------------|
D|--------------------------------------------------------------|
A|--------------------------------------------------------------|
E|--------------------------------------------------------------|



E|--19b^^~--------r19\------------------------------------------|
B|--------------------------------------------------------------|
G|--------------------------------------------------------------|
D|--------------------------------------------------------------|
A|--------------------------------------------------------------|
E|--------------------------------------------------------------|



Outro solo

E|-------------------------12--15b----15~---------19b~-----19b~-|
B|--15b--15b~---------15~---------------------------------------|
G|--------------------------------------------------------------|
D|--------------------------------------------------------------|
A|--------------------------------------------------------------|
E|--------------------------------------------------------------|



E|------19b-r19~----\-------15-17/19----15-17/19----15-17/19----|
B|-----------------------17----------17----------17-------------|
G|--------------------------------------------------------------|
D|--------------------------------------------------------------|
A|--------------------------------------------------------------|
E|--------------------------------------------------------------|



E|-----15h17----------------------------------------------------|
B|--17-------17~------------------------------------------------|
G|--------------------------------------------------------------|
D|--------------------------------------------------------------|
A|--------------------------------------------------------------|
E|--------------------------------------------------------------|




THRILLS IN THE NIGHT
Stanley/Beauvoir

[Rhy. Fig 1 w/ End 1 and Intro solo]
[Rhy. Fig 1 w/ End 2]

[Rhy. Fig 3a] (2x)
Early morning, as she wakes from her sleep 
9 to 5 is the day that she'll keep 
Ties her hair up and her blouse buttoned tight 
Gets her work done as she waits for the night... 

[Rhy. Fig 3b] (2x)
All the people, tell me what would they say 
If they knew her, how she hides it away 
Locked inside, there's the start of a flame 
And the feelings that she never will tame 

[Rhy. Fig 4 w/ End 1]
Ooh as she's walking around like a mystery 
[Rhy. Fig 4 w/ End 2]
Ooh there's a woman that nobody sees livin' inside 

[Rhy. Fig 2 w/ End 1]
Thrills in the night, far from the light, passion taking over 
[Rhy. Fig 2 w/ End 2]
Prices she pays, all through the days, no on really knows her 

[Rhy. Fig 3a] (2x)
In the evening when she takes to the street 
She goes hunting with a body in heat 
And desires she's kept hidden inside make her tingle 
And she knows why she lies 

[Rhy. Fig 4 w/ End 1]
Ooh as she's walking around like a mystery 
[Rhy. Fig 4 w/ End 2]
Ooh there's a woman that nobody sees living inside 

[Rhy. Fig 2 w/ End 1]
Thrills in the night, far from the light, passion taking over 
[Rhy. Fig 2 w/ End 3]
Prices she pays, all through the days, no on really knows her 
[Rhy. Fig 2 w/ End 4]
Thrills in the night, far from the light, passion taking over 
[Rhy. Fig 2 w/ End 2]
Prices she pays, all through the days, no on really knows her 

[Rhy. Fig 5 w/ Riff 1]

[Solo over Rhy. Fig 1 w/ End 1]
[Rhy. Fig 1 w/ End 3]
[Rhy. Fig 1 w/ End 4]

[Rhy. Fig 6 w/ End 1] 
See the stranger that she's pushing away 
As she dresses for the start of a day 
[Rhy. Fig 6 w/ End 2]
And desires she's kept hidden inside make her tingle 
Yeah she knows why she lies 

[Rhy. Fig 2 w/ End 1]
Thrills in the night, far from the light, passion taking over 
[Rhy. Fig 2 w/ End 3]
Prices she pays, all through the days, no on really knows her
[Rhy. Fig 2 w/ End 4 and Outro solo] (2x)
Thrills in the night, far from the light, passion taking over (Yeah! Aaooh!) 
Prices she pays, all through the days, no on really knows her 
[Rhy. Fig 2 w/ End 3]
Thrills in the night, far from the light, passion taking over 
[Rhy. Fig 2 w/ End 4]
Prices she pays, all through the days, no on really knows her

(fade out)

Track 8 - While The City Sleeps

Rhythm Fig. 1
                                                                     
Eb|------------------------------------------------|
Bb|--------------------------------------------1-1-|
Gb|--9--7--9-----------9-9-9--7--9-------------0-0-|
Db|--9--7--9-----------9-9-9--7--9-------------2-2-|
Ab|--7--5--7-----------7-7-7--5--7-------------3-3-|
Eb|-----------0---------------------0--------------|


                                                                     
Eb|------------------------------------------------|
Bb|--1----1------------3---------------------------|
Gb|--0----0------------2---------------------------|
Db|--2----2------------0---------------------------|
Ab|--3----3----2~---0------------------------------|
Eb|---------------------------0--1--2--3--2--1--0--|



Rhythm Fig. 2
                                                                   
Eb|------------------------------------------------|
Bb|------------------------------------------------|
Gb|--9--7--9-----------x-x-9--7--9-----------------|
Db|--9--7--9-----------x-x-9--7--9-----------------|
Ab|--7--5--7-----------x-x-7--5--7---------17\-----|
Eb|-----------0---------------------0------17\-----|


                                                                      
Eb|------------------------------------------------|
Bb|------------------------------------------------|
Gb|----------5------------7------------------------|
Db|----------5------------7------------------------|
Ab|----------3------------5------------------------|
Eb|--x-x-x-x------x-x-x-x----------3~-----2~---1~--|
     P.M. ->      P.M. ->



Rhythm Fig. 3
                                                                      


Eb|------------------------------------------------|
Bb|------------------------------------------------|
Gb|--2---4--4--4--4--4--4--2----4--4---------------|
Db|--2---4--4--4--4--4--4--2----4--4----2----------|
Ab|--0---2--2--2--2--2--2--0----2--2----2----------|
Eb|-------------------------------------0----------|
    < - - - - - - - - 3x - - - - - - - - >

                                                                     
Eb|------------------------------------------------|
Bb|------------------------------------------------|
Gb|--2---4--4--4--4--4--4--2-----------------------|
Db|--2---4--4--4--4--4--4--2-----------------------|
Ab|--0---2--2--2--2--2--2--0-----------------------|
Eb|------------------------------------------------|




Rhythm Fig. 4
                                                               
Eb|------------------------------------------------|
Bb|------------------------------------------------|
Gb|--9--7--9---------------9--9--------------------|
Db|--9--7--9---------------9--9--------------------|
Ab|--7--5--7---------------7--7--------------------|
Eb|-----------0------------------------------------|


                                               
Eb|------------------------------------------------|
Bb|------------------------------------------------|
Gb|--9--7--9---------------9--9------9--9----------|
Db|--9--7--9---------------9--9------9--9----------|
Ab|--7--5--7---------------7--7------7--7----------|
Eb|-----------0------------------------------------|



Riff 1

Eb|--7h-10p-7-------------10-----------------------|
Bb|-----------10------(7)----10b~------------------|
Gb|--------------9b--------------------------------|
Db|------------------------------------------------|
Ab|------------------------------------------------|
Eb|------------------------------------------------|



Riff 2

Eb|------------------------------------------------|
Bb|------15-17b^^---r17-----15---------------------|
Gb|--/16-----------------16----16~-----------------|
Db|------------------------------------------------|
Ab|------------------------------------------------|
Eb|------------------------------------------------|



Eb|------------------------------------------------|
Bb|------------------------------------------------|
Gb|-----14-16/19---14b~----14----14b~--------------|
Db|--16-----------------------16-------------------|
Ab|------------------------------------------------|
Eb|------------------------------------------------|



Eb|---------7--------------------------------------|
Bb|-------7---10-7h10p7----------------------------|
Gb|--9b-----------------9~-------------------------|
Db|------------------------------------------------|
Ab|------------------------------------------------|
Eb|------------------------------------------------|



Riff 3

Eb|-----------7------------------------------------|
Bb|----10-8-----10-8---10-8---8--------------------|
Gb|--9------9--------9------9---9------------------|
Db|------------------------------------------------|
Ab|-------------------------------7-(\)------------|
Eb|------------------------------------------------|



Solo

Eb|------------------------------------------------|
Bb|--15-------------------12--14--12--14--12--14---|
Gb|--14b---r14p12---------12--14--12--14--12--14---|
Db|---------------14-------------------------------|
Ab|------------------------------------------------|
Eb|------------------------------------------------|



Eb|------------------------------------------------|
Bb|--14~-------------------12-15p12----12h15p12----|
Gb|--14~----12h14~-----/14----------14----------14-|
Db|------------------------------------------------|
Ab|------------------------------------------------|
Eb|------------------------------------------------|



Eb|-------------------------12---------------------|
Bb|--12-15p12----12-15b--12-15b---15p12-15b~-------|
Gb|-----------14-----------------------------------|
Db|------------------------------------------------|
Ab|------------------------------------------------|
Eb|------------------------------------------------|



Eb|-----------------------------------15-17b---r17-|
Bb|--/17---17--17--17--17--17~----/17--------------|
Gb|--/16---16--16--16--16--16~---------------------|
Db|------------------------------------------------|
Ab|------------------------------------------------|
Eb|------------------------------------------------|



Eb|--p15----------0-0-17-15-0-17-------------------|
Bb|------17~-----------------------17-15-----------|
Gb|--------------------------------------16-14\12--|
Db|------------------------------------------------|
Ab|------------------------------------------------|
Eb|------------------------------------------------|



Eb|------------------------------------------------|
Bb|------------------------------------------------|
Gb|-----12-14p12-----------------------------------|
Db|--14----------14-12-------------------14~-------|
Ab|--------------------14-13-12----12--------------|
Eb|-----------------------------15----15-----------|



Eb|--0--10-12-0-9-10-0-7h9-0-9h10-0-7h9p7\5-0-7p0--|
Bb|------------------------------------------------|
Gb|------------------------------------------------|
Db|------------------------------------------------|
Ab|------------------------------------------------|
Eb|------------------------------------------------|



Eb|--5p3p0---0-(\/)~-------------------------------|
Bb|--------3---------------------------------------|
Gb|------------------------------------------------|
Db|-----------------------------------------12-----|
Ab|--------------------------10-12-14-12-14----14--|
Eb|--------------------10-12-----------------------|
                       P.M. - - - - - - - - - - >


Eb|------------------------------------------------|
Bb|--------------------12-15/17b^^----r17p15-17~---|
Gb|--------------12-14-----------------------------|
Db|--12-14-12-14-----------------------------------|
Ab|------------------------------------------------|
Eb|------------------------------------------------|



Eb|------------------------------------------------|
Bb|--------------------------------------------12--|
Gb|--------------------12~---12-14-12h14p12h14-----|
Db|--12-14-12h14p12h14-----------------------------|
Ab|------------------------------------------------|
Eb|------------------------------------------------|



Eb|--------------------------------15--------------|
Bb|-----12h15p12----12h15p12-15/17----17~----------|
Gb|--14----------14--------------------------------|
Db|------------------------------------------------|
Ab|------------------------------------------------|
Eb|------------------------------------------------|



Eb|-----------------------22b---22--22b~---\-------|
Bb|--/20-22p20-22b-r22p20--------------------------|
Gb|------------------------------------------------|
Db|------------------------------------------------|
Ab|------------------------------------------------|
Eb|------------------------------------------------|



Eb|--------------------------22b--r22--------------|
Bb|-------20-22-22b--r22--20----------22b--r22-20--|
Gb|--21--------------------------------------------|
Db|------------------------------------------------|
Ab|------------------------------------------------|
Eb|------------------------------------------------|



Eb|------------------------------------------------|
Bb|--22b~------------------------------------------|
Gb|------------------------------------------------|
Db|------------------------------------------------|
Ab|------------------------------------------------|
Eb|------------------------------------------------|



Riff 4

Eb|------------------------------------------------|
Bb|---------10(7)------10b~-------r10p7-10b~-------|
Gb|------------------------------------------------|
Db|------------------------------------------------|
Ab|--x\--------------------------------------------|
Eb|--x\--------------------------------------------|
            Lower bar


Eb|--7h10p7-10b~----7-10p7----7--------------------|
Bb|------------------------10---(/)10~-------------|
Gb|------------------------------------------------|
Db|------------------------------------------------|
Ab|------------------------------------------------|
Eb|------------------------------------------------|



Eb|-----------------15-17-(\)----------------------|
Bb|-----------15-17--------------------------------|
Gb|-----14-16--------------------------------------|
Db|--16--------------------------------------------|
Ab|------------------------------------------------|
Eb|------------------------------------------------|



Riff 5

Eb|------------------------------------------------|
Bb|--15-----------------------------12-15~------\--|
Gb|--14b---r14p12-------------12-14----------------|
Db|---------------14~---12-14----------------------|
Ab|------------------------------------------------|
Eb|------------------------------------------------|



Eb|--12(0)-----------------------------------------|
Bb|------------------------------------------------|
Gb|------------------------------------------------|
Db|------------------------7-(\)-------------------|
Ab|------------------------------------------------|
Eb|------------------------------------------------|
     Gradually lower bar 


Eb|--10-----10----10----10-------------------------|
Bb|------9-----9-----9------9----------------------|
Gb|------------------------------------------------|
Db|------------------------------------------------|
Ab|------------------------------------------------|
Eb|------------------------------------------------|
    Slowly lower bar, let ring 


Riff 6

Eb|--10h12-0---------------------------------------|
Bb|---------10h12-0--------------------------------|
Gb|----------------11h12-0-------------------------|
Db|-----------------------10h12-0------------------|
Ab|------------------------------10h12-0-----------|
Eb|--------------------------------------10-12(\)--|




WHILE THE CITY SLEEPS
Simmons/Weissman

[Rhy. Fig 1]

[Rhy. Fig 2] (3x)
What goes on behind closed doors
Private wounds, open sores
You¥re your own worst enemy
And cheap thrills bring you to your knees
It¥s thumbs down for someone like you
Easy come, easy go

[Rhy. Fig 3]
Burn your bridges, take what you can get
Go for the throat because you paid your debt
Livin¥ well is the best revenge
So give ¥em hell

[Rhy. Fig 1] (4x)
While the city sleeps
Better run for your life
Take your troubles to the night
While the city sleeps
Beggars, thieves and losers
There¥s no relief

[Rhy. Fig 2]
For better or for worse you¥ve bought and sold
They love you while you¥re hot
And leave you when you¥re cold
[Riff 1]

[Rhy. Fig 3 w/ Riff 2]
Burn your bridges, take what you can get
Go for the throat because you paid your debt
Livin¥ well is the best revenge
So give ¥em hell

[Rhy. Fig 1]
While the city sleeps
Better run for your life
Take your troubles to the night
While the city sleeps
Beggars, thieves and losers
There¥s no relief 
[Rhy. Fig 4 w/ Riff 3]

[Solo over Rhy. Fig 1]

[Rhy. Fig 3 w/ Riff 4]
Burn your bridges, take what you can get
Go for the throat because you paid your debt
Livin¥ well is the best revenge
So give ¥em hell 

[Rhy. Fig 1 w/ Riff 5]
While the city sleeps
It¥s all there in black and white
While the city sleeps
Through the eye of the needle
Gotta thread your life

[Rhy. Fig 4 w/ Riff 6]

Track 9 - Murder In High Heels

Rhythm Fig. 1
                                                               
Eb|--------------------------------------------------------|
Bb|--------------------------------------------------------|
Gb|--------------------------------------------------------|
Db|---------------------------------------------2--2--2----|
Ab|--0-2--4--5\4-2----2--2-----0h2--4--5\4-2---------------|
Eb|----------------3b-0--0-------------------3b------------|



End 1
                                                          
Eb|--------------------------------------------------------|
Bb|--------------------------------------------------------|
Gb|--------------------------------------------------------|
Db|---------------------------------------------2----2-----|
Ab|--0h2--4--5\4-2----2--2-----0h2--4--5\4-2---------------|
Eb|----------------3b-0--0-------------------3b------------|



End 2
                                                           
Eb|--------------------------------------------------------|
Bb|--------------------------------------------------------|
Gb|--------------------------------------------------------|
Db|---------------------------------------------2--2-------|
Ab|--0-2--4--5\4-2----2--2-----0h2--4--5\4-2---------------|
Eb|----------------3b-0--0-------------------3b-------2~---|



Rhythm Fig. 2a
                                                                
Eb|--------------------------------------------------------|
Bb|--------------------------------------------------------|
Gb|--------------------------------------------------------|
Db|--------------------------------------------------------|
Ab|--------------------------------------------------------|
Eb|--3-3-3-3-3-2~--3-3-3-3-3\2/3~--------------------------|
   < - - - - - - 2x - - - - - - >


End 1
                                                      
Eb|--------------------------------------------------------|
Bb|--------------------------------------------------------|
Gb|---4-4-4-4-2--4--4--4--2----4-4-4-4-2--4----------------|
Db|---4-4-4-4-2--4--4--4--2----4-4-4-4-2--4----------------|
Ab|---2-2-2-2-0--2--2--2--0----2-2-2-2-0--2----------------|
Eb|----------------------------------------------2~--------|



End 2
                                                     
Eb|--------------------------------------------------------|
Bb|--------------------------------------------------------|
Gb|---4-4-4-4-2--4--4--4--2----4-4-4-4-2--4----------------|
Db|---4-4-4-4-2--4--4--4--2----4-4-4-4-2--4----------------|
Ab|---2-2-2-2-0--2--2--2--0----2-2-2-2-0--2----------------|
Eb|--------------------------------------------------------|



Rhythm Fig. 2b
                                          
Eb|--3--------3---------3--------3-------------------------|
Bb|--3--------3---------3--------3-------------------------|
Gb|--0--------0---------0--------0-------------------------|
Db|--0--------0---------0--------0-------------------------|
Ab|--------------------------------------------------------|
Eb|--3--------3---------3--------3-------------------------|



End 1
                                                      
Eb|--------------------------------------------------------|
Bb|--------------------------------------------------------|
Gb|---4-4-4-4-2--4--4--4--2----4-4-4-4-2--4----------------|
Db|---4-4-4-4-2--4--4--4--2----4-4-4-4-2--4----------------|
Ab|---2-2-2-2-0--2--2--2--0----2-2-2-2-0--2----------------|
Eb|----------------------------------------------2~--------|



End 2                                          

Eb|--------------------------------------------------------|
Bb|--------------------------------------------------------|
Gb|---4-4-4-4-2--4--4--4--2----4-4-4-4-2--4----------------|
Db|---4-4-4-4-2--4--4--4--2----4-4-4-4-2--4----------------|
Ab|---2-2-2-2-0--2--2--2--0----2-2-2-2-0--2----------------|
Eb|--------------------------------------------------------|



Rhythm Fig. 3a
                                                   
Eb|--------------------------------------------------------|
Bb|--------------------------------------------------------|
Gb|--------------------------------------------------------|
Db|--2p0---------------------------------------------------|
Ab|------2---5p0-------------------------------------------|
Eb|--------3------0-2p0-3p0-4/5----------------------------|



Rhythm Fig. 3b
                                                   
Eb|--------------------------------------------------------|
Bb|--------------------------------------------------------|
Gb|--------------------------------------------------------|
Db|--2p0---------------------------------------------------|
Ab|------2---5p0-------------------------------------------|
Eb|--------3------0-2p0-3p0-3p2~---------------------------|



Rhythm Fig. 4
                                                               
Eb|--------------------------------------------------------|
Bb|--------------------------------------------------------|
Gb|--------------------------------------------------------|
Db|--2p0--------------------------2p0----------------------|
Ab|------2---5p0----------------------2---5p0--------------|
Eb|--------3------0-2p0-3p0-4/5---------3------0-2p0-3p0---|



Solo

Eb|-------------10-----10-----------------10------10-------|
Bb|------8--10--12p10--12p10-------8--10--12p10--12p10-----|
Gb|--/9-------------------------9--------------------------|
Db|--------------------------------------------------------|
Ab|--------------------------------------------------------|
Eb|--------------------------------------------------------|
               < - - 3x - - >


Eb|----------/15-15-15-15-15-15-------------------15-15-15-|
Bb|----------/15-15-15-15-15-15-------------------15-15-15-|
Gb|--9~-------------------------12-12-12-12-12-12----------|
Db|--------------------------------------------------------|
Ab|--------------------------------------------------------|
Eb|--------------------------------------------------------|
              < - - - - - - - 2x - - - - - - - - >


Eb|-----------15-15----------15-17b-r17p15-17~-------------|
Bb|--17p15-17-15-15-17p15-17-------------------------------|
Gb|--------------------------------------------------------|
Db|--------------------------------------------------------|
Ab|--------------------------------------------------------|
Eb|--------------------------------------------------------|



Eb|--------------------------------------------------------|
Bb|--15----------------------------------------------------|
Gb|--14b---r14p12-14~---14b---r14p12--------------------12-|
Db|----------------------------------14~----------12h14----|
Ab|--------------------------------------------------------|
Eb|--------------------------------------------------------|



Eb|---------12--------------12-----------------------------|
Bb|------12----15p12-----12----15p12-15p12-15----15p12-15--|
Gb|--14b-------------14b----------------------14-----------|
Db|--------------------------------------------------------|
Ab|--------------------------------------------------------|
Eb|--------------------------------------------------------|



Eb|--12~------12-------12----------------------------------|
Bb|--------------12-15----15-12-------15-12----------------|
Gb|-----------------------------14-12-------14-12----12----|
Db|-----------------------------------------------14-------|
Ab|--------------------------------------------------------|
Eb|--------------------------------------------------------|



Eb|-------------------------------12-15-14-12-0-17-15-14-0-|
Bb|--------------------------------------------------------|
Gb|--14-12-------------------------------------------------|
Db|--------14-12-------------------------------------------|
Ab|--------------14-12-10-12(\)----------------------------|
Eb|--------------------------------------------------------|



Eb|--15-14-12----12----------------------------------------|
Bb|-----------15----15-12----15p12-------------------------|
Gb|-----------------------14-------14-12-14-12-------------|
Db|--------------------------------------------14-12-14~---|
Ab|--------------------------------------------------------|
Eb|--------------------------------------------------------|



Eb|---------15~-----------(\)------------------------------|
Bb|---------15~-----------(\)------------------------------|
Gb|-----12-------------------------------------------------|
Db|--14----------------------------------------------------|
Ab|--------------------------------------------------------|
Eb|--------------------------------------------------------|



Riff 1

Eb|--------------------------------------------------------|
Bb|--15b~------15b-r15p12-15~--------------12--------------|
Gb|------------------------------14p12-14------14--12------|
Db|---------------------------------------------------14~--|
Ab|--------------------------------------------------------|
Eb|--------------------------------------------------------|



Eb|--------------------------------17------17-----17-------|
Bb|---------------------------17b-----17b----17b-----17b~--|
Gb|--------------------------------------------------------|
Db|--12----------------------------------------------------|
Ab|------14~-----------------------------------------------|
Eb|--------------------------------------------------------|



Eb|--17b~-----r17p14-17-17b~------\------------------------|
Bb|--------------------------------------------------------|
Gb|--------------------------------------------------------|
Db|--------------------------------------------------------|
Ab|--------------------------------------------------------|
Eb|--------------------------------------------------------|



Outro solo

Eb|--------------------------------------------------------|
Bb|-------------------15b~----r15p12-15~--12(\)------------|
Gb|--14b--12b----------------------------------------------|
Db|--------------------------------------------------------|
Ab|--------------------------------------------------------|
Eb|--------------------------------------------------------|



Eb|--------------------------------------------------------|
Bb|--15------------------------------------------12--------|
Gb|--14b----14---14---14---14---12--14b--12--14-----12-----|
Db|--------------------------------------------------------|
Ab|--------------------------------------------------------|
Eb|--------------------------------------------------------|
    Hold bend - - - - - - - >


Eb|---------------------------------------12----------12---|
Bb|------------------------------------------15p12---------|
Gb|-----------------(12)------(12)-14b~-----------14b------|
Db|--12----12-12-----12--------12--------------------------|
Ab|-----14-------14---------14-----------------------------|
Eb|--------------------------------------------------------|



Eb|--------------12----------------12----------------------|
Bb|--15p12----------15p12-15b~---------12--15--15b~--------|
Gb|--------14b---------------------------------------------|
Db|--------------------------------------------------------|
Ab|--------------------------------------------------------|
Eb|--------------------------------------------------------|



Eb|-----------------------12h15p12-----12h15p12------12----|
Bb|--15-12-15b-r15p12-15b----------15b----------15b--------|
Gb|--------------------------------------------------------|
Db|--------------------------------------------------------|
Ab|--------------------------------------------------------|
Eb|--------------------------------------------------------|



Eb|--15b----15~----12~----------15----12-15----15----------|
Bb|-------------------------/15----15-------15-------------|
Gb|--------------------------------------------------------|
Db|--------------------------------------------------------|
Ab|--------------------------------------------------------|
Eb|--------------------------------------------------------|



Eb|--/15-15-15---/15-15----15/17-17\15-15/17-17\15-15\-----|
Bb|--/15-15-15---/15-15----15/17-17\15-15/17-17\15-15\-----|
Gb|--------------------------------------------------------|
Db|--------------------------------------------------------|
Ab|--------------------------------------------------------|
Eb|--------------------------------------------------------|



Eb|--------------------------------------------------------|
Bb|---------15-12-------------------------12-----12-----12-|
Gb|---------------15-14-12~---------------12-----12-----12-|
Db|--(12b)--------------------14-(12)--14-----14------14---|
Ab|--------------------------------------------------------|
Eb|--------------------------------------------------------|



Eb|--------------------------------------------------------|
Bb|-----12-15----------------------------------------------|
Gb|-----12-14b~---------------12-14b--r14p12----14-12~-----|
Db|--14--------------------------------------14------------|
Ab|--------------------------------------------------------|
Eb|--------------------------------------------------------|
          Wide vib. w/ bar


Eb|--------------------------------------------------------|
Bb|-----15-------------------15----------------------------|
Gb|--x--14b---r14p12-14-12---14b---------------------------|
Db|--x-----------------------------------------------------|
Ab|--------------------------------------------------------|
Eb|--------------------------------------------------------|
                             Fade out


MURDER IN HIGH HEELS
Simmons/Weissman

[Rhy. Fig 1 w/ End 1] (4x)

[Rhy. Fig 1 w/ End 1] (2x)
Hey, with a sleight of hand and then a word of mouth 
She's a cat been caged too long and now she's breakin' out 
Well, get it straight, you better cross your heart 
'Cause sparks are gonna fly, let me tell you what it's all about 
[Rhy. Fig 1 / End 2]
Better run for cover, babe, she's gonna make her move 
You know she could, she's a get rich bitch 
You better get her while the gettin's good 

[Rhy. Fig 2a w/ End 1 and Rhy. Fig 2b w/ End 1]
She's a vision in leather, like salt on a wound 
[Rhy. Fig 2a w/ End 2 and Rhy. Fig 2b w/ End 2]
Just a turn of a knob and she's real fine tuned 

[Rhy. Fig 3a] (4x)
But she's murder in high-heels 

[Rhy. Fig 1 w/ End 1] (2x)
She ain't the girl next door worth waitin' for 
Well you're playin' with the fire,
a pool of sweat's lyin' on the floor 
She'll bring you to your knees, and when you're laid to rest 
She's gonna give you something, she's gonna get it off her chest 
[Rhy. Fig 1 w/ End 2]
(Yeah yeah yeah) 

[Rhy. Fig 2a w/ End 1 and Rhy. Fig 2b w/ End 1]
She's a vision in leather, like salt on a wound 
[Rhy. Fig 2a w/ End 2 and Rhy. Fig 2b w/ End 2]
Just a turn of a knob and she's real fine tuned - here she comes 

[Solo over Rhy. Fig 3a (7x)]
[Rhy. Fig 3b]

[Rhy. Fig 2a w/ End 1, Rhy. Fig 2b w/ End 1 and Riff 1]
She's a vision in leather, like salt on a wound 
[Rhy. Fig 2a w/ End 2, Rhy. Fig 2b w/ End 2]
Just a turn of a knob and she's real fine tuned 

[Rhy. Fig 3a (2x) w/ Outro solo]
But she's murder in high heels 

[Rhy. Fig 4] (3x)
[Rhy. Fig 3a] (repeat and fade)

comments
We did not receive enough feedback on this tab! Please rate:
print report bad tab
1 2 3 4 5
1 comment total.
-1 reply
Page/Rhoads wrote on November 27 2007, 05:38 pm

You copied this from Kiss Asylum you idiot.

I want to post or [tab]
guest
You may want to rate the tab now too:
select rating
Please do not post tabs as comments. Select "correction" instead!