Oops, an error
Loading. Please wait.

Because Im A Girl Tab

by Kiss
ver2
ver2

Whole song

Interactive

More versions @911Tabs.com
9,560 views 27 this week
no commentswrite comment
1 2 3 4 5
please rate
Autoscroll
+/-
esc
set tempo
stop
Contributor
WARNING: You are trying to view
                                    content from Ultimate-Guitar.com
                                    in an unauthorized application,
                                    which is prohibited.

                                    Please use an official Ultimate
                                    Guitar Tabs application for iPhone,
                                    iPad or Android to access legitimate
                                    chords, guitar, bass, and drum tabs
                                    from Ultimate-Guitar.com database.

                                    Type "ultimate guitar tabs" in Apple
                                    App Store's or Android Market's
                                    search to find the application.
aite this is not my tab im just posting it here, cuz its an awesome tab. the
guy who tabbed it his name is below. this is his site where i got it from:
grahamchoo.blogspot.com/2007/09/requested-tabs.html
Enjoy


BECAUSE I’M A GIRL – Kiss 
Tabbed by: Graham Choo Email: da_tweens@yahoo.co.uk
Tuning: Standard (Capo 1st Fret)
Piano Intro:
Dm7 G C Am D/F# Dm G
e|-0-1-3-3-1-0-----0-1-1---0---------0-0---0---------------------|
B|-------1-----3-3-----------3-1-1-3---3-3-1---3-1-3-------1-0---|
G|-------2-----0---------0-----2-------2---2-2-----------0-------|
D|-------0-----0---------------2-----------0-----------0---------|
A|---------------------3-------0---------------------------------|
E|-------------3-----------------------2-------------3-----------|
C Dm7 G C Am
e|---------0-1-3-3---1-0-----0-1-3-1---0-------------------------|
B|-------1---------------3-3-------------3-1---------------------|
G|-----0-----------2-----0-----------0-----2---------------------|
D|---2-----------0-------------------------2---------------------|
A|-3-------------------------------3-------0---------------------|
E|-----------------------3---------------------------------------|
D/F# Dm G Bb
e|-----0-0---0---------------------1-----------------------------|
B|-1-3---3-3-1-3-1-1-0-------1---1-------------------------------|
G|-------2---2-----0-0-3---3---3---------------------------------|
D|-----------0-----0---3-3---------------------------------------|
A|---------------------1-----------------------------------------|
E|-------2---------3---------------------------------------------|
Intro:
F G Am G/B C
e|-------------------------------------------0-----0-------------|
B|---0-1-------1-----1-----0-1-----1-3-----3-----3---------------|
G|-2---------0-----0-----0-------2-------0-----0-----------------|
D|-----3---3-----3-----0-------2-------0-------------------------|
A|---------------------------0-------2-------3-------------------|
E|-------1-----------3-------------------------------------------|
F G Asus A G/B
e|---------------------------------------------------------------|
B|---0-1-------1-----1-----0-3-----3-2---3-----------------------|
G|-2---------0-----0-----0-------2---2---0-----------------------|
D|-----3---3-----3-----0-------2-----2---0-----------------------|
A|---------------------------0-------0---2-----------------------|
E|-------1-----------3-------------------------------------------|
Verse:
C G/B Am G
e|-0---------------------------------0---------------------------|
B|-----1-3---3-3-----3-1-----1-0---0-----------------------------|
G|---0-----0-------0-------2-----0-----0-2-----------------------|
D|---------------0-------2---------------------------------------|
A|-3-----------2-------0-----------------------------------------|
E|-----------------------------3---------------------------------|
F Em Dm G
e|---------------------------------------------------------------|
B|-------1-------1-------1-1-3-----------------------------------|
G|-----0-------0-----------0-0-----------------------------------|
D|---3-------2-----0-2h3-----------------------------------------|
A|---------------------------------------------------------------|
E|-1-------0---------------3-------------------------------------|
C G/B E Am G
e|-0----------------------------------------------0--------------|
B|-----1-3---3-3-----3-------0-1-----0----0-----0----------------|
G|---0-----0-------0-------3-------2----2-----0-----0-2----------|
D|---------------0-------2-------2----2--------------------------|
A|-3-----------2---------------0---------------------------------|
E|---------------------0--------------------3--------------------|
F Em Dm G
e|---------------------------------------------------------------|
B|-------1-----------1-------1-1-3-------------------------------|
G|-----0-----0-----0-----------0-0-------------------------------|
D|---3-----3-----2-----0-2h3-------------------------------------|
A|---------------------------------------------------------------|
E|-1-----------0---------------3---------------------------------|
Chorus 1:
C Dm7 G C G/B
e|-0-------3-----1-----------1-1-----0---------------------------|
B|-----1-3-----1---3-----3---------1---3-------------------------|
G|---0-------2---------0---0-----0-------------------------------|
D|---------0---------0-------------------------------------------|
A|-3---------------------------3-------2-------------------------|
E|-----------------3---------------------------------------------|
Am Dm/F# F G
e|-------------0-0-----------------------------------------------|
B|-1---0-1---1---------3---1-1---------1-1-----3-----------------|
G|---------0---------2---2---------2---------0-----0-------------|
D|---2-------------0---------0-2h3---3-----0-----0---------------|
A|-0-------------------------------------------------------------|
E|---------------2-----------------------3-----3-----------------|
C Dm7 G C G/B
e|-0-------3-----1-----------1-1-----0---------------------------|
B|-----1-3-----1---3-----3---------1---3-------------------------|
G|---0-------2---------0---0-----0-------------------------------|
D|---------0---------0-------------------------------------------|
A|-3---------------------------3-------2-------------------------|
E|-----------------3---------------------------------------------|
Am Dm/F# F G C G# Bb
e|-------------0-0-----------------------------------------------|
B|-1---0-1---1---------3---1-1-----1—----0-1—------1-3-4---6-----|
G|---------0---------2---2-------------0---------0-----5---7-----|
D|---2-------------0---------0-2h3-------------2-------6---8-----|
A|-0-----------------------------------------3-------------------|
E|---------------2-------------------3-----------------4---6-----|
Verse
Chorus 1
Piano Interlude 1:
C G/B E Am G F Em
e|---------------0---1---0-----------0---------------------------|
B|-----1-3---1-3---3-------1-0-1-0-0-------0-1---1-0-1-----------|
G|---0-----0---------------------------0-2-----0-----------------|
D|---------------------2-----------------3-----2-----------------|
A|-3-------------2---------0-------------------------------------|
E|-------------------------------3-------------------------------|
Dm7 G F Em
e|-1-----0-1-------3-1---------8-----------------0---------------|
B|-----1-----1---1---------0-1-8-3p1-3-----0-1-3---0-------------|
G|---2-------0-0---------2---------------0-----------0-----------|
D|-0-----------------3-3---------------2---------------2---------|
A|-----------------------------8---------------------------------|
E|-----------3---------------------------------------------------|
Verse
Chorus 2:
C Dm7 G C G/B
e|-0-------3-----1-----------1-1-----0---------------------------|
B|-----1-3-----1---3-----3---------1---3-------------------------|
G|---0-------2---------0---0-----0-------------------------------|
D|---------0---------0-------------------------------------------|
A|-3---------------------------3-------2-------------------------|
E|-----------------3---------------------------------------------|
Am Dm/F# F G
e|-------------0-0-----------------------------------------------|
B|-1---0-1---1---------3---1-1---------1-1-----3-----------------|
G|---------0---------2---2---------2---------0-----0-------------|
D|---2-------------0---------0-2h3---3-----0-----0---------------|
A|-0-------------------------------------------------------------|
E|---------------2-----------------------3-----3-----------------|
C Dm7 G C G/B
e|-0-------3-----1-----------1-1-----0---------------------------|
B|-----1-3-----1---3-----3---------1---3-------------------------|
G|---0-------2---------0---0-----0-------------------------------|
D|---------0---------0-------------------------------------------|
A|-3---------------------------3-------2-------------------------|
E|-----------------3---------------------------------------------|
Interlude 1:
C G F Em
e|---------------------0-----------------------------------------|
B|-------0-----0-----0-------------1-------1---------------------|
G|-----0-----0-----0-----0-2-----0-------0-----------------------|
D|---0-----0-------------------3-------2-------------------------|
A|-3-------------------------------------------------------------|
E|---------------3-----------1-------0---------------------------|
Dm7 G C F E
e|-------1--------------------1-0--------------------------------|
B|-----1---------0-------1-3------1-------0----------------------|
G|---2---------0-------0----------------3------------------------|
D|-0---------0-------2--------3-------2--------------------------|
A|-----------------3---------------------------------------------|
E|---------3------------------------0----------------------------|
Bridge:
F G Em Am7
e|---------------------------------------------------------------|
B|-------1-----1-------1-----1-------0-----0-----0-1-----0-1-----|
G|-----0-----0-------0-----0-------0-----0-------------0---------|
D|---3-----3-------0-----0-------2-----2-------2-----2-----------|
A|-------------------------------------------0-------------------|
E|-1-------------3-------------0---------------------------------|
Dm7 G
e|-----0-1-----1-----0-1-----1-----------------------------------|
B|-----------1-------------1---------1-----1-0-------------------|
G|---2-----2-------2-----2---------0-----0---0-------------------|
D|-0-------------0---------------0-----0-----0-------------------|
A|---------------------------------------------------------------|
E|-----------------------------3-------------3-------------------|
Chorus 3:
C Dm7 G C G/B
e|-0-------3-----1-----------1-1-----0---------------------------|
B|-----1-3-----1---3-----3---------1---3-------------------------|
G|---0-------2---------0---0-----0-------------------------------|
D|---------0---------0-------------------------------------------|
A|-3---------------------------3-------2-------------------------|
E|-----------------3---------------------------------------------|
Am Dm/F# F G
e|-------------0-0-----------------------------------------------|
B|-1---0-1---1---------3---1-1---------1-1-----3-----------------|
G|---------0---------2---2---------2---------0-----0-------------|
D|---2-------------0---------0-2h3---3-----0-----0---------------|
A|-0-------------------------------------------------------------|
E|---------------2-----------------------3-----3-----------------|
C Dm7 G C G/B
e|-0-------3-----1-----------1-1-----0---------------------------|
B|-----1-3-----1---3-----3---------1---3-------------------------|
G|---0-------2---------0---0-----0-------------------------------|
D|---------0---------0-------------------------------------------|
A|-3---------------------------3-------2-------------------------|
E|-----------------3---------------------------------------------|
Am Dm/F# F G C
e|-------------0-0-----------------------------------------------|
B|-1---0-1---1---------3---1-1-----1—----0-1—------1-------------|
G|---------0---------2---2-------------0---------0---------------|
D|---2-------------0---------0-2h3-------------2-----------------|
A|-0-----------------------------------------3-------------------|
E|---------------2-------------------3---------------------------|
Interlude 2:
C G/B Am G
e|-0---------------------------------0---------------------------|
B|-----1-3---3-3-----3-1-----1-0---0-----------------------------|
G|---0-----0-------0-------2-----0-----0-2-----------------------|
D|---------------0-------2---------------------------------------|
A|-3-----------2-------0-----------------------------------------|
E|-----------------------------3---------------------------------|
F Em Dm G
e|---------------------------------------------------------------|
B|-------1-------1-------1-1-3-----------------------------------|
G|-----0-------0-----------0-0-----------------------------------|
D|---3-------2-----0-2h3-----------------------------------------|
A|---------------------------------------------------------------|
E|-1-------0---------------3-------------------------------------|
C G/B E Am G
e|-0----------------------------------------------0--------------|
B|-----1-3---3-3-----3-------0-1-----0----0-----0----------------|
G|---0-----0-------0-------3-------2----2-----0-----0-2----------|
D|---------------0-------2-------2----2--------------------------|
A|-3-----------2---------------0---------------------------------|
E|---------------------0--------------------3--------------------|
F Em Dm G
e|---------------------------------------------------------------|
B|-------1-----------1-1-----1-1-0-1-----------------------------|
G|-----0-----0-----0-----------0---------------------------------|
D|---3-----3-----2-----0-2h3-------------------------------------|
A|---------------------------------------------------------------|
E|-1-----------0---------------3---------------------------------|
C Bb G F
e|-----------1-----1-3-----3-------------------------------------|
B|-------1-3-----1-------3---------1-----------------------------|
G|-----0-------3-------0---------0-------------------------------|
D|---2-------3-----------------3---------------------------------|
A|-3-------------------------------------------------------------|
E|-------------------3-------1-----------------------------------|
Bridge
Chorus 4:
C Dm7 G C G/B
e|-0-------3-----1-----------1-1-----0---------------------------|
B|-----1-3-----1---3-----3---------1---3-------------------------|
G|---0-------2---------0---0-----0-------------------------------|
D|---------0---------0-------------------------------------------|
A|-3---------------------------3-------2-------------------------|
E|-----------------3---------------------------------------------|
Am Dm/F# F G
e|-------------0-0-----------------------------------------------|
B|-1---0-1---1---------3---1-1---------1-1-----3-----------------|
G|---------0---------2---2---------2---------0-----0-------------|
D|---2-------------0---------0-2h3---3-----0-----0---------------|
A|-0-------------------------------------------------------------|
E|---------------2-----------------------3-----3-----------------|
C Dm7 G C G/B
e|-0-------3-----1-----------1-1-----0---------------------------|
B|-----1-3-----1---3-----3---------1---3-------------------------|
G|---0-------2---------0---0-----0-------------------------------|
D|---------0---------0-------------------------------------------|
A|-3---------------------------3-------2-------------------------|
E|-----------------3---------------------------------------------|
Am Dm/F# F G
e|-------------0-0-----------------------------------------------|
B|-1---0-1---1---------3---1-1-----1—----0-1—--------------------|
G|---------0---------2---2-------------0-------------------------|
D|---2-------------0---------0-2h3-------------------------------|
A|-0-------------------------------------------------------------|
E|---------------2-------------------3---------------------------|
Outro:
C Dm7 G C G/B
e|-0-------3-----1-----------1-1-----0---------------------------|
B|-----1-3-----1---3-----3---------1---3-------------------------|
G|---0-------2---------0---0-----0-------------------------------|
D|---------0---------0-------------------------------------------|
A|-3---------------------------3-------2-------------------------|
E|-----------------3---------------------------------------------|
Am Dm/F# F G
e|-------------0-0-----------------------------------------------|
B|-1---0-1---1---------3---1-1-----1—----0-1—--------------------|
G|---------0---------2---2-------------0-------------------------|
D|---2-------------0---------0-2h3-------------------------------|
A|-0-------------------------------------------------------------|
E|---------------2-------------------3---------------------------|
F G Am F G C
e|---------------------------------------0-----------------------|
B|-1-----1-1---0-1-------1-1-----1-1---0-1-----------------------|
G|-----0-----0---------2-------0-----0---0-----------------------|
D|---3---------------2-------3-----------2-----------------------|
A|-----------------0---------------------3-----------------------|
E|-1-------3---------------1-------3-----------------------------|
| / slide up
| \ slide down
| h hammer-on
| p pull-off
| ~ vibrato
| + harmonic
| x Mute note
comments
We did not receive enough feedback on this tab! Please rate:
print report bad tab
1 2 3 4 5
I want to post or [tab]
guest
You may want to rate the tab now too:
select rating
Please do not post tabs as comments. Select "correction" instead!