Oops, an error
Loading. Please wait.

Kiss Tab

by Kiss
22,292 views 42 this week
5 commentsread comments
1 2 3 4 5
excellent!
x 6
add to favorites launch autoscroll
font size
0
reset
Autoscroll
+/-
esc
set tempo
stop
Contributor
Difficulty
Tuning
Tabbers playing skills
intermediate
E A D G B E
intermediate ++
WARNING: You are trying to view
                                    content from Ultimate-Guitar.com
                                    in an unauthorized application,
                                    which is prohibited.

                                    Please use an official Ultimate
                                    Guitar Tabs application for iPhone,
                                    iPad or Android to access legitimate
                                    chords, guitar, bass, and drum tabs
                                    from Ultimate-Guitar.com database.

                                    Type "ultimate guitar tabs" in Apple
                                    App Store's or Android Market's
                                    search to find the application.
Key:
/    = slide up
\    = slide down
b    = bend (whole step)
b^   = bend (1/2 step)
b^^  = bend (1 1/2 steps)
pb   = pre-bend
r    = release-bend
t    = tap with righthand finger
h    = hammer-on
p    = pull-off
~    = Vibrato
*    = Natural Harmonic
#(#) = Trill
**   = Artificial Harmonic
x    = Dead notes (no pitch)
P.M. = Palm mute (- -> underneath indicates which notes)
(\)  = Dive w\bar
(/)  = Release w\bar
Tp   = Tap w\plectrum


Track 1 - Strutter

Rhythm Fig. 1

Eb|--7-7-7---------------------------------------------------------|
Bb|--7-7-7---------------------12----------------------------------|
Gb|--8-8-8---------------------12----------------12--12------------|
Db|--9-9-9---------------------12--------14------12--12------12-12-|
Ab|--9-9-9----11--9--11--9-----10----10--10--10--10--10--10--12-12-|
Eb|--7-7-7----7---7--7---7--7--------------------------------10-10-|

Eb|------------------------------5---------------------------------|
Bb|------------------------------5---------------------------------|
Gb|------------------------------6---------------------------------|
Db|--12--------------------------7----------------7----------------|
Ab|--12------14--12--14--12------7-------9--7--9--7----------------|
Eb|--10--10--10--10--10--10--10--5----5--5--5--5--5--5-------------|


Eb|--7-7-7---------------------------------------------------------|
Bb|--7-7-7---------------------12----------------------------------|
Gb|--8-8-8---------------------12----------------12--12------------|
Db|--9-9-9---------------------12--------14------12--12------12-12-|
Ab|--9-9-9----11--9--11--9-----10----10--10--10--10--10--10--12-12-|
Eb|--7-7-7----7---7--7---7--7--------------------------------10-10-|


Eb|----------------------------------------------------------------|
Bb|----------------------------------------------------------------|
Gb|----------------------------------------------------------------|
Db|------------------12--12-------------------------------(0)------|
Ab|--12------14------12--12--14--12--------14------12--12-(0)------|
Eb|--10--10--10--10--10--10--10--10----10--10--10--10--10----------|


Rhythm Fig. 2

Eb|----------------------------------------------|
Bb|--12-12-12------------------------------------|
Gb|--11-11-11------------12----------------------|
Db|--9--9--9-------------12----------------------|
Ab|----------------------10----------------------|
Eb|----------------------------------------------|


Eb|----------------------------------------------|
Bb|--15-15-15------------------------------------|
Gb|--14-14-14------------14--------14----14------|
Db|--12-12-12------------14--------14----14------|
Ab|----------------------12--------12----12------|
Eb|----------------------------------------------|


Eb|----------------------------------------------|
Bb|--12-12-12------------------------------------|
Gb|--11-11-11------------12----------------------|
Db|--9--9--9-------------12----------------------|
Ab|----------------------10----------------------|
Eb|----------------------------------------------|

Eb|----------------------------------------------|
Bb|--15-15-15----------------15------15----15----|
Gb|--14-14-14----------------14------14----14----|
Db|--12-12-12----------------12------12----12----|
Ab|----------------------------------------------|
Eb|----------------------------------------------|


Rhythm Fig. 3

Eb|--7-7-7---------------------------------------|
Bb|--7-7-7---------------------------------------|
Gb|--8-8-8---------------------------------------|
Db|--9-9-9--------9--9-----5--5--------5---------|
Ab|--9-9-9--------9--9-----5--5--7-----5---------|
Eb|--7-7-7--------7--7-----3--3--3--3--3---------|

Eb|----------------------------------------------|
Bb|--7-------------------7--8--8--8--8--8--7-----|
Gb|--7-----------7--7----7--7--7--7--7--7--7-----|
Db|--7-----9-----7--7----7--9--9--9--9--9--7-----|
Ab|--5--5--5--5--5--5----------------------------|
Eb|----------------------------------------------|

Eb|--7-7-7---------------------------------------|
Bb|--7-7-7---------------------------------------|
Gb|--8-8-8---------------------------------------|
Db|--9-9-9--------9--9-----5--5--------5---------|
Ab|--9-9-9--------9--9-----5--5--7-----5---------|
Eb|--7-7-7--------7--7-----3--3--3--3--3---------|

Eb|----------------------------------------------|
Bb|--7-------------------------------------------|
Gb|--7-----------7--7----------------------------|
Db|--7-----9-----7--7----7-------------------7---|
Ab|--5--5--5--5--5--5----7-------9--7--9--7--7---|
Eb|----------------------5----5--5--5--5--5--5---|


Rhythm Fig. 4a

Eb|----------------------------------------------|
Bb|--12------------------------15------15----15--|
Gb|--11------------------------14------14----14--|
Db|--9-------------------------12------12----12--|
Ab|----------------------------------------------|
Eb|----------------------------------------------|


Eb|----------------------------------------------|
Bb|--12------------------------------------------|
Gb|--11------------------------14------14----14--|
Db|--9-------------------------14------14----14--|
Ab|----------------------------12------12----12--|
Eb|----------------------------------------------|


Rhythm Fig. 4b

Eb|----------------------------------------------|
Bb|--12------------------------15------15----15--|
Gb|--11------------------------14------14----14--|
Db|--9-------------------------12------12----12--|
Ab|----------------------------------------------|
Eb|----------------------------------------------|

Eb|----------------------------------------------|
Bb|--12------------------------------------------|
Gb|--11--------------------14------14--14--14----|
Db|--9---------------------14------14--14--14----|
Ab|------------------------12------12--12--12----|
Eb|----------------------------------------------|


Rhythm Fig. 5

Eb|--7-7-7---------------------------------------|
Bb|--7-7-7---------------------------------------|
Gb|--8-8-8---------------------------------------|
Db|--9-9-9--------9--9-----5--5--------5---------|
Ab|--9-9-9--------9--9-----5--5--7-----5---------|
Eb|--7-7-7--------7--7-----3--3--3--3--3---------|

Eb|----------------------------------------------|
Bb|--7-------------------------------------------|
Gb|--7-----------7-------7-------------7----7----|
Db|--7-----9-----7----9--7-------9-----7----7----|
Ab|--5--5--5--5--5----5--5----5--5--5--5----5----|
Eb|----------------------------------------------|

Eb|--7-7-7---------------------------------------|
Bb|--7-7-7---------------------------------------|
Gb|--8-8-8---------------------------------------|
Db|--9-9-9--------9--9-----5--5--------5---------|
Ab|--9-9-9--------9--9-----5--5--7-----5---------|
Eb|--7-7-7--------7--7-----3--3--3--3--3---------|


Eb|----------------------------------------------|
Bb|--7-------------------------------------------|
Gb|--7-----------7--7----------------------------|
Db|--7-----9-----7--7----7-------------------7---|
Ab|--5--5--5--5--5--5----7-------9--7--9--7--7---|
Eb|----------------------5----5--5--5--5--5--5---|


Rhythm Fig. 6

Eb|--7-7-7---------------------------------------|
Bb|--7-7-7---------------------------------------|
Gb|--8-8-8---------------------------------------|
Db|--9-9-9--------9--9-----5--5--------5---------|
Ab|--9-9-9--------9--9-----5--5--7-----5---------|
Eb|--7-7-7--------7--7-----3--3--3--3--3---------|

Eb|----------------------------------------------|
Bb|--7-------------------7--8--8--8--8--8--7-----|
Gb|--7-----------7--7----7--7--7--7--7--7--7-----|
Db|--7-----9-----7--7----7--9--9--9--9--9--7-----|
Ab|--5--5--5--5--5--5----------------------------|
Eb|----------------------------------------------|

Eb|--7-7-7---------------------------------------|
Bb|--7-7-7---------------------------------------|
Gb|--8-8-8---------------------------------------|
Db|--9-9-9--------9--9-----5--5--------5---------|
Ab|--9-9-9--------9--9-----5--5--7-----5---------|
Eb|--7-7-7--------7--7-----3--3--3--3--3---------|

Eb|----------------------------------------------|
Bb|--7-------------------------------------------|
Gb|--7-----9-----7--7----------------------------|
Db|--7-----7-----7--7----7-------9-----7--7------|
Ab|--5--5--5--5--5--5----7-------7-----7--7------|
Eb|----------------------5----5--5--5--5--5------|


Rhythm Fig. 7

Eb|----------------------------------------------|
Bb|--12---------------15---15---15---15-15-15-15-|
Gb|--11---------------14---14---14---14-14-14-14-|
Db|--9----------------12---12---12---12-12-12-12-|
Ab|----------------------------------------------|
Eb|----------------------------------------------|


Eb|----------------------------------------------|
Bb|--12------------------------------------------|
Gb|--11------------------14--14--14--14--14--14--|
Db|--9-------------------14--14--14--14--14--14--|
Ab|----------------------12--12--12--12--12--12--|
Eb|----------------------------------------------|

Rhythm Fig. 8

Eb|----------------------------------------------|
Bb|----------------------------------------------|
Gb|--4------4--4---------------------------------|
Db|--4------4--4----------5------5---------------|
Ab|--2------2--2----------5------5---------------|
Eb|-----------------------3------3---------------|

Rhythm Fig. 9

Eb|----------------------------------------------|
Bb|--7------7--7---------------------------------|
Gb|--7------7--7----------12------12-------------|
Db|--9------9--9----------12------12-------------|
Ab|-----------------------10------10-------------|
Eb|----------------------------------------------|

Rhythm Fig. 10

Eb|----------------------------------------------|
Bb|----------------------------------------------|
Gb|----------------------------------------------|
Db|----------------------------------------------|
Ab|--0--2----2--------0--2--2----0--2--2----2----|
Eb|----------------------------------------------|

Eb|----------------------------------------------|
Bb|----------------------------------------------|
Gb|----------------------------------------------|
Db|--0--2----2----------0------------------------|
Ab|------------------------2------0--------------|
Eb|----------------------------------2-----------|

Rhythm Fig. 11

Eb|----------------------------------------------|
Bb|----------------------------------------------|
Gb|----------------------------------------------|
Db|----------------------------------------------|
Ab|--7--9----9--------7--9--9----7--9--9----9----|
Eb|----------------------------------------------|

Eb|----------------------------------------------|
Bb|----------------------------------------------|
Gb|----------------------------------------------|
Db|--7--9----9------------7----------------------|
Ab|--------------------------9------7------------|
Eb|------------------------------------9---------|

Rhythm Fig. 12

Eb|----------------------------------------------|
Bb|----------------------------------------------|
Gb|----------------------------------------------|
Db|----------------------------------------------|
Ab|--0--2----2--------0--2--2----0--2--2----2----|
Eb|----------------------------------------------|

Eb|----------------------------------------------|
Bb|----------------------------------------------|
Gb|--------------------------5------7------------|
Db|--0--2----2------------5--5------7--7---------|
Ab|-----------------------5--3------5--7---------|
Eb|-----------------------3------------5---------|

Rhythm Fig. 13

Eb|----------------------------------------------|
Bb|----------------------------------------------|
Gb|----------------------------------------------|
Db|----------------------------------------------|
Ab|--7--9----9--------7--9--9----7--9--9----9----|
Eb|----------------------------------------------|

Eb|----------------------------------------------|
Bb|----------------------------------------------|
Gb|--------------------------5------7------------|
Db|--7--9----9------------5--5------7--7---------|
Ab|-----------------------5--3------5--7---------|
Eb|-----------------------3------------5---------|

Rhythm Fig. 14

Eb|-----------------------------------7----------|
Bb|-----------------------------------7----------|
Gb|-----------------------------------8----------|
Db|--9-9-9----------------------------9----------|
Ab|--9-9-9----------------------------9----------|
Eb|--7-7-7----------------------------7----------|

Solo

Eb|------------------------------------------------------------------|
Bb|------------------------------------------------------------------|
Gb|--9b-----9b-----9b-----9b-----9b-----9b------9b--9b--9b--9b--9b---|
Db|------------------------------------------------------------------|
Ab|------------------------------------------------------------------|
Eb|------------------------------------------------------------------|


Eb|------------------------------------------------------------------|
Bb|-------------------------------10(7)-----10b-r10------------------|
Gb|--9b--9b--9b--9b---r9p7---7~--------------------------------------|
Db|------------------------9-----------------------------------------|
Ab|------------------------------------------------------------------|
Eb|------------------------------------------------------------------|
                                            Bend and release 15x

Eb|------------------------------------------------------------------|
Bb|--pb10---r10--pb10---r10-pb10--r10--7--10-10p7---7---7------------|
Gb|-----------------------------------------------9---9--------------|
Db|------------------------------------------------------------------|
Ab|------------------------------------------------------------------|
Eb|------------------------------------------------------------------|


Eb|------------------------------------------------------------------|
Bb|------19--22p19----19-22b---22b---22b---22b---22b--22b--22b--22b--|
Gb|--21------------21------------------------------------------------|
Db|------------------------------------------------------------------|
Ab|------------------------------------------------------------------|
Eb|------------------------------------------------------------------|


Eb|-------------------------------------------22b---r22-19-----------|
Bb|--22p19----19-22---19h22p19----19--22--19---------------22b---r22-|
Gb|--------21------------------21------------------------------------|
Db|------------------------------------------------------------------|
Ab|------------------------------------------------------------------|
Eb|------------------------------------------------------------------|


Eb|------------------------------------------------------------------|
Bb|--19--------------------------------------------------------------|
Gb|------21\---------------------------------------------------------|
Db|------------------------------------------------------------------|
Ab|------------------------------------------------------------------|
Eb|------------------------------------------------------------------|

Outro solo

Eb|---------7--------------------------------------------------------|
Bb|------7-(7)---10p7---7-10--10p7-10p7---7-10p7----7------10--------|
Gb|--9b---------------9-----------------9---------9---9/11-----------|
Db|------------------------------------------------------------------|
Ab|------------------------------------------------------------------|
Eb|------------------------------------------------------------------|
    < - 6x - >

Eb|------------------------------------------------------------------|
Bb|--10p7h10p7h10p7h10p7--10b---7------------------------------------|
Gb|--------------------------------7---------------------------------|
Db|-----------------------------------9--7-9---7---------------------|
Ab|-----------------------------------------------9--7--5--------5---|
Eb|----------------------------------------------------------/7------|


Eb|------------------------------------------------------------------|
Bb|------------------7------------10p7h10p7h10-12b^^-----12b^^-------|
Gb|--------7h9p7---7---9p7---7---------------------------------------|
Db|--------------9---------9-----------------------------------------|
Ab|--7--9------------------------------------------------------------|
Eb|------------------------------------------------------------------|
                                                        < 7x >

Eb|-------------------------------------10-11-12---10-12b---r12------|
Bb|--12b^^---r12-10h12p10----10-12-----------------------------------|
Gb|-----------------------11-----------------------------------------|
Db|------------------------------------------------------------------|
Ab|------------------------------------------------------------------|
Eb|------------------------------------------------------------------|
                                       < - 5x - >

Eb|--10h12p10-----10-------------------------------------------------|
Bb|-----------12------12b^^---r12---10-------------------------------|
Gb|-------------------------------------11--10--9--9p7---------------|
Db|-------------------------------------------------------7h9~-------|
Ab|------------------------------------------------------------------|
Eb|------------------------------------------------------------------|

STRUTTER
Paul Stanley, Gene Simmons

[Drum fill]
[Rhy. Fig 1 w/ Rhy. Fig 2]

[Rhy. Fig 3 w/ Rhy. Fig 4a]
I know a thing or two about her
I know she'll only make you cry
[Rhy. Fig 3 w/ Rhy. Fig 4b]
She'll let you walk the street beside her
But when she wants she'll pass you by

[Rhy. Fig 8 w/ Rhy. Fig 9] (2x)
Everybody says she's lookin' good
And the lady knows it's understood

[Rhy. Fig 10 w/ Rhy. Fig 11]
Strutter
[Rhy. Fig 12 w/ Rhy. Fig 13]

[Rhy. Fig 3 w/ Rhy. Fig 4a]
She wears her satins like a lady
She gets her way just like a child
[Rhy. Fig 3 w/ Rhy. Fig 4b]
You take her home and she says "Maybe, baby"
She takes you down and drives you wild

[Rhy. Fig 8 w/ Rhy. Fig 9] (2x)
Everybody says she's lookin' good
And the lady knows it's understood
Strutter

[Solo over Rhy. Fig 10 w/ Rhy. Fig 11 (2x)]
[Rhy. Fig 12 w/ Rhy. Fig 13]

[Rhy. Fig 5 w/ Rhy. Fig 4a]
I know a thing or two about her
I know she'll only make you cry
[Rhy. Fig 6 w/ Rhy. Fig 7]
She'll let you walk the street beside her
But when she wants she'll pass you by

[Rhy. Fig 8 w/ Rhy. Fig 9] (2x)
Everybody says she's lookin' good
And the lady knows it's understood

[Outro solo over Rhy. Fig 10 w/ Rhy. Fig 11 (2x)]
Strutter
Strutter
[Rhy. Fig 12 w/ Rhy. Fig 13]
Strutter

[Rhy. Fig 14]

Track 2 - Nothin' To Lose

Rhythm Fig. 1a

Eb|--------------------------------------------------------|
Bb|--------------------------------------------------------|
Gb|--------------------------------------------------------|
Db|-----------2-------0--------2----5\-4--2----------------|
Ab|--------------------------------------------------------|
Eb|--3p-2--0-------0--------0------------------------------|

Rhythm Fig.1b

Eb|------------------------------------------3-------------|
Bb|------------------------------------------3-------------|
Gb|------------------------------------------4-------------|
Db|-----------2-------0--------2----5\-4--0--5-------------|
Ab|------------------------------------------5-------------|
Eb|--3p-2--0-------0--------0----------------3-------------|


Rhythm Fig.1c

Eb|--------------------------------------------------------|
Bb|--------------------------------------------------------|
Gb|--------------------------------------------------------|
Db|-----------2-------0--------2----5\-4--0----------------|
Ab|--------------------------------------------------------|
Eb|--3p-2--0-------0--------0------------------------------|

Rhythm Fig. 2a

Eb|--------------------------------------------------------|
Bb|--------------------------------------------------------|
Gb|---------------9---------9--------------9--9------9-----|
Db|--9--9--11-----9--9--11--9-------11-----9--9--11--9-----|
Ab|--7--7--7---7--7--7--7---7----7--7---7--7--7--7---7-----|
Eb|--------------------------------------------------------|

Eb|--------------------------------------------------------|
Bb|--------------------------------------------------------|
Gb|--------------9--9-------------9--9---9----9--9---------|
Db|-------11-----9--9--11-(9)-----9--11--9----9--11--------|
Ab|----7--7---7--7--7--7---9/-11---------------------------|
Eb|--------------------------------------------------------|

Rhythm Fig. 2b

Eb|--------------------------------------------------------|
Bb|--------------------------------------------------------|
Gb|---------------9---------9--------------9--9------9-----|
Db|--9--9--11-----9--9--11--9-------11-----9--9--11--9-----|
Ab|--7--7--7---7--7--7--7---7----7--7---7--7--7--7---7-----|
Eb|--------------------------------------------------------|

Eb|--------------------------------------------------------|
Bb|--------------------------------------------------------|
Gb|--------------9--9------9-------------------------------|
Db|-------11-----9--9--11--9-----------5\-4--2-------------|
Ab|----7--7---7--7--7--7---7-------------------------------|
Eb|---------------------------------------------3p-2--0----|

Rhythm Fig. 2c

Eb|--------------------------------------------------------|
Bb|--------------------------------------------------------|
Gb|---------------9---------9--------------9--9------9-----|
Db|--9--9--11-----9--9--11--9-------11-----9--9--11--9-----|
Ab|--7--7--7---7--7--7--7---7----7--7---7--7--7--7---7-----|
Eb|--------------------------------------------------------|

Eb|--------------------------------------------------------|
Bb|--------------------------------------------------------|
Gb|--------------9--9------9--------------9--9------9------|
Db|-------11-----9--9--11--9-------11-----9--9--11--9------|
Ab|----7--7---7--7--7--7---7----7--7---7--7--7--7---7------|
Eb|--------------------------------------------------------|

Rhythm Fig. 3a

Eb|--------------------------------------------------------|
Bb|--9-----------------------------------------------------|
Gb|--9-----------------------------------------------------|
Db|--9-----------------------------------5\-4--2-----------|
Ab|--7-----------------------------------------------------|
Eb|-----------------------------------------------3p-2--0--|

Rhythm Fig. 3b

Eb|--------------------------------------------------------|
Bb|--9------------------9----------------------------------|
Gb|--9------------------9----------------------------------|
Db|--9------------------9----------------------------------|
Ab|--7------------------7----------------------------------|
Eb|--------------------------------------------------------|
   < - - - - - 3x - - - - - - >


Eb|--------------------------------------------------------|
Bb|--9----9----9--9----9-----------------------------------|
Gb|--9----9----9--9----9-----------------------------------|
Db|--9----9----9--9----9------5\-4--2----------------------|
Ab|--7----7----7--7----7-----------------------------------|
Eb|------------------------------------3p-2--0-------------|

Rhythm Fig. 4

Eb|--------------------------------------------------------|
Bb|--------------------------------------------------------|
Gb|-------------------4--------------4--4------------------|
Db|--4----------------4--------6-----4--4--6---------------|
Ab|--4----------------2-----2--2--2--2--2--2---------------|
Eb|--2----------2--2---------------------------------------|

Eb|--------------------------------------------------------|
Bb|--------------------------------------------------------|
Gb|--------------------------------------------------------|
Db|--4------------------5--5--5--5--5--5--5--5--5----------|
Ab|--4------------------5--5--5--5--5--5--5--5--5----------|
Eb|--2------------2--2--3--3--3--3--3--3--3--3--3----------|

Rhythm Fig. 5

Eb|--2-----------------------------------------------------|
Bb|--2------------------4----------------------------------|
Gb|--3------------------4----------------------------------|
Db|--4------------------4----------------------------------|
Ab|--4------------------2----------------------------------|
Eb|--2-----------------------------------------------------|

Eb|--2-----------------------------------------------------|
Bb|--2-----------------------------------------------------|
Gb|--3-----------------------------------------------------|
Db|--4--------------5--5--5--5--5--5--5--5--5--------------|
Ab|--4--------------5--5--5--5--5--5--5--5--5--------------|
Eb|--2--------------3--3--3--3--3--3--3--3--3--------------|

Rhythm Fig. 6

Eb|--------------------------------------------------------|
Bb|--------------------------------------------------------|
Gb|--------------------------------------------------------|
Db|--------------------------------------------------------|
Ab|--7--7--9-----7--7--9--7-------9-----7--7--9------------|
Eb|--5--5--5--5--5--5--5--5----5--5--5--5--5--5------------|

Eb|--------------------------------------------------------|
Bb|--------------------------------------------------------|
Gb|--9-9-9-------------9---------9--------------9--9-------|
Db|--9-9-9------11-----9--9--11--9-------11-----9--9--11---|
Ab|--7-7-7---7--7---7--7--7--7---7----7--7---7--7--7--7----|
Eb|--------------------------------------------------------|

Rhythm Fig. 7

Eb|--------------------------------------------------------|
Bb|------10----10----------10------10----------------------|
Gb|------9-----9-----------9-------9-----------------------|
Db|------7-----7-----------7-------7-----------------------|
Ab|--------------------------------------------------------|
Eb|--------------------------------------------------------|

Eb|--------------------------------------------------------|
Bb|------9----9----------9------9--------------------------|
Gb|------9----9----------9------9--------------------------|
Db|------9----9----------9------9--------------------------|
Ab|--------------------------------------------------------|
Eb|--------------------------------------------------------|

Rhythm Fig. 8

Eb|--------------------------------------------------------|
Bb|--------------------------------------------------------|
Gb|--------------------------------------------------------|
Db|--------------------------------------------------------|
Ab|--7--7--9-----7--7--8--9--------------------------------|
Eb|--5--5--5--5--5--5--6--7--------------------------------|

Rhythm Fig. 9

Eb|--------------------------------------------------------|
Bb|------10------10--11--12--------------------------------|
Gb|------9-------9---10--11--------------------------------|
Db|------7-------------------------------------------------|
Ab|--------------------------------------------------------|
Eb|--------------------------------------------------------|

Rhythm Fig. 10

Eb|--------------------------------------------------------|
Bb|--------------------------------------------------------|
Gb|--9-----------9------9---------------9------------------|
Db|--9----11-----9------9--------11-----9------------------|
Ab|--7----7---7--7------7-----7--7---7--7------------------|
Eb|--------------------------------------------------------|

Eb|--------------------------------------------------------|
Bb|--------------------------------------------------------|
Gb|--------------------------------------------------------|
Db|--7----------7------7--------------7--------------------|
Ab|--7----9-----7------7--------9-----7--------------------|
Eb|--5----5--5--5------5-----5--5--5--5--------------------|

Rhythm Fig. 11

Eb|--------------------------------------------------------|
Bb|--9--------9----x--9-----------9------------------------|
Gb|--9--------9----x--9-----------9------------------------|
Db|--9--------9----x--9-----------9------------------------|
Ab|--7--------7----x--7-----------7------------------------|
Eb|--------------------------------------------------------|

Eb|--------------------------------------------------------|
Bb|--2--------2----x--2-----------2------------------------|
Gb|--2--------2----x--2-----------2------------------------|
Db|--2--------2----x--2-----------2------------------------|
Ab|--0--------0----x--0-----------0------------------------|
Eb|--------------------------------------------------------|


Rhythm Fig. 12

Eb|--------------------------------------------------------|
Bb|--------------------------------------------------------|
Gb|--9--9--9--9--9--9--9--9--------------------------------|
Db|--9--9--9--9--9--9--9--9--------------------------------|
Ab|--7--7--7--7--7--7--7--7--------------------------------|
Eb|--------------------------------------------------------|
    < - - - - 2x - - - - - >


Solo

Eb|--------------------------------------------------------|
Bb|--15b~------15b-r15p12-----15b~------15b-r15p12---------|
Gb|-----------------------14-----------------------14------|
Db|--------------------------------------------------------|
Ab|--------------------------------------------------------|
Eb|--------------------------------------------------------|


Eb|--15b---r15---------------------------------------------|
Bb|-------------12-----------------------------------------|
Gb|-----------------14b--r14--12---------------------------|
Db|----------------------------------------12--12----------|
Ab|--------------------------------x-12h14---------12h14---|
Eb|--------------------------------------------------------|


Eb|--------------------------------------------------------|
Bb|---------------------15b~------15b-r15p12-----15b~------|
Gb|------------------------------------------14------------|
Db|--12-12h14p12-------------------------------------------|
Ab|--------------14----------------------------------------|
Eb|--------------------------------------------------------|


Eb|--------------------15b---r15-15b--r15------------------|
Bb|--15b-r15p12----------------------------12-15-12--------|
Gb|-------------14-----------------------------------------|
Db|--------------------------------------------------------|
Ab|--------------------------------------------------------|
Eb|--------------------------------------------------------|


Eb|--------------------------------------------------------|
Bb|--------------------------------------------------------|
Gb|------------------12-12h14p12----12\--------------------|
Db|--------12--12h14-------------14------------------------|
Ab|--12h14-------------------------------------------------|
Eb|--------------------------------------------------------|

NOTHIN' TO LOSE
Gene Simmons


[Rhy. Fig 1a] (2x)
[Rhy. Fig 1b]

[Rhy. Fig 2a w/  Rhy. Fig 3a]
Before I had a baby
I didn't care anyway
[Rhy. Fig 2b]
I thought about the back door
I didn't know what to say

[Rhy. Fig 2c w/ Rhy. Fig 3a]
But once I got a baby
I, I tried every way
[Rhy. Fig 2b]
She didn't wanna do it
But she did anyway

[Rhy. Fig 4 w/ Rhy. Fig 5]
But baby please don't refuse
You know you got nothin' to lose
You got nothin' to lose

[Rhy. Fig 6 w/ Rhy. Fig 7] (3x)
You got, got nothin' to lose, well nothin'
You got, got nothin' to lose, yeah baby
You got, got nothin' to lose
You got, got nothin' to lose, you g-g-g-g-got nothin'
You got, got nothin' to lose, well come on mama
You got, got nothin' to lose, yeah shake your
[Rhy. Fig 8 w/ Rhy. Fig 9]
You got, got
You got, you got, you got nothin' to lose

[Rhy. Fig 1a]
[Rhy. Fig 1c]

[Rhy. Fig 2c w/ Rhy. Fig 3b]
So now I've got a baby
And we've tried every way
[Rhy. Fig 2b]
You know she wants to do it
And she does anyway

[Rhy. Fig 4 w/ Rhy. Fig 5]
But baby please don't refuse
You know you got nothin' to lose

[Rhy. Fig 6 w/ Rhy. Fig 7] (3x)
You got nothin' to lose
You got, got nothin' to lose, yeah baby
You got, got nothin' to lose, yeah
You got, got nothin' to lose, you feel so good
You got, got nothin' to lose, well come on mama
You got, got nothin' to lose, ch-ch-ch-ch-ch-ch yeah
You got, got nothin' to lose, well come on
[Rhy. Fig 8 w/ Rhy. Fig 9]
You got, got
You got, you got you, got nothin' to lose

[Solo over Rhy. Fig 10 w/ Rhy. Fig 11]

[Drums and piano only]
You got, got nothin' to lose
You got, got nothin' to lose, ooh baby
You got, got nothin' to lose, yeah
[Rhy. Fig 12]
You got, got nothin' to lose, yeah

[Rhy. Fig 6 w/ Rhy. Fig 7] (repeat and fade)
You got, got nothin' to lose, oh you g-g-got, baby
You got, got nothin' to lose, shake it honey
You got, got nothin' to lose, oh you know you're a sweet thing
You got, got nothin' to lose, oh really mama
You got, got nothin' to lose, yeah you really can move it
You got, got nothin' to lose, oh you g-g-got nothin'
You got, got nothin' to lose,
Yeah shake it, shake it, shake it, shake it
You got, got nothin' to lose
You got, got nothin' to lose
You got, got

Track 3 - Firehouse

Rhythm Fig. 1

Eb|----------------------------------------------|
Bb|----------------------------------------------|
Gb|--2----2----4----2----2----2--2--------7------|
Db|--2----4----6----4----2----4--2--------7------|
Ab|----------------------------------------------|
Eb|----------------------------------------------|

Eb|----------------------------------------------|
Bb|----------------------------------------------|
Gb|--7--7--7--7--7--7----9----9--9--9--9--9--9---|
Db|--9--7--9--7--9--7----7----7--7--7--7--7--7---|
Ab|----------------------0----0--0--0--0--0--0---|
Eb|----------------------------------------------|

Eb|----------------------------------------------|
Bb|----------------------------------------------|
Gb|--2-----2----4-----2-----2-----2--2--------7--|
Db|--2-----4----6-----4-----2-----4--2---2----7--|
Ab|--0--0-----0----0-----0--0--0-----0---0-------|
Eb|----------------------------------------------|

Eb|----------------------------------------------|
Bb|----------------------2-----------------------|
Gb|--7--7--7--7--7--7----2-----------------------|
Db|--9--7--9--7--9--7----2-----------------------|
Ab|----------------------0-----------------------|
Eb|----------------------------------------------|


Rhythm Fig. 2

Eb|----------------------------------------------|
Bb|----------------------------------------------|
Gb|----------------------------------------------|
Db|----------------------------------------------|
Ab|--0--------------------0----------------------|
Eb|---------3----0--3--0---------3----0--3--0----|

Eb|----------------------------------------------|
Bb|--8--7--8--7--8--7-----2----------------------|
Gb|--7--7--7--7--7--7-----2----------------------|
Db|--9--7--9--7--9--7-----2----------------------|
Ab|--------------------0--0----------------------|
Eb|----------------------------------------------|


Rhythm Fig. 3a

Eb|----------------------------------------------|
Bb|----------------------------------------------|
Gb|----------------------------------------------|
Db|----------------------------------------------|
Ab|--0--------------------0----------------------|
Eb|---------3----0--3--0---------3----0--3--0----|


Eb|----------------------------------------------|
Bb|-----------------------2----------------------|
Gb|--7--7--7--7--7--7-----2----------------------|
Db|--9--7--9--7--9--7-----2----------------------|
Ab|--------------------0--0----------------------|
Eb|----------------------------------------------|

Rhythm Fig. 3b

Eb|----------------------------------------------|
Bb|----------------------------------------------|
Gb|----------------------------------------------|
Db|----------------------------------------------|
Ab|--0--------------------0----------------------|
Eb|---------3----0--3--0---------3----0--3--0----|

Eb|----------------------------------------------|
Bb|--8--7--8--7--8--7-----2----------------------|
Gb|--7--7--7--7--7--7-----2----------------------|
Db|-----------------------2----------------------|
Ab|--------------------0--0----------------------|
Eb|----------------------------------------------|

Rhythm Fig. 3c

Eb|----------------------------------------------|
Bb|----------------------------------------------|
Gb|----------------------------------------------|
Db|----------------------------------------------|
Ab|--0--------------------0----------------------|
Eb|---------3----0--3--0---------3----0--3--0----|

Eb|----------------------------------------------|
Bb|--8--7--8--7--8--7-----5----------------------|
Gb|--7--7--7--7--7--7-----6----------------------|
Db|-----------------------7----------------------|
Ab|--------------------0--0----------------------|
Eb|----------------------------------------------|


Rhythm Fig. 4a

Eb|----------------------------------------------|
Bb|----------------------------------------------|
Gb|--2----x--------------2----x------------------|
Db|--2----x--------------2----x------------------|
Ab|--0----x--------------0----x------------------|
Eb|----------------------------------------------|

Eb|----------------------------------------------|
Bb|--8--7--8--7--8--7----2-----------------------|
Gb|--7--7--7--7--7--7----2-----------------------|
Db|--9--7--9--7--9--7----2-----------------------|
Ab|----------------------0-----------------------|
Eb|----------------------------------------------|

Rhythm Fig. 4b

Eb|----------------------------------------------|
Bb|----------------------------------------------|
Gb|--2----x--------------2----x------------------|
Db|--2----x--------------2----x------------------|
Ab|--0----x--------------0----x------------------|
Eb|----------------------------------------------|

Eb|----------------------------------------------|
Bb|--8--7--8--7--8--7-----2----------------------|
Gb|--7--7--7--7--7--7-----2----------------------|
Db|--9--7--9--7--9--7-----2----------------------|
Ab|--------------------0--0----------------------|
Eb|----------------------------------------------|

Rhythm Fig. 4c

Eb|----------------------------------------------|
Bb|----------------------------------------------|
Gb|--2----x--------------2-----------------------|
Db|--2----x--------------2-----------------------|
Ab|--0----x--------------0----3b---3b-0----------|
Eb|--------------------------------------3--0----|
                              1/4-step bends


Eb|----------------------------------------------|
Bb|--8--7--8--7--8--7-----2----------------------|
Gb|--7--7--7--7--7--7-----2----------------------|
Db|--9--7--9--7--9--7-----2----------------------|
Ab|--------------------0--0----------------------|
Eb|----------------------------------------------|


Rhythm Fig. 4d

Eb|----------------------------------------------|
Bb|--10----x--------------10----x----------------|
Gb|--9-----x--------------9-----x----------------|
Db|--11----x--------------11----x----------------|
Ab|--0--------------------0----------------------|
Eb|----------------------------------------------|

Eb|----------------------------------------------|
Bb|--8--7--8--7--8--7-----2----------------------|
Gb|--7--7--7--7--7--7-----2----------------------|
Db|--9--7--9--7--9--7-----2----------------------|
Ab|--------------------0--0----------------------|
Eb|----------------------------------------------|

Rhythm Fig. 5

Eb|----------------------------------------------|
Bb|----------------------------------------------|
Gb|--5------------------3--------4--4------------|
Db|--5--------5---------3--------4--4--2---------|
Ab|--3--------5---------1--------2--2--2---------|
Eb|-----------3------------------------0---------|

Rhythm Fig. 6

Eb|----------------------------------------------|
Bb|----------------------------------------------|
Gb|--4------4--4---------------------------------|
Db|--4------4--4---------2------2--2-------------|
Ab|--2------2--2---------2------2--2-------------|
Eb|----------------------0------0--0-------------|

Eb|----------------------------------------------|
Bb|----------------------------------------------|
Gb|----------------------------------------------|
Db|--3------3--3---------5--5----5---------------|
Ab|--3------3--3---------5--5----5---------------|
Eb|--1------1--1---------3--3----3---------------|

Rhythm Fig. 7

Eb|----------------------------------------------|
Bb|-------------------------------------------7--|
Gb|--2-----2----4-----2-----2-----2--2--------7--|
Db|--2-----4----6-----4-----2-----4--2---2----7--|
Ab|--0--0-----0----0-----0--0--0-----0---0-------|
Eb|----------------------------------------------|

Eb|----------------------------------------------|
Bb|--8--7--8--7--8--7----------------------------|
Gb|--7--7--7--7--7--7----9----7\-5----------5----|
Db|--9--7--9--7--9--7----9----7\-5----5-----5----|
Ab|-----------------------------------5h-7-------|
Eb|----------------------------------------------|


Rhythm Fig. 8a

Eb|----------------------------------------------|
Bb|----------------------------------------------|
Gb|----------------------------------------------|
Db|----------------------------------------------|
Ab|--0--------------------0----------------------|
Eb|---------3----0--3--0-------------------------|

Eb|----------------------------------------------|
Bb|--8----7----8---------------------------------|
Gb|--7----7----7-------2-----2-------------------|
Db|--9----7----9-------2h4---2-------------------|
Ab|-----------------0-----------0----------------|
Eb|----------------------------------------------|

Rhythm Fig. 8b

Eb|----------------------------------------------|
Bb|----------------------------------------------|
Gb|----------------------------------------------|
Db|----------------------------------------------|
Ab|--0--------------------0----------------------|
Eb|---------3----0--3--0-------------------------|

Eb|----------------------------------------------|
Bb|----------------------------------------------|
Gb|-----------------------------2----------------|
Db|-/5----4----2-------2h4---2--2----------------|
Ab|-----------------0-----------0----------------|
Eb|----------------------------------------------|


Riff 1

Eb|----------------------------------------------|
Bb|----------------------------------------------|
Gb|--7b~-------------------7b~-------------------|
Db|----------------------------------------------|
Ab|----------------------------------------------|
Eb|----------------------------------------------|
   Vib. by releasing bend a half-step then bending up again

Riff 2

Eb|--8--------8----------------------------------|
Bb|--11b~-----11b--r11p8-----8-------8-----------|
Gb|----------------------10--10b~----10b--r10p8--|
Db|----------------------------------------------|
Ab|----------------------------------------------|
Eb|----------------------------------------------|


Eb|-----------6-------8-----9------7--7----------|
Bb|--------------------------------7--7----------|
Gb|--------/7-----7/8----/9---9----8--8--9-------|
Db|--10----------------------------------9-------|
Ab|--------------------------------------7-------|
Eb|----------------------------------------------|


Riff 3

Eb|--8--------8----------------------------------|
Bb|--11b~-----11b--r11p8-----8-------8-----------|
Gb|----------------------10--10b~----10b--r10p8--|
Db|----------------------------------------------|
Ab|----------------------------------------------|
Eb|----------------------------------------------|


Eb|-----------6-----4-----3----------------------|
Bb|----------------------------------------------|
Gb|--------/7-----5-----3----1-------------------|
Db|--10------------------------------------------|
Ab|----------------------------------------------|
Eb|----------------------------------------------|


Riff 4

Eb|----------------------------------------------|
Bb|----------------------------------------------|
Gb|--9b--r9-7--------11b--r11-9------12b--r12-10-|
Db|-----------9~----------------9~---------------|
Ab|----------------------------------------------|
Eb|----------------------------------------------|


Eb|----------------------------------------------|
Bb|---------------------13b~---------------------|
Gb|---------14b--r14-12--------------------------|
Db|--10~-----------------------------------------|
Ab|----------------------------------------------|
Eb|----------------------------------------------|


Riff 5

Eb|----------------------------------------------|
Bb|--8--7----------------------------------------|
Gb|--------5--4~---------------------------------|
Db|----------------------------------------------|
Ab|----------------------------------------------|
Eb|----------------------------------------------|

Riff 6

Eb|----------------------------------------------|
Bb|----------------------------------------------|
Gb|--7b----7--5----------------------------------|
Db|---------------------5------------------------|
Ab|----------------5h-7--------------------------|
Eb|----------------------------------------------|

Solo

Eb|----------------------------------------------|
Bb|----------------------------------------------|
Gb|--pb7---x-7--x-7--x-7--x-7--x-7--x-7---5--5---|
Db|----------------------------------------------|
Ab|----------------------------------------------|
Eb|----------------------------------------------|
           Gradually release bend - - >

Eb|----------------------------------------------|
Bb|----------------------------------------------|
Gb|---------------x-2--x-4-4b^--4p2---2~---------|
Db|--7~-----------------------------4------------|
Ab|---------/3-----------------------------------|
Eb|----------------------------------------------|
           P.M.

Eb|----------------------------------------------|
Bb|----------------------------------------------|
Gb|----------------------------------------------|
Db|--x-2--------------------------5-5-x-5-x-5h7--|
Ab|---------x-x-5---x-3~-----5h7-----------------|
Eb|----------------------------------------------|


Eb|----------------------------------------------|
Bb|----------------------------------------------|
Gb|------------------------pb7--x-7--x-7--x-7----|
Db|--5--5--5--x-5-x-5h7--------------------------|
Ab|----------------------------------------------|
Eb|----------------------------------------------|
                              Gradually release bend

Eb|----------------------------------------------|
Bb|--8b----------r8------------------------------|
Gb|----------------------------------------------|
Db|----------------------------------------------|
Ab|----------------------------------------------|
Eb|----------------------------------------------|


FIREHOUSE
Paul Stanley

[Rhy. Fig 1 w/ Riff 1]
Whoo, hoo, yeah

[Rhy. Fig 3a w/ Rhy. Fig 3b]
Whoo, hoo, yeah
[Rhy. Fig 3a w/ Rhy. Fig 3c]

[Rhy. Fig 4a]
She'll adore you and she'll floor you
With her wisdom and her vision
[Rhy. Fig 4b]
And you'll love it and think of it
Till you lose all intuition
Come on
[Rhy. Fig 5 w/ Riff 2]

[Rhy. Fig 4c w/ Rhy. Fig 4d] (2x)
She can move you and improve you
With her love and her devotion
And she'll thrill you and she'll chill you
But you're headed for commotion

[Rhy. Fig 4a w/ Rhy. Fig 4d]
And you'll need her so you'll feed her
With your endless dedication
[Rhy. Fig 4c w/ Rhy. Fig 4d]
And the quicker you get sicker
She'll remove your medication
[Rhy. Fig 5 w/ Riff 3]

[Rhy. Fig 2] (2x)
Get the firehouse
'Cause she sets my soul afire
Get the firehouse
And the flames keep gettin' higher

[Rhy. Fig 6 w/ Riff 4]
She's like bad weather but it seems so good
You'd never leave her but you know you should

[Solo over Rhy. Fig 2 (2x)]

[Rhy. Fig 6 w/ Riff 4 and Riff 5]
She's like bad weather but it seems so good
You'd never leave her but you know you should

[Rhy. Fig 7 w/ Riff 6]
Ooh

[Rhy. Fig 2]
Get the firehouse
'Cause she sets my soul afire
[Rhy. Fig 8a w/ Rhy. Fig 8b]
Get the firehouse
Whoo, hoo, yeah
Get the firehouse
Whoo, hoo, yeah

Track 4 - Cold Gin

Rhythm Fig. 1a

Eb|--------------------------------------------------------|
Bb|--------------------------------------------------------|
Gb|--9------7----7----7----7--7/-9--9----------------------|
Db|--7------5----4----5----4--5/-7--7----------------------|
Ab|--0------0----0----0----0--0-----0----------------------|
Eb|--------------------------------------------------------|


Rhythm Fig. 1b

Eb|--------------------------------------------------------|
Bb|--------------------------------------------------------|
Gb|--9--9----7----7----7----7--7/-9--9---------------------|
Db|--7--7----5----4----5----4--5/-7--7---------------------|
Ab|--0--0----0----0----0----0--0-----0---------------------|
Eb|--------------------------------------------------------|


Rhythm Fig. 1c

Eb|---------------------------------3----------------------|
Bb|---------------------------------3----------------------|
Gb|--9--9----7----7----7----7--7----0----------------------|
Db|--7--7----5----4----5----4--5----0----------------------|
Ab|--0--0----0----0----0----0--0----x----------------------|
Eb|---------------------------------3----------------------|


Rhythm Fig. 2a

Eb|--------------------------------------------------------|
Bb|--2------3----2----3----2--3p-2--2----------------------|
Gb|--2------4----2----4----2--4p-2--2----------------------|
Db|--2------2----2----2----2--2-----2----------------------|
Ab|--0------0----0----0----0--0-----0----------------------|
Eb|--------------------------------------------------------|


Rhythm Fig. 2b

Eb|--------------------------------------------------------|
Bb|--2-------3----2----3----2--3p-2--2---------------------|
Gb|--2-------4----2----4----2--4p-2--2---------------------|
Db|--2-------2----2----2----2--2-----2---------------------|
Ab|--0--0----0----0----0----0--0-----0---------------------|
Eb|--------------------------------------------------------|


Rhythm Fig. 2c

Eb|--------------------------------------------------------|
Bb|--2------3----2----3----2--3p-2--2----------------------|
Gb|--2------4----2----4----2--4p-2--2----------------------|
Db|--2------2----2----2----2--2-----2----------------------|
Ab|--0------0----0----0----0--0-----0----3~----------------|
Eb|--------------------------------------------------------|

Rhythm Fig. 2d

Eb|---------------------------------3----------------------|
Bb|--2-------3----2----3----2--3----3----------------------|
Gb|--2-------4----2----4----2--4----0----------------------|
Db|--2-------2----2----2----2--2----0----------------------|
Ab|--0--0----0----0----0----0--0----x----------------------|
Eb|---------------------------------3----------------------|


Rhythm Fig. 3a

Eb|--------------------------------------------------------|
Bb|--------------------------------------------------------|
Gb|--14--14---------------12--12---------------------------|
Db|--14--14---------------12--12---------------------------|
Ab|--0---0----------------0---0----------------------------|
Eb|--------------------------------------------------------|


Rhythm Fig. 3b

Eb|--------------------------------------------------------|
Bb|--2--2-----------------3--3-----------------------------|
Gb|--2--2-----------------0--0-----------------------------|
Db|--2--2-----------------0--0-----------------------------|
Ab|--0--0-----------------0--0-----------------------------|
Eb|--------------------------------------------------------|


Rhythm Fig. 3c

Eb|--------------------------------------------------------|
Bb|--2--2-----------------3--3-----------------------------|
Gb|--2--2-----------------0--0-----------------------------|
Db|--2--2-----------------0--0-----------------------------|
Ab|--0--0-----------------0--0--------3~-------------------|
Eb|--------------------------------------------------------|


Rhythm Fig. 4a

Eb|--------------------------------------------------------|
Bb|--------------------------------------------------------|
Gb|--9--9---------------9--9--x-x-x-x-12--11~--------------|
Db|--9--9---------------9--9--x-x-x-x-12--12~--------------|
Ab|--7--7---------------7--7--x-x-x-x----------------------|
Eb|--------------------------------------------------------|
    < - - - - - - - - 3x - - - - - - - - - - >


Eb|--------------------------------------------------------|
Bb|--------------------------------------------------------|
Gb|--9--9--------------------------------------------------|
Db|--9--9--------------------------------------------------|
Ab|--7--7--------------------------------------------------|
Eb|--------------------------------------------------------|


Rhythm Fig. 4b

Eb|--------------------------------------------------------|
Bb|--9--9---------------9--9-------------------------------|
Gb|--9--9---------------9--9--x-x-x-x----------------------|
Db|--9--9---------------9--9--x-x-x-x-12--12---------------|
Ab|--7--7---------------7--7--x-x-x-x-10--12---------------|
Eb|---------------------------------------10---------------|

Eb|--------------------------------------------------------|
Bb|--9--9\--------------9--9-------------------------------|
Gb|--9--9\--------------9--9--x-x-x-x----------------------|
Db|--9--9\--------------9--9--x-x-x-x-12--12---------------|
Ab|--7--7\--------------7--7--x-x-x-x-10--12---------------|
Eb|---------------------------------------10---------------|
    < - - - - - - - - 2x - - - - - - - - - - >


Eb|--------------------------------------------------------|
Bb|--9--9--------------------------------------------------|
Gb|--9--9--------------------------------------------------|
Db|--9--9--------------------------------------------------|
Ab|--7--7--------------------------------------------------|
Eb|--------------------------------------------------------|


Rhythm Fig. 5a

Eb|--------------------------------------------------------|
Bb|--------------------------------------------------------|
Gb|------------5--5----------------------------------------|
Db|--5--5------5--5----------------------------------------|
Ab|--5--5------3--3------3--3-2-3-2---3--3-2-3-------------|
Eb|--3--3--------------------------------------1-----------|

Eb|--------------------------------------------------------|
Bb|--------------------------------------------------------|
Gb|------------5--5----------------------------------------|
Db|--5--5------5--5----------------------------------------|
Ab|--5--5------3--3------3-2-3-2-3-2-3-2-3-2-3-2-3---------|
Eb|--3--3------------------------------------------1-------|


Eb|--------------------------------------------------------|
Bb|--------------------------------------------------------|
Gb|------------5--5----------------------------------------|
Db|--5--5------5--5----------------------------------------|
Ab|--5--5------3--3------3--3-2-3-2---3--3-2-3-------------|
Eb|--3--3--------------------------------------1-----------|

Eb|--------------------------------------------------------|
Bb|--------------------------------------------------------|
Gb|------------5--5----------------------------------------|
Db|--5--5------5--5----------------------------------------|
Ab|--5--5------3--3------3-2-3-2-3-2-3-2-3-2-3-2-3---------|
Eb|--3--3-------------------------------------------3------|


Eb|--------------------------------------------------------|
Bb|--------------------------------------------------------|
Gb|------------7--7----------------------------------------|
Db|--7--7------7--7----------------------------------------|
Ab|--7--7------5--5------5--5-4-5-4---5--5-4-5-------------|
Eb|--5--5--------------------------------------3-----------|


Eb|--------------------------------------------------------|
Bb|--------------------------------------------------------|
Gb|------------7--7----------------------------------------|
Db|--7--7------7--7----------------------------------------|
Ab|--7--7------5--5------5-4-5-4-5-4-5-4-5-4-5-4-5---------|
Eb|--5--5------------------------------------------3-------|


Eb|--------------------------------------------------------|
Bb|--------------------------------------------------------|
Gb|------------7--7----------------------------------------|
Db|--7--7------7--7----------------------------------------|
Ab|--7--7------5--5------5--5-4-5-4---5--5-4-5-------------|
Eb|--5--5--------------------------------------3-----------|


Eb|--------------------------------------------------------|
Bb|--------------------------------------------------------|
Gb|------------7--7----------------------------------------|
Db|--7--7------7--7----------------------------------------|
Ab|--7--7------5--5------5-4-5-4-5-4-5-4-5-4-5-4-5-4-5-4---|
Eb|--5--5--------------------------------------------------|


Rhythm Fig. 5b

Eb|--------------------------------------------------------|
Bb|--------------------------------------------------------|
Gb|------------5--5----------------------------------------|
Db|--5--5------5--5----------------------------------------|
Ab|--5--5------3--3------3--3-2-3-2---3--3-2-3-------------|
Eb|--3--3--------------------------------------1-----------|


Eb|--------------------------------------------------------|
Bb|--------------------------------------------------------|
Gb|------------5--5------5---------------------------------|
Db|--5--5------5--5------5---------------------------------|
Ab|--5--5------3--3------3---------------------------------|
Eb|--3--3--------------------------------------------------|


Eb|--------------------------------------------------------|
Bb|--------------------------------------------------------|
Gb|------------5--5----------------------------------------|
Db|--5--5------5--5----------------------------------------|
Ab|--5--5------3--3------3--3-2-3-2---3--3-2-3-------------|
Eb|--3--3--------------------------------------1-----------|


Eb|--------------------------------------------------------|
Bb|--------------------------------------------------------|
Gb|------------5--5------5---------------------------------|
Db|--5--5------5--5------5-----------------5-5-------------|
Ab|--5--5------3--3------3-----------------5-5-------------|
Eb|--3--3----------------------------------3-3-------------|


Eb|--------------------------------------------------------|
Bb|--------------------------------------------------------|
Gb|------------7--7----------------------------------------|
Db|--7--7------7--7----------------------------------------|
Ab|--7--7------5--5------5--5-4-5-4---5--5-4-5-------------|
Eb|--5--5--------------------------------------3-----------|


Eb|--------------------------------------------------------|
Bb|--------------------------------------------------------|
Gb|------------7--7------7---------------------------------|
Db|--7--7------7--7------7-----------------5-5-------------|
Ab|--7--7------5--5------5-----------------5-5-------------|
Eb|--5--5----------------------------------3-3-------------|

Eb|--------------------------------------------------------|
Bb|--------------------------------------------------------|
Gb|------------7--7----------------------------------------|
Db|--7--7------7--7----------------------------------------|
Ab|--7--7------5--5------5--5-4-5-4---5--5-4-5-------------|
Eb|--5--5--------------------------------------3-----------|


Eb|-------------------------------------------------------|
Bb|-------------------------------------------------------|
Gb|------------7--7------7--------------------------------|
Db|--7--7------7--7------7--------------------------------|
Ab|--7--7------5--5------5--------------------------------|
Eb|--5--5-------------------------------------------------|


Rhythm Fig. 6a

Eb|--------------------------------------------------------|
Bb|--------------------------------------------------------|
Gb|--9--9-------------------------9------7-----------------|
Db|--9--9-----------9------9------9------7------7----------|
Ab|--7--7------7h11---7h11---7----7------5------4----------|
Eb|--------------------------------------------------------|
    < - - - - - - 3x - - - - - >


Rhythm Fig. 6b

Eb|--------------------------------------------------------|
Bb|-----------------10------10-9---------------------------|
Gb|--9--9------9----9--9----9--9---9------7----------------|
Db|--9--9------9h11----9h11----9---9------7------7---------|
Ab|--7--7--------------------------7------5------4---------|
Eb|--------------------------------------------------------|
    < - - - - - - 3x - - - - - >

Riff 1

Eb|--------------------------------------------------------|
Bb|--------------------------------------------------------|
Gb|--2------------------------------2-----2---2------------|
Db|--2------------------------------2-----2---2------------|
Ab|--0------------------------0--3b----3b-----0------------|
Eb|--------------------------------------------------------|
                                 1/4-step bends

Riff 2

Eb|--5-----------------------------------------------------|
Bb|--5-----------------------------------------------------|
Gb|--2-----------------------------------------------------|
Db|--2-----------------------------------------------------|
Ab|--0-----------------------------------------------------|
Eb|--------------------------------------------------------|

Riff 3

Eb|--12----------------------------------------------------|
Bb|--12----------------------------------------------------|
Gb|--14b---------------------------------------------------|
Db|--------------------------------------------------------|
Ab|--------------------------------------------------------|
Eb|--------------------------------------------------------|

Riff 4

Eb|--12h15p12----------------------------------------------|
Bb|-----------15-12h15p12----------------------------------|
Gb|-----------------------14-12h14p12----------------------|
Db|-----------------------------------14-12h14p12----------|
Ab|-----------------------------------------------14--12~--|
Eb|--------------------------------------------------------|

Riff 5

Eb|--------12-------12-------12----------------------------|
Bb|-----12-------12-------12----12\------------------------|
Gb|--13-------14-------15----------------------------------|
Db|--------------------------------------------------------|
Ab|--------------------------------------------------------|
Eb|--------------------------------------------------------|
    Let ring - - - - - - - - >

COLD GIN
Ace Frehley

[Rhy. Fig 1a]
[Rhy. Fig 1b]
Whoo
[Rhy. Fig 1a w/ Riff 1]
[Rhy. Fig 1b]
alright
[Rhy. Fig 1a w/ Rhy. Fig 2a]
[Rhy. Fig 1b w/ Rhy. Fig 2b]
[Rhy. Fig 1a w/ Rhy. Fig 2a]
[Rhy. Fig 1b w/ Rhy. Fig 2b]

[Rhy. Fig 3a w/ Rhy. Fig 3b]
My heater's broke and I'm so tired
[Rhy. Fig 1a w/ Rhy. Fig 2a]
[Rhy. Fig 3a w/ Rhy. Fig 3b]
I need some fuel to build a fire
[Rhy. Fig 1a w/ Rhy. Fig 2a]
[Rhy. Fig 3a w/ Rhy. Fig 3b]
The girl next door, her lights are out, yeah
[Rhy. Fig 1a w/ Rhy. Fig 2a]
[Rhy. Fig 3a w/ Rhy. Fig 3b]
The landlord's gone, I'm down and out

[Rhy. Fig 1a w/ Rhy. Fig 2a]
[Rhy. Fig 1b w/ Rhy. Fig 2b]

[Rhy. Fig 4a w/ Rhy. Fig 4b]
Ooh, it's cold gin time again
You know it'll always win
Cold gin time again
You know it's the only thing
[Riff 3]
That keeps us together, ow

[Rhy. Fig 1a w/ Rhy. Fig 2c]
[Rhy. Fig 1b w/ Rhy. Fig 2c]
[Rhy. Fig 1b w/ Rhy. Fig 2c]
[Rhy. Fig 1b w/ Rhy. Fig 2b]

[Rhy. Fig 3a w/ Rhy. Fig 3c]
It's time to leave and get another quart
[Rhy. Fig 1a w/ Rhy. Fig 2a]
[Rhy. Fig 3a w/ Rhy. Fig 3b]
Around the corner at the liquor store
[Rhy. Fig 1a w/ Rhy. Fig 2a]
[Rhy. Fig 3a w/ Rhy. Fig 3c]
Haha, the cheapest stuff is all I need
[Rhy. Fig 1a w/ Rhy. Fig 2a]
[Rhy. Fig 3a w/ Rhy. Fig 3b]
To get me back on my feet again

[Rhy. Fig 1a w/ Rhy. Fig 2c]
[Rhy. Fig 1b w/ Rhy. Fig 2b]

[Rhy. Fig 4a w/ Rhy. Fig 4b]
Ooh, it's cold gin time again
You know it'll always win
It's cold gin time again
You know it's the only thing
[Riff 4]
That keeps us together, ow

[Rhy. Fig 1a w/ Rhy. Fig 2c]
[Rhy. Fig 1b w/ Rhy. Fig 2c]
[Rhy. Fig 1a w/ Rhy. Fig 2c]
[Rhy. Fig 1c w/ Rhy. Fig 2d]

[Rhy. Fig 5a w/ Rhy. Fig 5b]
[Rhy. Fig 6a w/ Rhy. Fig 6b]

[Rhy. Fig 1a w/ Riff 2]
Whoa yeah
[Rhy. Fig 1b]

[Rhy. Fig 4a w/ Rhy. Fig 4b]
Ooh, it's cold gin time again
You know it'll always win
It's cold gin time again
You know it's the only thing
[Riff 5]
That keeps us together, ow

[Rhy. Fig 1a w/ Rhy. Fig 2c]
[Rhy. Fig 1b w/ Rhy. Fig 2b] (3x)

Track 5 - Let Me Know

Rhythm Fig. 1

Eb|--------------------------------------------------------|
Bb|--2----------------------2------------------------------|
Gb|--2-------------2--2-----2--------------2--2------------|
Db|--2-------4-----2--2--4--2--------4-----2--2--4---------|
Ab|--0----0--0--0--0--0--0--0-----0--0--0--0--0--0---------|
Eb|--------------------------------------------------------|

Eb|--------------------------------------------------------|
Bb|--9-9-9-------------------------------------------------|
Gb|--9-9-9---------------------9------------9------9-------|
Db|--9-9-9----11--9--11--9-----9--------11--9--11--9-------|
Ab|--7-7-7----7---7--7---7--7--7-----7--7---7--7---7-------|
Eb|--------------------------------------------------------|

Eb|---------------------------------------------------------|
Bb|--7---------------------9--------------------------------|
Gb|--7----7-----------7----9-----9-------------9\-----------|
Db|--7----7--9--7--9--7----9-----9--11--9--11--9\-----------|
Ab|--5----5--5--5--5--5----7-----7--7---7--7---7\-----------|
Eb|---------------------------------------------------------|

Eb|--------------------------------------------------------|
Bb|--------------------------------------------------------|
Gb|--------------------------------------------------------|
Db|--------------------------------------------------------|
Ab|--0--0----4----5----6-------7~--------------------------|
Eb|--------------------------------------------------------|

End 1

Eb|--------------------------------------------------------|
Bb|--------------------------------------------------------|
Gb|--------------------------------------------------------|
Db|--------------------------------------------------------|
Ab|--0--0----4----5----6-------7---------------------------|
Eb|--------------------------------------------------------|


Rhythm Fig. 2

Eb|--------------------------------------------------------|
Bb|--7--7--8--7--8--7----9-----9--10--9--10--9-------------|
Gb|--7--7--9--7--9--7----9-----9--11--9--11--9-------------|
Db|--7--7--7--7--7--7----9-----9--9---9--9---9-------------|
Ab|--------------------------------------------------------|
Eb|--------------------------------------------------------|

Eb|--------------------------------------------------------|
Bb|--------------------------------------------------------|
Gb|--------------------------------------------------------|
Db|--------------------------------------------------------|
Ab|--0--0--------------------------------------------------|
Eb|--------------------------------------------------------|


Eb|--------------------------------------------------------|
Bb|--------------------------------------------------------|
Gb|--------------------------------------------------------|
Db|--------------------------------------------------------|
Ab|--0--0----4----5----6-------7---------------------------|
Eb|--------------------------------------------------------|


Rhythm Fig. 3

Eb|--------------------------------------------------------|
Bb|--14----15----14------14-----14--15----14----15---------|
Gb|--14----16----14------14-----14--16----14----16---------|
Db|--14----14----14------14-----14--14----14----14---------|
Ab|--------------------------------------------------------|
Eb|--------------------------------------------------------|

Eb|--------------------------------------------------------|
Bb|--9----10----9--10----9---------------------------------|
Gb|--9----11----9--11----9---------------------------------|
Db|--9----9-----9--9-----9---------------------------------|
Ab|--------------------------------------------------------|
Eb|--------------------------------------------------------|

Eb|--------------------------------------------------------|
Bb|--7----8----7--8----9-----------------------------------|
Gb|--7----9----7--9----9-----------------------------------|
Db|--7----7----7--7----9-----------------------------------|
Ab|--------------------------------------------------------|
Eb|--------------------------------------------------------|

Eb|--------------------------------------------------------|
Bb|--------------------------------------------------------|
Gb|--------------------------------------------------------|
Db|--------------------------------------------------------|
Ab|--0--0----4----5----6-------7~--------------------------|
Eb|--------------------------------------------------------|


Rhythm Fig. 4

Eb|--------------------------------------------------------|
Bb|--2----------------------2-----------------------2------|
Gb|--2-------------2--2-----2--------------2--2-----2------|
Db|--2-------4-----2--2--4--2--------4-----2--2--4--2------|
Ab|--0----0--0--0--0--0--0--0-----0--0--0--0--0--0--0------|
Eb|--------------------------------------------------------|


Eb|--------------------------------------------------------|
Bb|--9-9-9-------------------------------------------------|
Gb|--9-9-9---------------------9----------9----9--9--------|
Db|--9-9-9----11--9--11--9-----9----------9----9--9--------|
Ab|--7-7-7----7---7--7---7--7--7-------7--7----7--7--------|
Eb|--------------------------------------------------------|

Eb|--------------------------------------------------------|
Bb|--------------------------------------------------------|
Gb|--7----------7--8--9------------------------------------|
Db|--7----------7--8--9------------------------------------|
Ab|--5----------5--6--7------------------------------------|
Eb|--------------------------------------------------------|


Rhythm Fig. 5

Eb|--------------------------------------------------------|
Bb|--14----15----14------14-----14--15----14--14--15-------|
Gb|--14----16----14------14-----14--16----14--14--16-------|
Db|--14----14----14------14-----14--14----14--14--14-------|
Ab|--------------------------------------------------------|
Eb|--------------------------------------------------------|

Eb|--------------------------------------------------------|
Bb|--9--9--10----9--10----9--------------------------------|
Gb|--9--9--11----9--11----9--------------------------------|
Db|--9--9--9-----9--9-----9--------------------------------|
Ab|--------------------------------------------------------|
Eb|--------------------------------------------------------|

Eb|--------------------------------------------------------|
Bb|--------------------------------------------------------|
Gb|--7----------7--8--9------------------------------------|
Db|--7----------7--8--9------------------------------------|
Ab|--5----------5--6--7------------------------------------|
Eb|--------------------------------------------------------|


Rhythm Fig. 6

Eb|--------------------------------------------------------|
Bb|--------------------------------------------------------|
Gb|--2-----------2--2--------2-----------------------------|
Db|--2-----4p-2--2--2--4p-2--2-----------------------------|
Ab|--0--0--0-----0--0--0-----0-----------------------------|
Eb|--------------------------------------------------------|


Rhythm Fig. 7

Eb|--------------------------------------------------------|
Bb|--9-----------9-------------------------9---------------|
Gb|--9-----------9---------9---------------9---------------|
Db|--9----11-----9-----11--9-----9--11-----9----11---------|
Ab|--7----7---7--7--7--7---7-----7--7---7--7----7----------|
Eb|--------------------------------------------------------|


Eb|--------------------------------------------------------|
Bb|--2-2-2------------------------------------2------------|
Gb|--2-2-2-------2----------2-----------------2------------|
Db|--2-2-2----4--2--4-------2--------4-----4--2------------|
Ab|--0-0-0----0--0--0--0----0-----0--0--0--0--0------------|
Eb|--------------------------------------------------------|


Eb|--------------------------------------------------------|
Bb|--9-----------9-------------------------9---------------|
Gb|--9-----------9---------9---------------9---------------|
Db|--9----11-----9-----11--9-----9--11-----9----11---------|
Ab|--7----7---7--7--7--7---7-----7--7---7--7----7----------|
Eb|--------------------------------------------------------|


Eb|--------------------------------------------------------|
Bb|--------------------------------------------------------|
Gb|--2-2-2-------2-----2-----------------------------------|
Db|--2-2-2-------4-----2----2----4----5----6---------------|
Ab|--0-0-0----0--0--0--0----0----2----3----4---------------|
Eb|--------------------------------------------------------|


Eb|--------------------------------------------------------|
Bb|--------------------------------------------------------|
Gb|--7-------------7-------7--------------7----------------|
Db|--7-------9-----7-------7--------9-----7----------------|
Ab|--5----5--7--5--5----5--5-----5--5--5--5----5-----------|
Eb|--------------------------------------------------------|


Eb|--------------------------------------------------------|
Bb|--------------------------------------------------------|
Gb|--2-------2-----2-------2--------------2----------------|
Db|--2-------4-----2-------2--------4-----2----------------|
Ab|--0----0--0--0--0----0--0-----0--0--0--0----0-----------|
Eb|--------------------------------------------------------|

Eb|--------------------------------------------------------|
Bb|--9------------------------9----------------------------|
Gb|--9--------------9--9------9---------------9--9---------|
Db|--9-------11-----9--9--11--9--------11-----9--9--11-----|
Ab|--7----7--7---7--7--7--7---7-----7--7---7--7--7--7---7--|
Eb|--------------------------------------------------------|

Rhythm Fig. 8

Eb|--------------------------------------------------------|
Bb|--9----10--9--10--9----9-------10--9--10--9-------------|
Gb|--9----11--9--11--9----9-------11--9--11--9-------------|
Db|--9----9---9--9---9----9-------9---9--9---9-------------|
Ab|--------------------------------------------------------|
Eb|--------------------------------------------------------|


Eb|--------------------------------------------------------|
Bb|--14----15--14--15--14----14---------15------15--14-----|
Gb|--14----16--14--16--14----14---------16------16--14-----|
Db|--14----14--14--14--14----14-----14--14--14--14--14-----|
Ab|--------------------------------------------------------|
Eb|--------------------------------------------------------|


Eb|--------------------------------------------------------|
Bb|--9----10--9--10--9----9-------10--9--10--9-------------|
Gb|--9----11--9--11--9----9-------11--9--11--9-------------|
Db|--9----9---9--9---9----9-------9---9--9---9-------------|
Ab|--------------------------------------------------------|
Eb|--------------------------------------------------------|


Eb|--------------------------------------------------------|
Bb|--14------15--14--15--14----14-----14----14----14-------|
Gb|--14------16--14--16--14----14-----14----14----14-------|
Db|--14--14--14--14--14--14----14-----14----14----14-------|
Ab|--------------------------------------------------------|
Eb|--------------------------------------------------------|


Eb|--------------------------------------------------------|
Bb|--7-----8-----8--7----7--------8-----8--7---------------|
Gb|--7-----9-----9--7----7--------9-----9--7---------------|

Db|--7--7--7--7--7--7----7-----7--7--7--7--7---------------|
Ab|--------------------------------------------------------|
Eb|--------------------------------------------------------|


Eb|--------------------------------------------------------|
Bb|--14------15------15--14----14---14------15--14--15--14-|
Gb|--14------16------16--14----14---14------16--14--16--14-|
Db|--14--14--14--14--14--14----14---14--14--14--14--14--14-|
Ab|--------------------------------------------------------|
Eb|--------------------------------------------------------|

Eb|--------------------------------------------------------|
Bb|--9----10--9--10--9----9--------10-----10--9------------|
Gb|--9----11--9--11--9----9--------11-----11--9------------|
Db|--9----9---9--9---9----9-----9--9---9--9---9------------|
Ab|--------------------------------------------------------|
Eb|--------------------------------------------------------|


Rhythm Fig. 9

Eb|--------------------------------------------------------|
Bb|--------------------------------------------------------|
Gb|--9------9--9------9----------9--9----------------------|
Db|--9------9--9------9----------9--9----------------------|
Ab|--7------7--7------7----------7--7----------------------|
Eb|--------------------------------------------------------|


Eb|--------------------------------------------------------|
Bb|--------------------------------------------------------|
Gb|--2------2--2------2----------2--2----------------------|
Db|--2------2--2------2----------2--2----------------------|
Ab|--0------0--0------0----------0--0----------------------|
Eb|--------------------------------------------------------|


Eb|--------------------------------------------------------|
Bb|--------------------------------------------------------|
Gb|--9------9--9------9----------9--9----------------------|
Db|--9------9--9------9----------9--9----------------------|
Ab|--7------7--7------7----------7--7----------------------|
Eb|--------------------------------------------------------|


Eb|--------------------------------------------------------|
Bb|--------------------------------------------------------|
Gb|--2------2--2------2------------------------------------|
Db|--2------2--2------2------------------------------------|
Ab|--0------0--0------0------------------------------------|
Eb|--------------------------------------------------------|


Eb|--------------------------------------------------------|
Bb|--------------------------------------------------------|
Gb|--7------7--7------7----------7--7----------------------|
Db|--7------7--7------7----------7--7----------------------|
Ab|--5------5--5------5----------5--5----------------------|
Eb|--------------------------------------------------------|

Eb|--------------------------------------------------------|
Bb|--------------------------------------------------------|
Gb|--2------2--2------2----------2--2----------------------|
Db|--2------2--2------2----------2--2----------------------|
Ab|--0------0--0------0----------0--0----------------------|
Eb|--------------------------------------------------------|

Eb|--------------------------------------------------------|
Bb|--------------------------------------------------------|
Gb|--9------9--9------9----------9--9----------------------|
Db|--9------9--9------9----------9--9----------------------|
Ab|--7------7--7------7----------7--7----------------------|
Eb|--------------------------------------------------------|

Eb|--------------------------------------------------------|
Bb|--------------------------------------------------------|
Gb|--2--2--2--2--2--2--2--2--2-----------------------------|
Db|--2--2--2--2--2--2--2--2--2-----------------------------|
Ab|--0--0--0--0--0--0--0--0--0-----------------------------|
Eb|--------------------------------------------------------|


Rhythm Fig. 10

Eb|--------------------------------------------------------|
Bb|--------------------------------------------------------|
Gb|--------------------------------------------------------|
Db|-------7-7---7-7--7-5---5h7p5---------------------------|
Ab|-0---0------0----------------7-6-5-3h5p3---3------------|
Eb|-----------------------------------------5---3--3--3--3-|


Solo

Eb|--------------------------------------------------------|
Bb|-------9-----------7----------9----------7------------9-|
Gb|--------------------------------------------------------|
Db|--/9-------9\--7------7/--9------9\--7-------7/---9-----|
Ab|--------------------------------------------------------|
Eb|--------------------------------------------------------|
    Let ring - - - - - - - - - - - - - - - - - - - - - - - >

Eb|------------------5-------------------------------------|
Bb|---------------5-----8b----8b--r8-----------------------|
Gb|-----------7b------------------------5~-----------------|
Db|--9---------------------------------------7-------------|
Ab|--------------------------------------------------------|
Eb|--------------------------------------------------------|


Eb|--------------------------------------------------------|
Bb|-------9-----------7----------9----------7------------9-|
Gb|--------------------------------------------------------|
Db|--/9-------9\--7------7/--9------9\--7-------7/---9-----|
Ab|--------------------------------------------------------|
Eb|--------------------------------------------------------|
    Let ring - - - - - - - - - - - - - - - - - - - - - - - >

Eb|--------------------------------------------------------|
Bb|------------5-8p5-8b---x-8---x-8r-----------------------|
Gb|--------7b--------------------------5~------------------|
Db|--9---------------------------------------7-------------|
Ab|--------------------------------------------------------|
Eb|--------------------------------------------------------|
                     Hold bend ->

Eb|----------10----------10-----------10--------14-----13--|
Bb|------10--10------10--10-------10--10-------------------|
Gb|--12b---------12b---------12b-----------/14------13-----|
Db|--------------------------------------------------------|
Ab|--------------------------------------------------------|
Eb|--------------------------------------------------------|


Eb|------12---------------5--------------------------------|
Bb|--------------------------8p-5--------------------------|
Gb|--12-------10(11)--------------7--5---5h7p5---7---5~----|
Db|------------------------------------7-------7---7-------|
Ab|--------------------------------------------------------|
Eb|--------------------------------------------------------|


Eb|-----------12-----------12-----------12-------16----15--|
Bb|-------12-----------12-----------12---------------------|
Gb|--14b----------14b----------14b-----------/16-----15----|
Db|--------------------------------------------------------|
Ab|--------------------------------------------------------|
Eb|--------------------------------------------------------|

Eb|------14------------------------------------------------|
Bb|--------------------------------------------------------|
Gb|--14------12(13)------------14--14----------------------|
Db|----------------------------14--14----------------------|
Ab|----------------------14h16-----------------------------|
Eb|--------------------------------------------------------|
                         < - - 3x - - >


Outro solo 1 (left)

Eb|--------------------------------------------------------|
Bb|--8b~---------------------------------------------------|
Gb|-------------5~-------------------------------7b~-------|
Db|-------------------5h7p5--------------------------------|
Ab|-------------------------7-6-5-3~---0-------------------|
Eb|--------------------------------------------------------|


Eb|--------------------------------------------------------|
Bb|--------------------------------------------------------|
Gb|-------14-14----14-16b--16b--16b--16b-r16p14----14------|
Db|--/16--------16------------------------------16---------|
Ab|--------------------------------------------------------|
Eb|--------------------------------------------------------|


Eb|------------------------------------15------------15----|
Bb|--17b^^----17b^^---17b^^~-----17b^^--------17b^^--------|
Gb|--------------------------------------------------------|
Db|--------------------------------------------------------|
Ab|--------------------------------------------------------|
Eb|--------------------------------------------------------|


Eb|--------------------------------------------------------|
Bb|--17-16-15----------------------------------------------|
Gb|-----------17-14b^^----r14---12-14~---\------5~------5--|
Db|-------------------------------------------7-----7-7----|
Ab|--------------------------------------------------------|
Eb|--------------------------------------------------------|


Eb|--------------------------------------------------------|
Bb|--------------------------------------------------------|
Gb|--------------------------------------------------------|
Db|--7-6-5-------------------------------------------------|
Ab|--------7-5-3-0-----------------------------------------|
Eb|--------------------------------------------------------|
                    (fade out)

Outro solo 2 (right)

Eb|--------------------------------------------------------|
Bb|-----------------------------------10----10--12b--------|
Gb|--7b~-----7--7---7--r7--5~-----/11----11----------------|
Db|--------------------------------------------------------|
Ab|--------------------------------------------------------|
Eb|--------------------------------------------------------|
    Hold bend - - - >

Eb|--------------------------------------------------------|
Bb|--12b-r12-10~---------17-20-17h20p17----17-20-17h20p17--|
Gb|------------------/19----------------19-----------------|
Db|--------------------------------------------------------|
Ab|--------------------------------------------------------|
Eb|--------------------------------------------------------|
                                        < - - - 5x - - - >

Eb|--------------------------------------------------------|
Bb|--20b---20b--20b--20b--20b--20b--20b-----r20------------|
Gb|--------------------------------------------------------|
Db|--------------------------------------------------------|
Ab|--------------------------------------------------------|
Eb|--------------------------------------------------------|


Eb|-----17-17----17-17-17----17-17-17----17-17-17-17-------|
Bb|--20-------20----------20----------20-------------------|
Gb|--------------------------------------------------------|
Db|--------------------------------------------------------|
Ab|--------------------------------------------------------|
Eb|--------------------------------------------------------|


Eb|--20-17h20p17----17-20p17-19p17----17--20p17-20b~-------|
Bb|--------------20----------------20----------------------|
Gb|--------------------------------------------------------|
Db|--------------------------------------------------------|
Ab|--------------------------------------------------------|
Eb|--------------------------------------------------------|
                      < - - - 4x - - - >

Eb|--20-17-------------------------------------------------|
Bb|--------20b-r20-17--------------------------------------|
Gb|-------------------19b-r19-17----19-17------------------|
Db|------------------------------19-------19-17h19p17------|
Ab|---------------------------------------------------19---|
Eb|--------------------------------------------------------|


Eb|--------------------------------------------------------|
Bb|--------------------------------------------------------|
Gb|--17----------------17------5-7-7b------------5-7b-7-7--|
Db|--------------17----------------------------7-----------|
Ab|-----19p17-19----19-------------------------------------|
Eb|--------------------------------------------------------|
                                                   Hold bend

Eb|--------------------------------------------------------|
Bb|--------------------------------------------------------|
Gb|--7-7-7-7-7-7-r7p5---7-5~-------7b----------------------|
Db|-------------------7----------7-------------------------|
Ab|--------------------------------------------------------|
Eb|--------------------------------------------------------|
    Hold bend - >                    (fade out)

LET ME KNOW
Paul Stanley

[Rhy. Fig 1 w/ End 1 and Rhy Fig. 2]

[Rhy. Fig 1 w/ Rhy. Fig 3]
Ah let me, let me
Let me be your Sunday driver
Let me be your Monday man
I'll take you anywhere you want
Just as fast as I can
[Rhy. Fig 4 w/ Rhy. Fig 5]
It doesn't matter what you wanna do
It doesn't matter where you wanna go
Just gotta decide girl and then you let me know
[Rhy. Fig 6]

[Rhy. Fig 7 w/ Rhy. Fig 8]
Oh, did you ever want lovin', so you're callin'
Up your baby and she's stallin' with the neighbors
And the night keeps gettin' longer
And the urge keeps getting stronger
So you try him and your dyin' and you're wonderin' does she love you
A knock comes at your door
[Rhy. Fig 6]
Let me in honey

[Solo over Rhy. Fig 7 w/ Rhy. Fig 9]
Let me

[Rhy. Fig 1 w/ Rhy. Fig 3]
Let me be your Tuesday taxi
Let me be your Wednesday boy
I'll be your lovin' man
You'll be my bundle of joy
And oh
[Rhy. Fig 4 w/ Rhy. Fig 5]
It doesn't matter what you wanna do
It doesn't matter where you wanna go
You just gotta decide girl and then you let me know

[Rhy. Fig 10](2x)
[Rhy. Fig 10 w/ Outro Solo 1 & 2] (Until fade)

Track 6 - Kissin Time

Rhythm Fig. 1

Eb|--3-3-3-------------5-------------------------|
Bb|--3-3-3--------5----5-------------7-----------|
Gb|--4-4-4--------5----6-------------7-----------|
Db|--5-5-5--------5----7-------------7-----------|
Ab|--5-5-5--------3----7-------------5-----------|
Eb|--3-3-3-------------5-------------------------|

Eb|--1-1-1-------------3-------------------------|
Bb|--1-1-1--------5----3-------------------------|
Gb|--2-2-2--------5----4-------------------------|
Db|--3-3-3--------5----5-------------------------|
Ab|--3-3-3--------3----5-------------------------|
Eb|--1-1-1-------------3-------------------------|

Eb|--3-3-3-------------5-------------------------|
Bb|--3-3-3--------5----5-------------7-----------|
Gb|--4-4-4--------5----6-------------7-----------|
Db|--5-5-5--------5----7-------------7-----------|
Ab|--5-5-5--------3----7-------------5-----------|
Eb|--3-3-3-------------5-------------------------|

Eb|--1-1-1-------------3-------------------------|
Bb|--1-1-1--------5----3-------------------------|
Gb|--2-2-2--------5----4-------------------------|
Db|--3-3-3--------5----5----5--5--5--5--5--5--5--|
Ab|--3-3-3--------3----5----5--5--5--5--5--5--5--|
Eb|--1-1-1-------------3----3--3--3--3--3--3--3--|

Eb|----------------------------------------------|
Bb|----------------------------------------------|
Gb|----------------------------------------------|
Db|--5\------------------------------------------|
Ab|--5\------------------------------------------|
Eb|--3-------------------------------------------|


Rhythm Fig. 2

Eb|----------------------------------------------|
Bb|----------------------------------------------|
Gb|--7--7------7--7-------------5----------5-----|
Db|--7--7------7--7-------5--5--5----5--5--5-----|
Ab|--5--5------5--5-------5--5--3----5--5--3-----|
Eb|-----------------------3--3-------3--3--------|
    < - - - 2x - - - >   < - - - 2x - - - - >


Rhythm Fig. 3

Eb|----------------------------------------------|
Bb|----------------------------------------------|
Gb|--5--5------5--5-------------5----------5-----|
Db|--5--5------5--5-------5--5--5----5--5--5-----|
Ab|--3--3------3--3-------5--5--3----5--5--3-----|
Eb|-----------------------3--3-------3--3--------|
    < - - - 2x - - - >   < - - - 2x - - - - >


Rhythm Fig. 4

Eb|----------------------------------------------|
Bb|----------------------------------------------|
Gb|--7--7------7--7------------------------------|
Db|--7--7------7--7------5--5--5--5--5--5--5--5--|
Ab|--5--5------5--5------5--5--5--5--5--5--5--5--|
Eb|----------------------3--3--3--3--3--3--3--3--|
    < - - - 2x - - >


Eb|----------------------------------------------|
Bb|----------------------------------------------|
Gb|----------------------------------------------|
Db|--5\------------------------------------------|
Ab|--5\------------------------------------------|
Eb|--3\------------------------------------------|


Rhythm Fig. 5

Eb|----------------------------------------------|
Bb|----------------------------------------------|
Gb|--5--5--------5-------5-------------5---------|
Db|--5--5--7-----5----7--5-------7-----5-----5-5-|
Ab|--3--3--3--3--3----3--3----3--3--3--3-----5-5-|
Eb|------------------------------------------3-3-|

Eb|-----3-------3-------------3-------3----------|
Bb|-----3-------3-------------3-------3----------|
Gb|-----4-------4-------------4-------4----------|
Db|--5-------5--5----5--5-----5----5--5----------|
Ab|--5-------5--5----5--5-----5----5--5----------|
Eb|--3-------3--3----3--3-----3----3--3----------|

Eb|----------------------------------------------|
Bb|----------------------------------------------|
Gb|--5--5--------5-------5-------------5---------|
Db|--5--5--7-----5----7--5-------7-----5------5--|
Ab|--3--3--3--3--3----3--3----3--3--3--3------3--|
Eb|----------------------------------------------|

Eb|--5--5--5--5--5--5--5--5----------------------|
Bb|--5--5--5--5--5--5--5--5--7--7--7--7--7--7--7-|
Gb|--6--6--6--6--6--6--6--6--7--7--7--7--7--7--7-|
Db|--7--7--7--7--7--7--7--7--7--7--7--7--7--7--7-|
Ab|--7--7--7--7--7--7--7--7--5--5--5--5--5--5--5-|
Eb|--5--5--5--5--5--5--5--5----------------------|

Eb|----------------------------------------------|
Bb|--7-------------------------------------------|
Gb|--7--7\---------------------------------------|
Db|--7--7\---------------------------------------|
Ab|--5--5\---------------------------------------|
Eb|----------------------------------------------|

Riff 1

Eb|----------------------------------------------|
Bb|----------------------------------------------|
Gb|------10~-------10~---------------------------|
Db|------10~-------10~---------------------------|
Ab|----------------------------------------------|
Eb|----------------------------------------------|
     < - - - 2x - - - >

Solo

Eb|------------------------------------------------------------------|
Bb|--12b----r12p10---------13-----13---------------------------------|
Gb|--12b----r12p10-12------12b----12b~------12b---12p10---x-10--10---|
Db|------------------------------------------------------------------|
Ab|------------------------------------------------------------------|
Eb|------------------------------------------------------------------|


Eb|------------------------------------------------------------------|
Bb|------------------------------------------------------------------|
Gb|----------------12----12-14-14b--14--14--14--14-14-14-r14p12------|
Db|--12\------/14-----14----------------------------------------14---|
Ab|------------------------------------------------------------------|
Eb|------------------------------------------------------------------|


Eb|------------------------------------------------------------------|
Bb|------------------------------13-------13------10h13p10----10-----|
Gb|--12h14p12----14b--12~---\----12b------12b~-------------12--------|
Db|-----------14-----------------------------------------------------|
Ab|------------------------------------------------------------------|
Eb|------------------------------------------------------------------|


Eb|--13b----13~------------------------------------------------------|
Bb|----------------------------------------------------------15-14---|
Gb|------------------------------12----12-14b^-r14p12----12----------|
Db|--------------------------/14----14----------------14-------------|
Ab|------------------12\---------------------------------------------|
Eb|------------------------------------------------------------------|


Eb|------------------------------------------------------------------|
Bb|--13\11-13-13p12p11-----------------------------------------------|
Gb|--------------------12p11p10---------------------------------7~---|
Db|-----------------------------12p10-10\8-10p8----10p8----10p8------|
Ab|---------------------------------------------10------10-----------|
Eb|------------------------------------------------------------------|


Eb|------------------------------------------------------------------|
Bb|--10-----10------13-----13----------------------------------------|
Gb|--12b----12b~----15b----15b~-----------7-9-9b---9b--9b--9p7---7~--|
Db|-----------------------------------7h9----------------------9-----|
Ab|------------------------------------------------------------------|
Eb|------------------------------------------------------------------|


Eb|------------------------------------------------------------------|
Bb|----------------------------------------------------15p14p13------|
Gb|----------12----12h14p12---12-14--14b-r14p12----12-----------14---|
Db|----12/14----14---------14-------------------14-------------------|
Ab|------------------------------------------------------------------|
Eb|------------------------------------------------------------------|


Eb|------------------------------------------------------------------|
Bb|--13p12p11-------------------------3----5----6-----8-----10-------|
Gb|-----------12--12p11p10----10\-----5b---7b---8b----10b---12b------|
Db|------------------------12----------------------------------------|
Ab|------------------------------------------------------------------|
Eb|------------------------------------------------------------------|


Eb|------------------------------------------------------------------|
Bb|--15--------------------------------------------------------------|
Gb|--17b~------------------------------------------------------------|
Db|------------------------------------------------------------------|
Ab|------------------------------------------------------------------|
Eb|------------------------------------------------------------------|

KISSIN' TIME
Mann, Lowe

[Intro: Bas and drums only]
[Rhy. Fig 1]
Come on Charlotte
Wake up San Diego, Milwaukie, Miami
Put your two lips together and kiss

[Rhy. Fig 2] (2x)
We're kissin' in Cleveland, and Cincinnatti too
Way out in Chicago, I'll tell you what to do
[Rhy. Fig 3]
They party all over, even in St. Lou
[Rhy. Fig 4]
So baby get ready and I'll be kissin' you

[Rhy. Fig 5]
Oh, oh, 'cause anytime is kissin' time, USA
So treat me right, don't make me fight
And we'll rock and roll tonight

[Rhy. Fig 2 w/ Riff 1] (2x)
We're kissin' in Dallas
And Philly's goin' wild
So let's Kiss Atlanta, ho
You know we'll make it smile
[Rhy. Fig 3]
We love the women
Way down in Tennessee
[Rhy. Fig 4 w/ Riff 1]
So baby come on now and start a-kissin' me

[Rhy. Fig 5]
Oh, oh, 'cause anytime is kissin' time, USA
So treat me right, don't make me fight
And we'll rock and roll tonight

[Solo over Rhy. Fig 2 (2x)]
[Rhy. Fig 3]
[Rhy. Fig 4]

[Rhy. Fig 2 w/ Riff 1] (2x)
Kiss all of Seattle, LA to Baltimore
You know we been kissin' in 'Frisco, so lets kiss some more
[Rhy. Fig 3]
Let's do it in Detroit, they all love to score
[Rhy. Fig 4 w/ Riff 1]
So baby, oh baby, what are we waitin' for

[Rhy. Fig 5]
Oh, oh, 'cause anytime is kissin' time, USA
So treat me right, don't make me fight
And we'll rock and roll tonight

(repeat and fade)

Track 7 - Deuce

Rhythm Fig. 1a

Eb|------------------------------------------------------------------|
Bb|------------------------------------------------------------------|
Gb|--14--14--14--14--14--14--------------10-------------12--12-------|
Db|--14--14--16--14--16--14-----10--10---10----12--12---12--14p12----|
Ab|--0---0---0---0---0---0---0--10--10h12------12--12h14----------14-|
Eb|------------------------------------------------------------------|

Eb|------------------------------------------------------------------|
Bb|------------------------------------------------------------------|
Gb|--14--14--14--14--14--14---------------10-------------------------|
Db|--14--14--16--14--16--14-----10--10----10------------5------------|
Ab|--0---0---0---0---0---0---0--10--10h12---------------5------------|
Eb|------------------------------------------------------------------|

Rhythm Fig. 1b

Eb|------------------------------------------------------------------|
Bb|------------------------------------------------------------------|
Gb|--14--14--14--14--14--14---------------10----12--12----12------12-|
Db|--14--14--16--14--16--14-----10--10----10----12--12h14-12------12-|
Ab|--0---0---0---0---0---0---0--10--10h12---------------------14-----|
Eb|------------------------------------------------------------------|

Eb|------------------------------------------------------------------|
Bb|------------------------------------------------------------------|
Gb|--14--14--14--14--14--14---------------10-------------------------|
Db|--14--14--16--14--16--14-----10--10----10-------------------------|
Ab|--0---0---0---0---0---0---0--10--10h12---------------12\----------|
Eb|------------------------------------------------------------------|

Rhythm Fig. 2

Eb|--------------------------------------------------------|
Bb|-----------------------------(5)-5----------------------|
Gb|-----------5-5-5--7--x-5-5-------5----5h7-5-------------|
Db|--7--7--7------5--7------5-------5----5h7-5--7--5-------|
Ab|--7--7--7------------------------------------7--5-------|
Eb|--------------------------------------------------------|

Rhythm Fig. 3a

Eb|-------5------------------------------------------------|
Bb|-------5------------------------------------------------|
Gb|---------------------5------7---------------------------|
Db|--7------------------5------7--------5------------------|
Ab|--7------------------3------5--------5------------------|
Eb|--5-----------------------------------------------------|

Rhythm Fig. 3b

Eb|-------5------------------------------------------------|
Bb|-------5------------------------------------------------|
Gb|---------------------5------7---------------------------|
Db|--7------------------5------7----------7----------------|
Ab|--7------------------3------5----------7----------------|
Eb|--5------------------------------------5----------------|


Rhythm Fig. 4a

Eb|--5-----------------------------------------------------|
Bb|--5-----------------------------------------------------|
Gb|--5-----------------5------7----------------------------|
Db|--7-----------------5------7--------5-------------------|
Ab|--7-----------------3------5--------5-------------------|
Eb|--5-----------------------------------------------------|

Rhythm Fig. 4b

Eb|--5-----------------------------------------------------|
Bb|--5-----------------------------------------------------|
Gb|--5-----------------5------7------5---------------------|
Db|--7-----------------5------7------5----7----------------|
Ab|--7-----------------3------5------3----7----------------|
Eb|--5------------------------------------5----------------|

Rhythm Fig. 5a

Eb|--------------------------------------------------------|
Bb|--------------------------------------------------------|
Gb|--------------------------------------------------------|
Db|--------------------------------------------------------|
Ab|--3~-----------3--4--5----------------------------------|
Eb|------------------------3--4--5~-----0------------------|
    < - - - - - - - - 2x - - - - - - - - >


Eb|--1-----------------------------------------------------|
Bb|--1-----------------------------------------------------|
Gb|--2-----------------------------------------------------|
Db|--3------------------5--5--5----------5-----------------|
Ab|--3------------------5--5--5----------5-----------------|
Eb|--1------------------3--0--3----------------------------|

Rhythm Fig. 5b

Eb|--------------------------------------------------------|
Bb|--------------------------------------------------------|
Gb|--------------------------------------------------------|
Db|--------------------------------------------------------|
Ab|--3~-----------3--4--5----------------------------------|
Eb|------------------------3--4--5~-----0------------------|
    < - - - - - - - - 2x - - - - - - - - >


Eb|--------------------------------------------------------|
Bb|--------------------------------------------------------|
Gb|--10------------------12--12--12------------------------|
Db|--10------------------12--12--12----------5-------------|
Ab|--8-------------------10--10--10----------5-------------|
Eb|--------------------------------------------------------|

Riff 1

Eb|--------------------------------------------------------|
Bb|--------------------------------------------------------|
Gb|--10----------------------------------------------------|
Db|--10--------------5-------------------------------------|
Ab|--8---------------5-------------------------------------|
Eb|--------------------------------------------------------|


Riff 2

Eb|--------------------------------------------------------|
Bb|--------------------------------------------------------|
Gb|--------------------------------------------------------|
Db|--5~-----------5--6--7----------------------------------|
Ab|------------------------5--6--7~------------------------|
Eb|--------------------------------------------------------|

Riff 3

Eb|--------------------------------------------------------|
Bb|--------------------------------------------------------|
Gb|--pb7------r7-----7p5~------------------------/14\------|
Db|--------------------------------------------------------|
Ab|--------------------------------------------------------|
Eb|--------------------------------------------------------|
     Slow release


Riff 4

Eb|--------------------------------------------------------|
Bb|--------------------------------------------------------|
Gb|--------------------------------------------------------|
Db|---------------------2~-----4~-----5--------------------|
Ab|--0------------10\--------------------------------------|
Eb|--------------------------------------------------------|

Eb|--------------------------------------------------------|
Bb|------8--8-8--8--8--8-8--8--------8--8-8--8--8--8-8--8--|
Gb|--7/9-------------------------7/9-----------------------|
Db|--------------------------------------------------------|
Ab|--------------------------------------------------------|
Eb|--------------------------------------------------------|


Riff 5

Eb|--------------------------------------------------------|
Bb|--------------------------------------------------------|
Gb|--------------------------------------------------------|
Db|---------------------2~-----4~-----5-----7--------------|
Ab|--0------------10\--------------------------------------|
Eb|--------------------------------------------------------|


Riff 6

Eb|-----13-----------------15--15--15\---------------------|
Bb|--------------------------------------------------------|
Gb|-/14--------------------16--16--16\---------------------|
Db|--------------------------------------------------------|
Ab|--------------------------------------------------------|
Eb|--------------------------------------------------------|


Solo

Eb|--------------------------------------------------------|
Bb|--5------5-----5---------5------------------------------|
Gb|--7b-----7b----7b--------7b-r7-7b-r7-7b-r7--------------|
Db|--------------------------------------------------------|
Ab|--------------------------------------------------------|
Eb|--------------------------------------------------------|


Eb|---------5----------5-----------------------------------|
Bb|--5----5-----5----5------5------------------------------|
Gb|--7b---------7b----------7b-----5(7)--------------------|
Db|--------------------------------------------------------|
Ab|--------------------------------------------------------|
Eb|--------------------------------------------------------|


Eb|--------------------------------------------------------|
Bb|--5------5-----5---------5------------------------------|
Gb|--7b-----7b----7b--------7b-r7-7b-r7-7b-r7--------------|
Db|--------------------------------------------------------|
Ab|--------------------------------------------------------|
Eb|--------------------------------------------------------|


Eb|---------5----------5-----------------------------------|
Bb|--5----5-----5----5------5----------------------10------|
Gb|--7b---------7b----------7b-----5(7)--------/11----11---|
Db|--------------------------------------------------------|
Ab|--------------------------------------------------------|
Eb|--------------------------------------------------------|


Eb|--12b^^----12b^^~---12b^^~-----12b^^----r12--10h12p10---|
Bb|--------------------------------------------------------|
Gb|--------------------------------------------------------|
Db|--------------------------------------------------------|
Ab|--------------------------------------------------------|
Eb|--------------------------------------------------------|


Eb|--8-10-8---------8-----8--------8--------10p9p8-10p9p8--|
Bb|-----------10------------10-----------10----------------|
Gb|--------------------------------------------------------|
Db|--------------------------------------------------------|
Ab|--------------------------------------------------------|
Eb|--------------------------------------------------------|


Eb|--10p9p8-10p9p8--10b---10b-8h10p8----8------------------|
Bb|----------------------------------10---10b^^----10b^^---|
Gb|--------------------------------------------------------|
Db|--------------------------------------------------------|
Ab|--------------------------------------------------------|
Eb|--------------------------------------------------------|


Eb|--------------------------------------------------------|
Bb|--8h10p8----8-----10p8----------------------------------|
Gb|---------9----------------9p7----7p5--------------------|
Db|-----------------------------------------7p5------------|
Ab|--------------------------------------------------------|
Eb|--------------------------------------------------------|


Eb|--5-----------------------------------------------------|
Bb|----8-5-------------------------------------------------|
Gb|--------8-7-5-------------------------------------------|
Db|--------------7-6-5-------------------------------------|
Ab|--------------------7-5-6-3~----------------------------|
Eb|--------------------------------------------------------|


Outro solo

Eb|---------17-----------------17h20p17--------------------|
Bb|--17--------20p17----17--------------20p17--20--20b-----|
Gb|--19b----------------19b--------------------------------|
Db|--------------------------------------------------------|
Ab|--------------------------------------------------------|
Eb|--------------------------------------------------------|
    < - - - 10x - - >         < - - 13x - - >

Eb|--------------------20b--20b~---------------------------|
Bb|--20-17----17-------------------17h20p17-----20b---20b~-|
Gb|--------19----19-------------------------19-------------|
Db|--------------------------------------------------------|
Ab|--------------------------------------------------------|
Eb|--------------------------------------------------------|


Eb|--------------------------------------------------------|
Bb|--17h20p17----17-----------------17h20p17----17--20b----|
Gb|-----------19----19b---19b~---------------19------------|
Db|--------------------------------------------------------|
Ab|--------------------------------------------------------|
Eb|--------------------------------------------------------|
  |                                                        |
  |                                                        |
  |                                                        |
  |                                                        |
Eb|-------------------------------------------------20b----|
Bb|-----------------20b---20b~-----------------------------|
Gb|--------------------------------------------------------|
Db|--------------------------------------------------------|
Ab|--------------------------------------------------------|
Eb|--------------------------------------------------------|


Eb|------------------------20b---20b~----------------------|
Bb|--20b~-----17h20p17-----------------------17h2017----17-|
Gb|--------------------19----------------------------19----|
Db|--------------------------------------------------------|
Ab|--------------------------------------------------------|
Eb|--------------------------------------------------------|
  |                                                        |
  |                                                        |
  |                                                        |
  |                                                        |
Eb|--20b~------------------22b^^-22b^^~--------------------|
Bb|--------------------------------------------------------|
Gb|--------------------------------------------------------|
Db|--------------------------------------------------------|
Ab|--------------------------------------------------------|
Eb|--------------------------------------------------------|


Eb|--------------------------------------------------------|
Bb|--20b---20b~------17h20p17----17------------------------|
Gb|---------------------------19----19b---19b~-------------|
Db|--------------------------------------------------------|
Ab|--------------------------------------------------------|
Eb|--------------------------------------------------------|
  |                                                        |
  |                                                        |
  |                                                        |
  |                                                        |
Eb|--20b---20b~--------------------------------------------|
Bb|---------------------------------20b---20b~-------------|
Gb|--------------------------------------------------------|
Db|--------------------------------------------------------|
Ab|--------------------------------------------------------|
Eb|--------------------------------------------------------|
                                                   (fade out)

DEUCE
Gene Simmons

[Rhy. Fig 1a w/ Riff 1]
[Rhy. Fig 2] (2x)

[Rhy. Fig 3a w/ Rhy. Fig 4a]
Get up
And get your grandma outta here
[Rhy. Fig 2]
[Rhy. Fig 3a w/ Rhy. Fig 4a]
Pick up
Old Jim is workin' hard this year
[Rhy. Fig 2]
[Rhy. Fig 3b w/ Rhy. Fig 4b]
And baby
Do the things he says to do

[Rhy. Fig 5a w/ Rhy. Fig 5b and Riff 2]
Baby, if you're feeling good
And baby if you're feeling nice
You know your man is workin' hard
He's worth a deuce

[Rhy. Fig 2 (4x) w/ Riff 3]

[Rhy. Fig 3a w/ Rhy. Fig 4a and Riff 4]
Honey
Don't put your man behind his years
[Rhy. Fig 2]
[Rhy. Fig 3a w/ Rhy. Fig 4a and Riff 4]
And baby
Stop cryin' all your tears
[Rhy. Fig 2]
[Rhy. Fig 3b w/ Rhy. Fig 4b and Riff 5]
Baby
Do the things he says to do
Do it

[Rhy. Fig 5a w/ Rhy. Fig 5b and Riff 2]
Baby, if you're feeling good
And baby if you're feeling nice
You know your man is workin' hard
He's worth a deuce

[Solo over Rhy. Fig 2 (8x)]

[Rhy. Fig 5a w/ Rhy. Fig 5b and Riff 2]
And baby, if you're feeling good
Yes baby if you're feeling nice
You know your man is workin' hard
[Riff 6]

[Rhy. Fig 1b w/ Riff 1]
[Rhy. Fig 2 w/ Outro solo]
Yeah

(repeat and fade)

Track 8 - Love Theme From Kiss

Rhythm Fig. 1a

Eb|-------------------------------------------------------------|
Bb|-------------------------------------------------------------|
Gb|-----------6--6h7~--6~------------6--6h7-7-------------------|
Db|------6h7--------------------6h7-----------6h7-7-------------|
Ab|--7----------------------7-----------------------6h7---------|
Eb|--0----------------------0-----------------------------------|


Rhythm Fig. 1b

Eb|-------------------------------------------------------------|
Bb|-------------------------------------------------------------|
Gb|------------9--9h11~--9~-------------9--9h11-11--------------|
Db|------9h11----------------------9h11------------9h11-11------|
Ab|-11------------------------11---------------------------9h11-|
Eb|-------------------------------------------------------------|


Rhythm Fig. 2a

Eb|-------------------------------------------------------------|
Bb|-------------------------------------------------------------|
Gb|-------------------------------------------------------------|
Db|-------------------------------------------------------------|
Ab|--7-----------------7---------------5--6---------------------|
Eb|--0---------------------5---7---8----------------------------|


Rhythm Fig. 2b

Eb|-------------------------------------------------------------|
Bb|-------------------------------------------------------------|
Gb|-------------------------------------------------------------|
Db|-------------------------------------------------------------|
Ab|--7-----------------7---6---5--------------------------------|
Eb|--0-----------------------------7---5--3---------------------|


Rhythm Fig. 3a

Eb|-------------------------------------------------------------|
Bb|----------------12-12--x-12------------12\-------------------|
Gb|----------------11-11--x-11------------11\-------------------|
Db|----------------12-12--x-12------------12\-------------------|
Ab|--11---------------------------------------------------------|
Eb|-------------------------------------------------------------|


Rhythm Fig. 3b

Eb|-------------------------------------------------------------|
Bb|-------------------------12------------12\-------------------|
Gb|-------------------------11------------11\-------------------|
Db|-------------------------12------------12\-------------------|
Ab|--11---------------------------------------------------------|
Eb|-------------------------------------------------------------|

Rhythm Fig. 4a

Eb|-------------------------------------------------------------|
Bb|-------------------------------------------------------------|
Gb|----9----7----11----9--7-------------------------------------|
Db|--9----9----9-----9------9-----------------------------------|
Ab|---------------------------10----------------10\-------------|
Eb|-------------------------------------------------------------|

Rhythm Fig. 4b

Eb|-------------------------------------------------------------|
Bb|-------------------------------------------------------------|
Gb|-----13-----11-----14-----13--11-9---------------------------|
Db|-----------------------------------12------------------------|
Ab|--11-----11-----11-----11------------------------------------|
Eb|-------------------------------------------------------------|

Rhythm Fig. 5a

Eb|-------------------------------------------------------------|
Bb|-------------------------------------------------------------|
Gb|-------------------------------------------------------------|
Db|-------------------------------------------------------------|
Ab|--3--------2-------------------------------------------------|
Eb|----------------3-----0--------------------------------------|
    < - - - - - 2x - - - - - >


Eb|-------------------------------------------------------------|
Bb|-------------------------------------------------------------|
Gb|-----------------------2-------------------------------------|
Db|-----------------------2-------------------------------------|
Ab|--2h3-------2----------0-------------------------------------|
Eb|-----------------3-------------------------------------------|

Eb|-------------------------------------------------------------|
Bb|-------------------------------------------------------------|
Gb|-----4b^---4b^-4b^-4--4--4-4p2p0-4p2p0-----------------------|
Db|-------------------------------------------------------------|
Ab|--0----------------------------------------------------------|
Eb|-------------------------------------------------------------|

Rhythm Fig. 5b

Eb|---------------------------------12*-------------------------|
Bb|-----------------------------12*-----------------------------|
Gb|-------------------------------------------------------------|
Db|-------------------------------------------------------------|
Ab|--3--------2-------------------------------------------------|
Eb|----------------3-----0--------------------------------------|

Eb|--------------------------------5*---------------------------|
Bb|-----------------------------5*------------------------------|
Gb|-------------------------------------------------------------|
Db|-------------------------------------------------------------|
Ab|--3--------2-------------------------------------------------|
Eb|----------------3-----0--------------------------------------|

Eb|-------------------------------------------------------------|
Bb|-------------------------------------------------------------|
Gb|----------------------2--------------------------------------|
Db|----------------------2--------------------------------------|
Ab|--3--------2----------0--------------------------------------|
Eb|----------------3--------------------------------------------|


LOVE THEME FROM KISS
Stanley, Simmons, Criss, Frehley

[Rhy. Fig 1a] (2x)
[Rhy. Fig 1a w/ Rhy. Fig 1b] (2x)
[Rhy. Fig 2a w/ Rhy. Fig 3a]

[Rhy. Fig 1a w/ Rhy. Fig 1b]
[Rhy. Fig 2b w/ Rhy. Fig 3a]

[Rhy. Fig 1a w/ Rhy. Fig 1b]
[Rhy. Fig 2a w/ Rhy. Fig 3b]

[Rhy. Fig 1a w/ Rhy. Fig 1b] (2x)
[Rhy. Fig 4a w/ Rhy. Fig 4b]

[Rhy. Fig 1a w/ Rhy. Fig 1b] (2x)
[Rhy. Fig 5a w/ Rhy. Fig 5b]

[Rhy. Fig 1a w/ Rhy. Fig 1b] (2x)
[Rhy. Fig 2a w/ Rhy. Fig 3a]
[Rhy. Fig 1a w/ Rhy. Fig 1b]

(fade out)

Track 9 - 100,000 Years

Rhythm Fig. 1

Eb|------------------------------------------------------------|
Bb|---------------------------------------12--------10---------|
Gb|---------------------------------------12--------11---------|
Db|--------0------------------------------12--------12---------|
Ab|--0h-2-----2p-0---------------------------------------------|
Eb|-----------------3---0--------------------------------------|


Rhythm Fig. 2

Eb|-----------------------------------------------------------|
Bb|--------------------------------------------3----3-----3---|
Gb|------------------------------------------2----0-2p-0--2---|
Db|--------2--2--------2p-0------------2--2-------------------|
Ab|--------------------------2--------------------------------|
Eb|--0--0--------0--0------------0--0-------------------------|
			            Let ring - - - >

Rhythm Fig. 3a

Eb|-----------------------------------------------------------|
Bb|-----------------------------10--8------10--8--------------|
Gb|-----------------------------9---7------9---7--------------|
Db|--------2--2--------2p-0--x--7---5------7---5--------------|
Ab|-----------------------------------------------------------|
Eb|--0--0--------0--0-----------------------------------------|

Rhythm Fig. 3b

Eb|-----------------------------------------------------------|
Bb|--10--8------10--8-----------------------------------------|
Gb|--9---7------9---7-----------------------------------------|
Db|--7---5------7---5-----------------------------------------|
Ab|-----------------------------------------------------------|
Eb|-----------------------------------------------------------|


Rhythm Fig. 4

Eb|-----------------------------------------------------------|
Bb|----x--12--12---x--14--14------x--15--15----x--14--14------|
Gb|----x--12--12---x--14--14------x--16--16----x--14--14------|
Db|-----------------------------------------------------------|
Ab|-----------------------------------------------------------|
Eb|-----------------------------------------------------------|
    < - - - - - - - - - - - - 2x - - - - - - - - - - - - >


Eb|-----------------------------------------------------------|
Bb|----x--12--12----x--14--14------x--15--15----14-----14\----|
Gb|----x--12--12----x--14--14------x--16--16--------14--------|
Db|-----------------------------------------------------------|
Ab|-----------------------------------------------------------|
Eb|-----------------------------------------------------------|


Rhythm Fig. 5

Eb|-----------------------------------------------------------|
Bb|---------------------------------------------8-------------|
Gb|---------------------------------------------7-------------|
Db|--------2--2--------2p-0------------2--2-----5-------------|
Ab|--------------------------2--------------------------------|
Eb|--0--0--------0--0------------0--0--------0----------------|

Rhythm Fig. 6

Eb|-----------------------------------------------------------|
Bb|---------------------------------------10--8------10--8----|
Gb|-----------2------9--------------------9---7------9---7----|
Db|--5--------2------9--------------------7---5------7---5----|
Ab|--5--------0------7----------------------------------------|
Eb|--3--------------------------------------------------------|


Rhythm Fig. 7a

Eb|-----------------------------------------------------------|
Bb|-----------------------------------------------------------|
Gb|-----------------------------------------------------------|
Db|-----------------------------------------------------------|
Ab|--7--------5--7----5----7------------7---------5--7--------|
Eb|-----------------------------------------------------------|
    < - - - - - 3x - - - - >


Rhythm Fig. 7b

Eb|-----------------------------------------------------------|
Bb|-----------------------------------------------------------|
Gb|--12-------11--12---11----12---------12--------11--12------|
Db|-----------------------------------------------------------|
Ab|-----------------------------------------------------------|
Eb|-----------------------------------------------------------|


Rhythm Fig. 8

Eb|-----------------------------------------------------------|
Bb|--------------------------------------------3----3-----3---|
Gb|------------------------------------------2----0-2p-0--2---|
Db|--------2--2--------2p-0------------2--2-------------------|
Ab|--------------------------2--------------------------------|
Eb|--0--0--------0--0------------0--0-------------------------|
			            Let ring - - - >

Eb|--3------------------1-------------------------------------|
Bb|--3------------------1-------------------------------------|
Gb|--0------------------2-------------------------------------|
Db|--0------------------3-------------------------------------|
Ab|---------------------3-------------------------------------|
Eb|---------------------1-------------------------------------|


Rhythm Fig. 9a

Eb|-----------------------------------------------------------|
Bb|-----------------------------------------------------------|
Gb|-----------------------------------------------------------|
Db|--2--0--2--2--0-----2--0--2--2--0------2----0--------------|
Ab|-----------------2-----------------2-------------2---------|
Eb|------------------------------------------------------0----|


Rhythm Fig. 9b

Eb|--7--7--7-x-x-x-7--7--7-x-x-x--7----------------------7\---|
Bb|--8--8--8-x-x-x-8--8--8-x-x-x--8----------------------8\---|
Gb|--9--9--9-x-x-x-9--9--9-x-x-x--9------7---------------9\---|
Db|--9--9--9-x-x-x-9--9--9-x-x-x--9------7---------------9\---|
Ab|--7--7--7-x-x-x-7--7--7-x-x-x--7------5---------------7\---|
Eb|-------------------------------------------0---------------|

Riff 1

Eb|-----------------------------------------------------------|
Bb|-----3---3-----3-------------------------------------------|
Gb|--2----0-2p-0--2-------------------------------------------|
Db|-----------------------------------------------------------|
Ab|-----------------------------------------------------------|
Eb|-----------------------------------------------------------|
    Let ring - - - >

Riff 2

Eb|-----------------------------------------------------------|
Bb|--12-------------------------------------------------------|
Gb|--12-------------------------------------------------------|
Db|--12-------------------------------------------------------|
Ab|-----------------------------------------------------------|
Eb|-----------------------------------------------------------|


Riff 3

Eb|-----------------------------------------------------------|
Bb|----x--12--12---x--14--14----------------------------------|
Gb|----x--12--12---x--14--14----------------------------------|
Db|-----------------------------------------------------------|
Ab|-----------------------------------------------------------|
Eb|-----------------------------------------------------------|


Riff 4

Eb|------12---------------------------------------------------|
Bb|------12---------------------------------------------------|
Gb|------14b--------------------------------------------------|
Db|-----------------------------------------------------------|
Ab|-----------------------------------------------------------|
Eb|-----------------------------------------------------------|


Riff 5

Eb|-----------------------------------------------------------|
Bb|------------------------------------15b-----------(15\)----|
Gb|--14b-------14b---14p-12-----------------------------------|
Db|--------------------------14----12-------------------------|
Ab|-----------------------------------------------------------|
Eb|-----------------------------------------------------------|
				      2nd time only

Solo 1

Eb|-------------------------------------------------------------------------|
Bb|--15b----15b----15b----15b-----15b---15b---15b---15b---15b---15b---------|
Gb|-------------------------------------------------------------------------|
Db|-------------------------------------------------------------------------|
Ab|-------------------------------------------------------------------------|
Eb|-------------------------------------------------------------------------|
  |  < - - - - - 2x - - - - >    < - - - - - - 2x - - - - - - - - >


Eb|--14b^---14b^---14b^---14b^----14b^--14b^--14b^--14b^--14b^--14b^---------|
Bb|--------------------------------------------------------------------------|
Gb|--------------------------------------------------------------------------|
Db|--------------------------------------------------------------------------|
Ab|--------------------------------------------------------------------------|
Eb|--------------------------------------------------------------------------|
     < - - - - - 2x - - - - >    < - - - - - - 2x - - - - - - - - >

Eb|-------------------------------------------------------------------------|
Bb|--15b-15b-15b-15b-15b-15b----15b-15b-15b-15b-15b-15b-15b-15b-15b-r15-----|
Gb|-------------------------------------------------------------------------|
Db|-------------------------------------------------------------------------|
Ab|-------------------------------------------------------------------------|
Eb|-------------------------------------------------------------------------|
  | Hold bend - - - - - ->     Hold bend - - - - - - - - - - - - >          |
  | <- - - - - 4x - - - - ->

Eb|--14b^14b^14b^14b^14b^14b^---14b^14b^14b^14b^14b^14b^14b^14b^14b^r14-----|
Bb|-------------------------------------------------------------------------|
Gb|-------------------------------------------------------------------------|
Db|-------------------------------------------------------------------------|
Ab|-------------------------------------------------------------------------|
Eb|-------------------------------------------------------------------------|
     Hold bend - - - - - ->     Hold bend - - - - - - - - - - - - >
    <- - - - - 4x - - - - ->

Eb|--15---14---12-----------------------------------------------------------|
Bb|----------------15---14---12---------------------------------------------|
Gb|------------------------------14---13---12-------------------------------|
Db|--------------------------------------------14---13---12-----------------|
Ab|-------------------------------------------------------------------------|
Eb|-------------------------------------------------------------------------|

Eb|-------------------------------------------------------------------------|
Bb|-------------------------------------------------------------------------|
Gb|-----------12----------12----------12----------12----------12----12------|
Db|-----12----------12----------12----------12----------12------------------|
Ab|--14----14----14----14----14----14----14----14----14----14----14---------|
Eb|-------------------------------------------------------------------------|

Eb|-------------------------------------------------------------------------|
Bb|-------------------------------------------------------------------------|
Gb|--14b^---14--12--14--15--14--12--14--15--14--12--------------------------|
Db|-------------------------------------------------------------------------|
Ab|-------------------------------------------------------------------------|
Eb|-------------------------------------------------------------------------|
    < - - - - - - - - - - - - 2x - - - - - - - - - - >

Eb|-------------------------------------------------------------------------|
Bb|-------------------------------------------------------------------------|
Gb|-----------12----------12----------12----------12----------12------------|
Db|-----12----------12----------12----------12----------12----------12------|
Ab|--14----14----14----14----14----14----14----14----14----14----14---------|
Eb|-------------------------------------------------------------------------|


Eb|-------------------------------------------------------------------------|
Bb|-15----15----15----15-15----15-15----15----15----15----15-15----15-15-15-|
Gb|----12----12----12-------12-------12----12----12----12-------12----------|
Db|-------------------------------------------------------------------------|
Ab|-------------------------------------------------------------------------|
Eb|-------------------------------------------------------------------------|


Eb|-------------------------------------------------------------------------|
Bb|-------------------------------------------------------------------------|
Gb|-----------12----------12----------12----------12----------12----12------|
Db|-----12----------12----------12----------12----------12------------------|
Ab|--14----14----14----14----14----14----14----14----14----14----14---------|
Eb|-------------------------------------------------------------------------|


Eb|-------------------------------------------------------------------------|
Bb|--12\--------------------------------------------------------------------|
Gb|--12\--------------------------------------------------------------------|
Db|-------------------------------------------------------------------------|
Ab|-------------------------------------------------------------------------|
Eb|-------------------------------------------------------------------------|

Solo 2

Eb|--------------------------------------------------------------------------|
Bb|--------------------------------------------------------------------------|
Gb|---2b---r2-p0-------------------------------------------------------------|
Db|--------------2-0(2)------------------------------------------------------|
Ab|--------------------------------------------------------------------------|
Eb|-------------------------------------------0------------------------------|

Eb|-------------------------------------------------------------------------|
Bb|--14b^-r14-14b^-r14-14b^-r14-14b^-r14-14b^-r14-14b^-r14------------------|
Gb|--14b^-r14-14b^-r14-14b^-r14-14b^-r14-14b^-r14-14b^-r14------------------|
Db|-------------------------------------------------------------------------|
Ab|-------------------------------------------------------------------------|
Eb|-------------------------------------------------------------------------|
  Pick only first

Eb|------------------12------------------------------------------------------|
Bb|--------------12------15b-------------------------------------------------|
Gb|----------14b-------------------------------------------------------------|
Db|--------------------------------------------------------------------------|
Ab|--------------------------------------------------------------------------|
Eb|--------------------------------------------------------------------------|

Solo 3

Eb|-------------------------------------------------------------------------|
Bb|----7-----7-----7-----8-----8-----8-----10----10----10----12----12----12-|
Gb|-7-----7-----7-----9-----9-----9-----11----11----11----12----12----12----|
Db|-------------------------------------------------------------------------|
Ab|-------------------------------------------------------------------------|
Eb|-------------------------------------------------------------------------|


Eb|-------------------------------------------------------------------------|
Bb|-----14----14----14----15----15----15-----17----17----17----15---15---15-|
Gb|--14----14----14----16----16----16-----18----18----18----16----16---16---|
Db|-------------------------------------------------------------------------|
Ab|-------------------------------------------------------------------------|
Eb|-------------------------------------------------------------------------|


Eb|-------------------------------------------------------------------------|
Bb|-------17-------15-------15-------17-------15-------15-------------------|
Gb|-/18-------18-------16------/18-------18-------16------------------------|
Db|-------------------------------------------------------------------------|
Ab|-------------------------------------------------------------------------|
Eb|-------------------------------------------------------------------------|
   < - - - - - - - - - - - - - 2x - - - - - - - - - - - - >


Eb|--------------------------------------------------------------------------|
Bb|------14-----14----14-----12----12----12-----10----10----10----8-----8----|
Gb|--14-----14-----14-----12----12----12-----11----11----11----9-----9-------|
Db|--------------------------------------------------------------------------|
Ab|--------------------------------------------------------------------------|
Eb|--------------------------------------------------------------------------|

Eb|-------------------------------------------------------------------------|
Bb|-------------------------------------------------------------------------|
Gb|-----------12----------12----------12----------12----------12----12------|
Db|-----12----------12----------12----------12----------12------------------|
Ab|--14----14----14----14----14----14----14----14----14----14----14---------|
Eb|-------------------------------------------------------------------------|


Eb|-------------------------------------------------------------------------|
Bb|-------------------------------------------------------------------------|
Gb|--14b^---14--12--14--15--14--12--14--15--14--12--------------------------|
Db|-------------------------------------------------------------------------|
Ab|-------------------------------------------------------------------------|
Eb|-------------------------------------------------------------------------|
   < - - - - - - - - - - - - 2x - - - - - - - - - - >


Eb|-------------------------------------------------------------------------|
Bb|-------------------------------------------------------------------------|
Gb|-----------12----------12----------12----------12----------12------------|
Db|-----12----------12----------12----------12----------12----------12------|
Ab|--14----14----14----14----14----14----14----14----14----14----14---------|
Eb|-------------------------------------------------------------------------|


Eb|-------------------------------------------------------------------------|
Bb|-15----15----15----15-15----15-15----15----15----15----15-15----15-15-15-|
Gb|----12----12----12-------12-------12----12----12----12-------12----------|
Db|-------------------------------------------------------------------------|
Ab|-------------------------------------------------------------------------|
Eb|-------------------------------------------------------------------------|


Eb|-------------------------------------------------------------------------|
Bb|-------------------------------------------------------------------------|
Gb|----------12----------12----------12----------12-------------------------|
Db|----12----------12----------12----------12----------12----12h14p12----12-|
Ab|-14----14----14----14----14----14----14----14----14----14----------14----|
Eb|-------------------------------------------------------------------------|

100,000 YEARS
Paul Stanley, Gene Simmons

[Intro: Bass only]
[Rhy. Fig 1 with Riff 1]
[Rhy. Fig 2 with Riff 2] (4x)

[Rhy. Fig 2]
I'm sorry to have taken so long
It must have been a bitch while I was gone
You mind if I sit down for a while
[Rhy. Fig 3a w/ Riff 3]
You'll reacquaint yourself with my style

[Rhy. Fig 2 and Rhy. Fig 4]
Well, how could you have waited so long
It must have been a bitch while I was gone
All this time you put up a fear

[Rhy. Fig 6 with Riff 5]
For a hundred thousand years

[Rhy. Fig 5 with Riff 4] (3x)
[Rhy. Fig 2 with Riff 4]

[Rhy. Fig 2 and Rhy. Fig 4]
I'm sorry to have taken so long
It must have been a bitch while I was gone
All this time you put up a fear

[Rhy. Fig 6 with Riff 4]
For a hundred thousand years

[Rhy. Fig 7a and Rhy. Fig 7b]
And baby won't you let me
I think I'm goin' out of my head
I'm just about to, ooh yeah, ha
[Rhy. Fig 3b]

[Solo 1 over]
[Rhy. Fig 5] (3x)
[Rhy. Fig 8] (3x)

[Solo 2] (drums only)
I'm sorry to have taken so long
It must have been a bitch while I was gone
You mind if I sit down for a while, would you babe
You'll reacquaint yourself with my style
[Rhy. Fig 3b]

[Solo 3 over]
[Rhy. Fig 5] (3x)
[Rhy. Fig 8] (3x)
[Rhy. Fig 9a and Rhy. Fig 9b]

Track 10 - Black Diamond

Rhythm Fig. 1a (12-string acoustic, let ring)

Eb|-----------5--7--5------------------5--7--5------------------|
Bb|--------5-----------5------------5-----------5---------------|
Gb|-----5-----------------5------5-----------------5------------|
Db|--7------------------------7---------------------------------|
Ab|-------------------------------------------------------------|
Eb|-------------------------------------------------------------|

Eb|-----------1--3--1------------------1--------3---------------|
Bb|--------1-----------1------------1--------------3------------|
Gb|-----2-----------------2------2-----------4------------------|
Db|--3------------------------3-----------5---------------------|
Ab|-------------------------------------------------------------|
Eb|-------------------------------------------------------------|


Eb|-----------5--7--5------------------5--7--5------------------|
Bb|--------5-----------5------------5-----------5---------------|
Gb|-----5-----------------5------5-----------------5------------|
Db|--7------------------------7---------------------------------|
Ab|-------------------------------------------------------------|
Eb|-------------------------------------------------------------|


Eb|-----------1--3--1----------5--------------------------------|
Bb|--------1-----------1-------5--------------------------------|
Gb|-----2-----------------2----5--------------------------------|
Db|--3-------------------------7--------------------------------|
Ab|----------------------------0--------------------------------|
Eb|-------------------------------------------------------------|

Rhythm Fig. 1b (12-string acoustic, let ring)

Eb|-------------8--10--8--------------------8--10--8------------|
Bb|---------10------------10------------10----------------------|
Gb|------9--------------------9------9----------------9---------|
Db|-------------------------------------------------------------|
Ab|--12*-------------------------12*---------------------12*----|
Eb|-------------------------------------------------------------|


Eb|--------------8--10--8-----------------8--------------10-----|
Bb|----------10------------10----------------10------12------12-|
Gb|------10--------------------10-----10---------12-------------|
Db|-------------------------------------------------------------|
Ab|--12*--------------------------12*---------------------------|
Eb|-------------------------------------------------------------|


Eb|-------------8--10--8---------------------8--10--8-----------|
Bb|---------10------------10-------------10------------10-------|
Gb|------9--------------------9-------9--------------------9----|
Db|-------------------------------------------------------------|
Ab|--12*--------------------------12*---------------------------|
Eb|-------------------------------------------------------------|


Eb|--------------8--10--8-----------8---------------------------|
Bb|----------10------------10-------10--------------------------|
Gb|------10--------------------10---9---------------------------|
Db|-------------------------------------------------------------|
Ab|--12*--------------------------------------------------------|
Eb|-------------------------------------------------------------|

Rhythm Fig. 2a

Eb|-------------------------------------------------------------|
Bb|-------------------------------------------------------------|
Gb|--2--------2-------------------------------------------------|
Db|--2-----------2----------------------------------------------|
Ab|--0--------------0-----------0----3--2--0--------------------|
Eb|-----------------------0--3----------------3-----------------|

Eb|--1----------------------------------------------------------|
Bb|--1-------------------12--13--12--13--12--13-----------------|
Gb|--2-------------------12--12--12--12--12--12--0--------------|
Db|--3-------------------12--14--12--14--12--14--0--------------|
Ab|--3----------------------------------------------------------|
Eb|--1----------------------------------------------------------|

Rhythm Fig. 2b

Eb|-------------------------------------------------------------|
Bb|-------------------------------------------------------------|
Gb|-----------2-------------------------------------------------|
Db|--------------2----------------------------------------------|
Ab|--0--------------0-----------0----3--2--0--------------------|
Eb|-----------------------0--3----------------3-----------------|

Eb|-------------------------------------------------------------|
Bb|-----------------------12--13--12--13--12--13--12------------|
Gb|-----------------------12--12--12--12--12--12--12------------|
Db|--3----------------------------------------------------------|
Ab|--3----------------------------------------------------------|
Eb|--1----------------------------------------------------------|


Rhythm Fig. 3a

Eb|-------------------------------------------------------------|
Bb|-------------------------------------------------------------|
Gb|--2----------------------------------------------------------|
Db|--2----------------------------------------------------------|
Ab|--0-------------------------3--2--0--------------------------|
Eb|-------------------------------------3-----------------------|

Eb|--1----------------------------------------------------------|
Bb|--1--------------------12--13--12--13--12--13----------------|
Gb|--2--------------------12--12--12--12--12--12--0-------------|
Db|--3--------------------12--14--12--14--12--14--0-------------|
Ab|--3----------------------------------------------------------|
Eb|--1----------------------------------------------------------|

Rhythm Fig. 3b

Eb|-------------------------------------------------------------|
Bb|-------------------------------------------------------------|
Gb|-------------------------------------------------------------|
Db|-------------------------------------------------------------|
Ab|--0-------------------------3--2--0--------------------------|
Eb|-------------------------------------3-----------------------|

Eb|-------------------------------------------------------------|
Bb|-----------------------12--13--12--13--12--13--12------------|
Gb|-----------------------12--12--12--12--12--12--12------------|
Db|--3----------------------------------------------------------|
Ab|--3----------------------------------------------------------|
Eb|--1----------------------------------------------------------|

Rhythm Fig. 4a

Eb|-------------------------------------------------------------|
Bb|-------------------------------------------------------------|
Gb|--2----------------------------------------------------------|
Db|--2----------------------------------------------------------|
Ab|--0-----------------------0----3--2--0-----------------------|
Eb|--------------------0--3----------------3--------------------|

Eb|--1----------------------------------------------------------|
Bb|--1--------------------12--13--12--13--12--13----------------|
Gb|--2--------------------12--12--12--12--12--12--0-------------|
Db|--3--------------------12--14--12--14--12--14--0-------------|
Ab|--3----------------------------------------------------------|
Eb|--1----------------------------------------------------------|


Rhythm Fig. 4b

Eb|-------------------------------------------------------------|
Bb|-------------------------------------------------------------|
Gb|-------------------------------------------------------------|
Db|-------------------------------------------------------------|
Ab|--0-----------------------0----3--2--0-----------------------|
Eb|--------------------0--3----------------3--------------------|

Eb|-------------------------------------------------------------|
Bb|-----------------------12--13--12--13--12--13--12------------|
Gb|-----------------------12--12--12--12--12--12--12------------|
Db|--3----------------------------------------------------------|
Ab|--3----------------------------------------------------------|
Eb|--1----------------------------------------------------------|


Rhythm Fig. 5a

Eb|-------------------------------------------------------------|
Bb|-------------------------------------------------------------|
Gb|--2----------------------------------------------------------|
Db|--2----------------------------------------------------------|
Ab|--0-------------------------3--2--0--------------------------|
Eb|-------------------------------------3-----------------------|

Eb|--1----------------------------------------------------------|
Bb|--1----------------------------------------------------------|
Gb|--2----------------------5----2------------------------------|
Db|--3----------------------5----2------------------------------|
Ab|--3------------------5/7------0------------------------------|
Eb|--1----------------------------------------------------------|

Rhythm Fig. 5b

Eb|-------------------------------------------------------------|
Bb|-------------------------------------------------------------|
Gb|-------------------------------------------------------------|
Db|-------------------------------------------------------------|
Ab|--0-------------------------3--2--0--------------------------|
Eb|-------------------------------------3-----------------------|

Eb|-------------------------------------------------------------|
Bb|-------------------------------------------------------------|
Gb|---------------------5---5----2------------------------------|
Db|--3------------------5h7-5----2------------------------------|
Ab|--3---------------------------0------------------------------|
Eb|--1----------------------------------------------------------|

Rhythm Fig. 6a

Eb|-------------------------------------------------------------|
Bb|-------------------------------------------------------------|
Gb|--2----------------------------------------------------------|
Db|--2----------------------------------------------------------|
Ab|--0------------------------0----3--2--0----------------------|
Eb|---------------------0--3----------------3-------------------|

Eb|--1----------------------------------------------------------|
Bb|--1----------------------------------------------------------|
Gb|--2----------------------5----2------------------------------|
Db|--3----------------------5----2------------------------------|
Ab|--3------------------5/7------0------------------------------|
Eb|--1----------------------------------------------------------|

Rhythm Fig. 6b

Eb|-------------------------------------------------------------|
Bb|-------------------------------------------------------------|
Gb|-------------------------------------------------------------|
Db|-------------------------------------------------------------|
Ab|--0------------------------0----3--2--0----------------------|
Eb|---------------------0--3----------------3-------------------|

Eb|-------------------------------------------------------------|
Bb|-------------------------------------------------------------|
Gb|---------------------5---5----2------------------------------|
Db|--3------------------5h7-5----2------------------------------|
Ab|--3---------------------------0------------------------------|
Eb|--1----------------------------------------------------------|

Rhythm Fig. 7a

Eb|-------------------------------------------------------------|
Bb|-------------------------------------------------------------|
Gb|--2----------------------------------------------------------|
Db|--2----------------------------------------------------------|
Ab|--0-----3--2--0------------0----3--2--0----------------------|
Eb|---------------------0--3----------------3-------------------|

Eb|--1----------------------------------------------------------|
Bb|--1----------------------------------------------------------|
Gb|--2----------------------5----2------------------------------|
Db|--3----------------------5----2------------------------------|
Ab|--3------------------5/7------0------------------------------|
Eb|--1----------------------------------------------------------|


Rhythm Fig. 7b

Eb|-------------------------------------------------------------|
Bb|-------------------------------------------------------------|
Gb|-------------------------------------------------------------|
Db|-------------------------------------------------------------|
Ab|--0-----3--2--0------------0----3--2--0----------------------|
Eb|---------------------0--3----------------3-------------------|

Eb|-------------------------------------------------------------|
Bb|-------------------------------------------------------------|
Gb|-------------------------5----2------------------------------|
Db|--3----------------------5----2------------------------------|
Ab|--3------------------5/7------0------------------------------|
Eb|--1----------------------------------------------------------|


Rhythm Fig. 8a

Eb|-------------------------------------------------------------|
Bb|-------------------------------------------------------------|
Gb|-------------------------------------------------------------|
Db|--3--3--3----3--3----3--5--5--5----5--5----------------------|
Ab|--3--3--3----3--3----3--5--5--5----5--5----------------------|
Eb|--1--1--1----1--1----1--3--3--3----3--3----0-----------------|

Eb|-------------------------------------------------------------|
Bb|-------------------------------------------------------------|
Gb|--------5----7----5------------------------------------------|
Db|--7--7--5----7----5-----5--5--5-----7-----5------------------|
Ab|--7--7--3----5----3-----5--5--5-----7-----5------------------|
Eb|--5--5---------------0--3--3--3--0--5--0--3--0---------------|

Eb|-------------------------------------------------------------|
Bb|-------------------------------------------------------------|
Gb|-------------------------------------------------------------|
Db|--3--3--3----3--3----3--5--5--5----5--5----------------------|
Ab|--3--3--3----3--3----3--5--5--5----5--5----------------------|
Eb|--1--1--1----1--1----1--3--3--3----3--3----------------------|


Rhythm Fig. 8b

Eb|-------------------------------------------------------------|
Bb|-------------------------------------------------------------|
Gb|----10----10----10--10-------12----12----12--12--------------|
Db|----10----10----10--10-------12----12----12--12--------------|
Ab|----8-----8-----8---8--------10----10----10--10--------------|
Eb|-------------------------------------------------------------|

Eb|-------------------------------------------------------------|
Bb|-------------------------------------------------------------|
Gb|--9--9--12----14----12-----12--12--12-----14-----12----------|
Db|--7--7--10----12----10-----12--12--12-----14-----12----------|
Ab|---------------------------10--10--10-----12-----10----------|
Eb|------------------------0--------------0------0------0-------|


End 1

Eb|-------------------------------------------------------------|
Bb|-------------------------------------------------------------|
Gb|--10------------------12----12----7h9p7----------------------|
Db|--10------------------12----12----------10--9----------------|
Ab|--8-------------------10----10-------------------------------|
Eb|-------------------------------------------------------------|


End 2

Eb|-------------------------------------------------------------|
Bb|-------------------------------------------------------------|
Gb|--10--------------12-12-12-12--------------------------------|
Db|--10--------------12-12-12-12--------------------------------|
Ab|--8---------------10-10-10-10--------------------------------|
Eb|-------------------------------------------------------------|

Rhythm Fig. 9a

Eb|-------------------------------------------------------------|
Bb|-10----10--10----10--10----10--10----10--13-10---------------|
Gb|-12b-------12b-------12b-------12b-------------12--9h12p9----|
Db|----------------------------------------------------------12-|
Ab|-------------------------------------------------------------|
Eb|-------------------------------------------------------------|

Eb|-------------------------------------------------------------|
Bb|-----------------------------12--13--12--13--12--------------|
Gb|-----------------------------12--12--12--12--12--------------|
Db|--10~------------------------12--14--12--14--12--------------|
Ab|-------------------------------------------------------------|
Eb|-------------------------------------------------------------|


Eb|-------------------------------------------------------------|
Bb|--10---10---10---10---10---10---10---10---10---10------------|
Gb|--12b--12b--12b--12b--12b--12b--12b--12b--12b--12b-r12-9-----|
Db|---------------------------------------------------------12--|
Ab|-------------------------------------------------------------|
Eb|-------------------------------------------------------------|

Eb|-------------------------------------------------------------|
Bb|-----------------------------12--13--12--13--12--13----------|
Gb|-----------------------------12--12--12--12--12--12--0-------|
Db|--10~------------------------12--14--12--14--12--14--0-------|
Ab|-------------------------------------------------------------|
Eb|-------------------------------------------------------------|


Rhythm Fig. 9b

Eb|-------------------------------------------------------------|
Bb|-13----13--13----13--13---13--13----13-17p13-13--10h13p10----|
Gb|-15b-------15b-------15b------15b-------------------------12-|
Db|-------------------------------------------------------------|
Ab|-------------------------------------------------------------|
Eb|-------------------------------------------------------------|


Eb|-------------------------------------------------------------|
Bb|-----------------------------12--13--12--13--12--------------|
Gb|--10~------------------------12--12--12--12--12--------------|
Db|-----------------------------12--14--12--14--12--------------|
Ab|-------------------------------------------------------------|
Eb|-------------------------------------------------------------|


Eb|-------------------------------------------------------------|
Bb|--13---13---13---13---13---13---13---13---13---13---12-------|
Gb|--15b--15b--15b--15b--15b--15b--15b--15b--15b------------12--|
Db|-------------------------------------------------------------|
Ab|-------------------------------------------------------------|
Eb|-------------------------------------------------------------|


Eb|-------------------------------------------------------------|
Bb|-----------------------------12--13--12--13--12--13p-12------|
Gb|--10~------------------------12--12--12--12--12--12----------|
Db|-----------------------------12--14--12--14--12--------------|
Ab|-------------------------------------------------------------|
Eb|-------------------------------------------------------------|

Rhythm Fig. 10a

Eb|-------------------------------------------------------------|
Bb|-------------------------------------------------------------|
Gb|-------------------------------------------------------------|
Db|--3--3--3----3--3----3--5--5--5----5--5----------------------|
Ab|--3--3--3----3--3----3--5--5--5----5--5----------------------|
Eb|--1--1--1----1--1----1--3--3--3----3--3----0-----------------|

Eb|-------------------------------------------------------------|
Bb|-------------------------------------------------------------|
Gb|--------5----7----5------------------------------------------|
Db|--7--7--5----7----5-----5--5--5-----7-----5------------------|
Ab|--7--7--3----5----3-----5--5--5-----7-----5------------------|
Eb|--5--5---------------0--3--3--3--0--5--0--3--0---------------|

Eb|-------------------------------------------------------------|
Bb|-------------------------------------------------------------|
Gb|-------------------------------------------------------------|
Db|--3--3--3----3--3----3--5------------------------------------|
Ab|--3--3--3----3--3----3--5------------------------------------|
Eb|--1--1--1----1--1----1--3------------------------------------|


Eb|-------------------------------------------------------------|
Bb|-------------------------------------------------------------|
Gb|--------5----7----5------5---5-----2-------------------------|
Db|--7--7--5----7----5------5h7-5-----2-------------------------|
Ab|--7--7--3----5----3-------------7--0-------------------------|
Eb|--5--5-------------------------------------------------------|

Rhythm Fig. 10b

Eb|-------------------------------------------------------------|
Bb|-------------------------------------------------------------|
Gb|----10----10----10--10-------12----12----12--12--------------|
Db|----10----10----10--10-------12----12----12--12--------------|
Ab|----8-----8-----8---8--------10----10----10--10--------------|
Eb|-------------------------------------------------------------|

Eb|-------------------------------------------------------------|
Bb|-------------------------------------------------------------|
Gb|--------5----7----5------------------------------------------|
Db|--7--7--5----7----5-----5--5--5-----7-----5------------------|
Ab|--7--7--3----5----3-----5--5--5-----7-----5------------------|
Eb|--5--5---------------0--3--3--3--0--5--0--3--0---------------|


Eb|-------------------------------------------------------------|
Bb|-------------------------------------------------------------|
Gb|-------------------------------------------------------------|
Db|--3--3--3----3--3----3--5------------------------------------|
Ab|--3--3--3----3--3----3--5------------------------------------|
Eb|--1--1--1----1--1----1--3------------------------------------|

Eb|-------------------------------------------------------------|
Bb|-------------------------------------------------------------|
Gb|--------5----7----5-----5---5-----2--------------------------|
Db|--7--7--5----7----5-----5h7-5-----2--------------------------|
Ab|--7--7--3----5----3------------7--0--------------------------|
Eb|--5--5-------------------------------------------------------|


Rhythm Fig. 11 (Let ring)

Eb|-------------------------------------------------------------|
Bb|---------1----------1------------1----------1----------------|
Gb|-------2---2------2---2--------2---2------2---2--------------|
Db|-----2----------2------------3----------3--------------------|
Ab|--0----------0-----------------------------------------------|
Eb|--------------------------1----------1-----------------------|
    < - - - - 2x - - - - - >< - - - - 2x - - - - - >


Rhythm Fig. 12

Eb|-------------------------------------------------------------|
Bb|-------------------------------------------------------------|
Gb|---------------12--12----------------------------------------|
Db|---------12----12--12h14p12---12~----------------------------|
Ab|---------12h14---------------(12~)---------------------------|
Eb|--0----------------------------------------------------------|
   < - - - - - 2x - - - - - - > 2nd guitar plays note in parenthesis.


Rhythm Fig. 13

Eb|-------------------------------------------------------------|
Bb|-------------------------------------------------------------|
Gb|--2-------------------2--------------------------------------|
Db|--2-------------------2--------------------------------------|
Ab|--0-------------------0--------------------------------------|
Eb|-------------------------------------------------------------|


Solo 1

Eb|-------------------------------------------------------------|
Bb|--8------------8-----8---------------------------------------|
Gb|------7---5------7-5---7-5--7-5h7p5---5-7-5-7b---------------|
Db|------------------------------------7------------------------|
Ab|-------------------------------------------------------------|
Eb|-------------------------------------------------------------|
    < - 4x - >   < - 4x - - >

Eb|-------------------------------------------------------------|
Bb|-------------------------------------------------------------|
Gb|--7b-r7p5---7b-r7p5---7b----5h7p5---5------------------------|
Db|----------7---------7-------------7---------7-5--------------|
Ab|------------------------------------------------7-6-5-3------|
Eb|-------------------------------------------------------------|

Solo 2

Eb|--5-----------5----------------------------------------------|
Bb|--8b~---------8b~------8b--8--5------------------------------|
Gb|---------------------------------7--5-----5--7b----r7p5------|
Db|---------------------------------------7-----------------7---|
Ab|-------------------------------------------------------------|
Eb|-------------------------------------------------------------|
    Very wide vibrato

Eb|-------------------------------------------------------------|
Bb|----------------------------8------10------12------13--------|
Gb|--7--5----------------------10b----12b-----14b-----15b-------|
Db|--------7-5-7-7-7~-------------------------------------------|
Ab|-------------------------------------------------------------|
Eb|-------------------------------------------------------------|
                                             < - - 4x - - >

Eb|---------17--------17----------------------------------------|
Bb|------17--------17----20b--20b~-----20b--20b~------20b-r20---|
Gb|--19b-------19b----------------------------------------------|
Db|-------------------------------------------------------------|
Ab|-------------------------------------------------------------|
Eb|-------------------------------------------------------------|


Eb|---------------------------20b---20b---20b---20b-20b-20b-20b-|
Bb|--17h20p17----17h20p17---------------------------------------|
Gb|-----------19----------19------------------------------------|
Db|-------------------------------------------------------------|
Ab|-------------------------------------------------------------|
Eb|-------------------------------------------------------------|


Eb|--20b-20b-20b------20b-r20-17-----------------17------17-----|
Bb|------------------------------20-17h20p17-----20b------------|
Gb|------------------------------------------19-----------------|
Db|-------------------------------------------------------------|
Ab|-------------------------------------------------------------|
Eb|-------------------------------------------------------------|
                                                 < - - 3x - - >

Eb|-------------------------------------------------------------|
Bb|--20b-r20-17-------------------------------------------------|
Gb|--------------19b-r19-17\------------------------------------|
Db|-------------------------------------------------------------|
Ab|-------------------------------------------------------------|
Eb|-------------------------------------------------------------|

BLACK DIAMOND
Paul Stanley

[Rhy. Fig 1a w/ Rhy. Fig 1b]
Out on the street for a living
Picture's only begun
Got you under their thumb
Hit it

[Rhy. Fig 2a w/ Rhy. Fig 2b] (2x)

[Rhy. Fig 3a w/ Rhy Fig 3b]
Out on the streets for a living
Picture's only begun
[Rhy. Fig 5a w/ Rhy. Fig 5b]
Your day is sorrow and madness
Got you under their thumb

[Rhy. Fig 8a w/ Rhy. Fig 8b w/ End 1]
Whoo, black diamond
Whoo, black diamond

[Rhy. Fig 2a w/ Rhy. Fig 2b]

[Rhy. Fig 4a w/ Rhy. Fig 4b]
Darkness will fall on the city
It seems to follow you too
[Rhy. Fig 6a w/ Rhy. Fig 6b]
And though you don't ask for pity
There's nothin' that you can do, no, no

[Rhy. Fig 8a w/ Rhy. Fig 8b w/ End 2]
Whoo, black diamond
Whoo, black diamond

[Rhy. Fig 9a w/ Rhy. Fig 9b]

[Solo 1 over Rhy. Fig 2a w/ Rhy. Fig 2b (2x)]

[Rhy. Fig 3a w/ Rhy. Fig 3b]
Out on the streets for a living
Picture's only begun
[Rhy. Fig 7a w/ Rhy. Fig 7b]
Your day is sorrow and madness
Got you under their thumb

[Rhy. Fig 10a w/ Rhy. Fig 10b]
Whoo, black diamond, yeah
Whoo, black diamond

[Solo 2 over Rhy. Fig 11 (3x)]
[Rhy. Fig 12]

[Rhy. Fig 13] (repeat and slow down tape)
comments
print report bad tab
5 comments total. Showing first comments.
0 reply
black diamond7 wrote on November 12 2007, 05:00 pm

this is pretty good dude, but for the black diamond intro he uses a normal guitar and fire house it should be like
this:
e-------------
b-------------
g-------------
d-2-2---------
a-0-0---------
e-----3-0-3-0-

0 reply
Page/Rhoads wrote on November 27 2007, 05:30 pm

You coppied the whole friggin thing from Kissasylum.com. If your gonna steal tabs, at least give the other people the
credit!!!

0 reply
metalcore16 wrote on June 4 2009, 02:13 pm

i agree with page/rhoads, if your going to steal give credit, he worked hard on those tabs.

I want to post or [tab]
guest
You may want to rate the tab now too:
select rating
Please do not post tabs as comments. Select "correction" instead!