Oops, an error
Loading. Please wait.

My Way Tab

by Kiss
1,466 views 1 this week
no commentswrite comment
1 2 3 4 5
please rate
Autoscroll
+/-
esc
set tempo
stop
Contributor
Difficulty
advanced
Hey! There's an official Ultimate Guitar app which is ideal
for learning songs when you're away from computer. Get the app
WARNING: You are trying to view
                                    content from Ultimate-Guitar.com
                                    in an unauthorized application,
                                    which is prohibited.

                                    Please use an official Ultimate
                                    Guitar Tabs application for iPhone,
                                    iPad or Android to access legitimate
                                    chords, guitar, bass, and drum tabs
                                    from Ultimate-Guitar.com database.

                                    Type "ultimate guitar tabs" in Apple
                                    App Store's or Android Market's
                                    search to find the application.
                              Kiss - My Way
                           Album : Crazy Nights
                      Written by Stanley/Child/Turgon
                          Tabbed by Ignacio Arcos              

Rhythm Fig. 1

E|-------------------------------------------------------------------|
B|--------------------------------------------4p-3---4p-3------------|
G|--3----5--------8----10-------10\---3------------3------3----------|
D|--3----5--------8----10-------10\---3------------------------------|
A|--1----3--------6----8--------8\----1------------------------------|
E|-------------------------------------------------------------------|
                                              Let ring - - >




Rhythm Fig. 2

E|-------------------------------------------------------------------|
B|-------------------------------------------------------------------|
G|--3----5-------8----10------12\---10-------------------------------|
D|--3----5-------8----10------12\---10-----10-10-10-10-10------------|
A|--1----3-------6----8-------10\---8------8--8--8--8--8-------------|
E|-------------------------------------------------------------------|
                                           < - - 2x - - >


Rhythm Fig. 3

E|-------------------------------------------------------------------|
B|--------------------------------------------11p-10----11p-10-------|
G|--3----5--------8----10-------12----10-------------10--------10----|
D|--3----5--------8----10-------12----10-----------------------------|
A|--1----3--------6----8--------10----8------------------------------|
E|-------------------------------------------------------------------|
                                              Let ring - - - - - >


Rhythm Fig. 4

E|-------------------------------------------------------------------|
B|-------------------------------------------------------------------|
G|--3----5-------8----10---------------------------------------------|
D|--3----5-------8----10------10-10-10-10-10-10-10-10-10-10----------|
A|--1----3-------6----8-------8--8--8--8--8--8--8--8--8--8-----------|
E|-------------------------------------------------------------------|
                              P.M. - - - - - - - - - - - - >


Rhythm Fig. 5

E|-------------------------------------------------------------------|
B|-------------------------------------------------------------------|
G|--3------5----------8\---------------------------------------------|
D|--3------5----------8\---------------------------------------------|
A|--1------3----------6\---------------------------------------------|
E|-------------------------------------------------------------------|


Rhythm Fig. 6 (P.M. on single notes)

E|------------------------------------------------------------------|
B|------------------------------------------------------------------|
G|--12--12------12----------12----------12----------12------12------|
D|--12--12------12----------12----------12----------12------12------|
A|--10--10--10--10--10--10--10--10--10--10--10--10--10--10--10--10--|
E|------------------------------------------------------------------|



E|-------------------------------------------------------------------|
B|-------------------------------------------------------------------|
G|--12\-10-----10--------10--------10--------10-----10---------------|
D|--12\-10-----10--------10--------10--------10-----10---------------|
A|--10\-8---8--8---8--8--8---8--8--8---8--8--8---8--8---8------------|
E|-------------------------------------------------------------------|


E|------------------------------------------------------------------|
B|------------------------------------------------------------------|
G|--10/-12------12----------12----------12----------12------12------|
D|--10/-12------12----------12----------12----------12------12------|
A|--8/--10--10--10--10--10--10--10--10--10--10--10--10--10--10--10--|
E|------------------------------------------------------------------|



E|-------------------------------------------------------------------|
B|-------------------------------------------------------------------|
G|--12\-10-----10--------10--------10--------10-----10---------------|
D|--12\-10-----10--------10--------10--------10-----10---------------|
A|--10\-8---8--8---8--8--8---8--8--8---8--8--8---8--8---8------------|
E|-------------------------------------------------------------------|


Rhythm Fig. 7 (P.M. on single notes)

E|-------------------------------------------------------------------|
B|-------------------------------------------------------------------|
G|--8--8-----8--------8--------8--------8-----8----------------------|
D|--8--8-----8--------8--------8--------8-----8----------------------|
A|--6--6--6--6--6--6--6--6--6--6--6--6--6--6--6--6-------------------|
E|-------------------------------------------------------------------|



E|-------------------------------------------------------------------|
B|-------------------------------------------------------------------|
G|--12--10-----10--------10--------10--------10-----10---------------|
D|--12--10-----10--------10--------10--------10-----10---------------|
A|--10--8---8--8---8--8--8---8--8--8---8--8--8---8--8---8------------|
E|-------------------------------------------------------------------|


Rhythm Fig. 8


E|-------------------------------------------------------------------|
B|--4-----3----------------------------------------------------------|
G|--3-----3----------5--5--5--5--5--5--5----7--7--7--7--7--7--7------|
D|--3-----3----------5--5--5--5--5--5--5----7--7--7--7--7--7--7------|
A|--1-----1----------3--3--3--3--3--3--3----5--5--5--5--5--5--5------|
E|-------------------------------------------------------------------|
   < - 2x ->


Rhythm Fig. 9

E|-------------------------------------------------------------------|
B|--4------3-----------1------1--------------------------------------|
G|--3------3-----------3------2--------------------------------------|
D|--3------3-----------3------3--------------------------------------|
A|--1------1---------------------------------------------------------|
E|-------------------------------------------------------------------|
   < - 2x - >         < - 2x - >



Rhythm Fig. 10 (P.M. on single notes)

E|-------------------------------------------------------------------|
B|-------------------------------------------------------------------|
G|--14--14------14----------14----------14----------14------14-------|
D|--14--14------14----------14----------14----------14------14-------|
A|--12--12--12--12--12--12--12--12--12--12--12--12--12--12--12--12---|
E|-------------------------------------------------------------------|



E|-------------------------------------------------------------------|
B|-------------------------------------------------------------------|
G|--14\-12------12----------12----------12----------12------12-------|
D|--14\-12------12----------12----------12----------12------12-------|
A|--12\-10--10--10--10--10--10--10--10--10--10--10--10--10--10--10---|
E|-------------------------------------------------------------------|



E|-------------------------------------------------------------------|
B|-------------------------------------------------------------------|
G|--12/-14------14----------14----------14----------14------14-------|
D|--12/-14------14----------14----------14----------14------14-------|
A|--10/-12--12--12--12--12--12--12--12--12--12--12--12--12--12--12---|
E|-------------------------------------------------------------------|



E|-------------------------------------------------------------------|
B|-------------------------------------------------------------------|
G|--14\-12------12----------12----------12----------12\-10--10\-8----|
D|--14\-12------12----------12----------12----------12\-10--10\-8----|
A|--12\-10--10--10--10--10--10--10--10--10--10--10--10\-8---8\--6----|
E|-------------------------------------------------------------------|



Rhythm Fig. 11

E|-------------------------------------------------------------------|
B|-------------------------------------------------------------------|
G|--3------5----------8------10--------------------------------------|
D|--3------5----------8------10--------------------------------------|
A|--1------3----------6------8---------------------------------------|
E|-------------------------------------------------------------------|



Riff 1

E|-------------------------------------------------------------------|
B|-------------------------------------------------------------------|
G|-------------------------------------------------------------------|
D|-------------------------------------------------------------------|
A|-------------------------------------------------------------------|
E|--/16\-------------------------------------------------------------|




Riff 2

E|-------------------------------------------------------------------|
B|-------------------------------------------------------------------|
G|--2/-3-------------------------------------------------------------|
D|-------------------------------------------------------------------|
A|-------------------------------------------------------------------|
E|-------------------------------------------------------------------|
  <- 2x ->



Riff 3

E|-------------------------------------------------------------------|
B|--13----12---------------------------------------------------------|
G|--------------12-----10-----10h-12-10h-12--------------------------|
D|-------------------------12----------------------------------------|
A|-------------------------------------------------------------------|
E|-------------------------------------------------------------------|
                       Let ring - - - - - >


Solo

E|-------------------------------------------------------------------|
B|------------------------------------------------------3~------8b---|
G|--/5--3--5/--10---------------3~---------5**~--5p3h5---------------|
D|--------------------------3h5--------3h5---------------------------|
A|--/3--1--3/--8-----------------------------------------------------|
E|-------------------------------------------------------------------|



E|-------------------------------------------------------------------|
B|--8b----r8~-----------11----13b-r13-p11-13~-----\-/----------------|
G|------------------/12----12----------------------------------------|
D|-------------------------------------------------------------------|
A|-------------------------------------------------------------------|
E|-------------------------------------------------------------------|



E|--17----19----20----20b-r20~---17--19--20--19-17h9p17--------------|
B|-----17----17----17-----------------------------------20p17--------|
G|------------------------------------------------------------20-19--|
D|-------------------------------------------------------------------|
A|-------------------------------------------------------------------|
E|-------------------------------------------------------------------|



E|-------------------------------------------------------------------|
B|-----------17----------------17-20p17----------------17------------|
G|--17h19h20----20-19-17h19h20----------20-19-17h19h20----20p19p17---|
D|-------------------------------------------------------------------|
A|-------------------------------------------------------------------|
E|-------------------------------------------------------------------|



E|-------------------------------------------------------------------|
B|---------------------------------12h13h15p13p12----12h13p12\10h12--|
G|-----19----17-----------------------------------14-----------------|
D|--19----19----19p17------------------------------------------------|
A|--------------------19p-17~----------------------------------------|
E|-------------------------------------------------------------------|



E|-------------------------------------5-8p5h8p5h8p5h8p5h8p5h8p5h8p5-|
B|--------------------------------5----------------------------------|
G|--12~---------------5---5-7-5-7---7--------------------------------|
D|--------------7-5-7---7--------------------------------------------|
A|-------------------------------------------------------------------|
E|-------------------------------------------------------------------|
                P.M. - - - - - - - >


E|--t10-5h8-t10-5h8--t12-5h8-t12-5h8--/13b---r13-----15b-r15~--------|
B|-------------------------------------------------------------------|
G|-------------------------------------------------------------------|
D|-------------------------------------------------------------------|
A|-------------------------------------------------------------------|
E|-------------------------------------------------------------------|
  < - - - 2x - - - > < - - 2x - - >


E|--------17-20p17h19p17----17-20p17h19p17-----17--19--20--22--23~---|
B|--17h20----------------17----------------17------------------------|
G|-------------------------------------------------------------------|
D|-------------------------------------------------------------------|
A|-------------------------------------------------------------------|
E|-------------------------------------------------------------------|
comments
We did not receive enough feedback on this tab! Please rate:
print report bad tab
1 2 3 4 5
I want to post or [tab]
guest
You may want to rate the tab now too:
select rating
Please do not post tabs as comments. Select "correction" instead!