Oops, an error
Loading. Please wait.

Strutter Tab

by Kiss
ver3
ver3

Whole song

More versions @911Tabs.com
88,755 views 177 this week
32 commentsread comments
1 2 3 4 5
accurate
x 37
Autoscroll
+/-
esc
set tempo
stop
Contributor
Difficulty
advanced
WARNING: You are trying to view
                                    content from Ultimate-Guitar.com
                                    in an unauthorized application,
                                    which is prohibited.

                                    Please use an official Ultimate
                                    Guitar Tabs application for iPhone,
                                    iPad or Android to access legitimate
                                    chords, guitar, bass, and drum tabs
                                    from Ultimate-Guitar.com database.

                                    Type "ultimate guitar tabs" in Apple
                                    App Store's or Android Market's
                                    search to find the application.
#----------------------------------PLEASE NOTE---------------------------------#
#This file is the author's own work and represents their interpretation of the #
#song. You may only use this file for private study, scholarship, or research. #
#------------------------------------------------------------------------------##

                                    STRUTTER
                               As recorded by Kiss
                           (From the 1974 Album KISS)

Gtr I (D# G# C# F# A# D#) - 'Gtr 1'
Gtr II (D# G# C# F# A# D#) - 'Gtr 2'
Gtr III (D# G# C# F# A# D#) - 'Gtr 3'

                  Intro
  Q=136
            B                    G                              D
 4/4
  Gtr I
  H    Q  E S S    Q   E E E E E  E       +E   E  E  E  E  E  E  S  S
|---------------||---------------------|------------------------------|
|---------------||---------------------|------------------------------|
|---------------||---------------------|------------------------------|
|-----------4-4-||-4---6-4-6-4-x-12----|-(12)-12-14-12-12-12-12--7--7-|
|-----------2-2-||-2---2-2-2-2---10----|-(10)-10-10-10-10-10-10--5--5-|
|---------------||---------------------|------------------------------|
|
| Gtr II
| H    Q  E S S    H.          E  S  S     H.                 E  S  S
|-----------7-7-||-7-------------------|------------------------10-10-|
|-----------7-7-||-7-------------12-12-|--12--------------------10-10-|
|-----------8-8-||-8-------------12-12-|--12--------------------11-11-|
|-----------9-9-||-9-------------12-12-|--12--------------------12-12-|
|-----------9-9-||-9-------------10-10-|--10--------------------12-12-|
|-----------7-7-||-7-------------------|------------------------10-10-|


                   A                     B                   G
   E  E E E E E E  E     +E  E E E E E E S S   Q   E E E E E  E
|----------------------|---------------------|----------------------|
|----------------------|---------------------|----------------------|
|----------------------|---------------------|----------------------|
|--7--7-9-7-9-7----2---|-(2)-2-4-2-4-4-x-4-4-|-4---6-4-6-4-x-12-----|
|--5--5-5-5-5-5-5\-0---|-(0)-0-0-0-0-0---2-2-|-2---2-2-2-2---10-----|
|----------------------|---------------------|----------------------|
|
|  H.           E  S S    Q    E E E E E S S   H.          E  S  S
|-10---------------5-5-|--5------5---5---7-7-|-7--------------------|
|-10---------------5-5-|--5------5---5---7-7-|-7-------------12-12--|
|-11---------------6-6-|--6------6---6---8-8-|-8-------------12-12--|
|-12---------------7-7-|--7------7---7---9-9-|-9-------------12-12--|
|-12---------------7-7-|--7------7---7---9-9-|-9-------------10-10--|
|-10---------------5-5-|--5------5---5---7-7-|-7--------------------|


                         D                                           B
   +E   E  E  E  E  E  E  S  S    E E E E E E E E   E  E E E  E E  E S S
|------------------------------|------------------|------------------7-7-||
|------------------------------|------------------|------------------7-7-||
|------------------------------|------------------|------------------8-8-||
|-(12)-12-14-12-12-12-12--7--7-|--7-7-9-7-7-7-9-7-|----7-9-7--7-7--x-9-9-||
|-(10)-10-10-10-10-10-10--5--5-|--5-5-5-5-5-5-5-5-|----5-5-5--5-5----9-9-||
|------------------------------|------------------|------------------7-7-||
|
|   H.                 E  S  S    W                 E  e Q    q    q
|------------------------10-10-|-10---------------|---10-----10---10-----||
|--12--------------------10-10-|-10---------------|---10-----10---10-----||
|--12--------------------11-11-|-11---------------|---11-----11---11-----||
|--12--------------------12-12-|-12---------------|---12-----12---12-----||
|--10--------------------12-12-|-12---------------|---12-----12---12-----||
|------------------------10-10-|-10---------------|---10-----10---10-----||


 Verse
  B                  G5            D5                  D
  H    +E  S S E E   E E E E E E E E   +E  E E E E E E E
|-7----(7)-7-7-7---|-----------------|-------------------|
|-7----(7)-7-7-7---|-----------------|-----------------7-|
|-8----(8)-8-8-8---|-----------------|-----------7-7---7-|
|-9----(9)-9-9-9---|---------------7-|-(7)-7-9-7-7-7---7-|
|-9----(9)-9-9-9---|-5-5-7-5-5-5-x-5-|-(5)-5-5-5-5-5-----|
|-7----(7)-7-7-7-0-|-3-3-3-3-3-3-----|-------------------|
|
| W                  W                  W
|-7----------------|-----------------|-------------------|
|-7----------------|-----------------|-------------------|
|-8----------------|-----------------|-------------------|
|-9----------------|-----------------|-------------------|
|-9----------------|-----------------|-------------------|
|-7----------------|-----------------|-------------------|


  G           D          B                  G5            D5
  E  E E E  E E  E S S   H    +E  S S E E   E E E E E E E E
|------------------7-7-|-7----(7)-7-7-7---|-----------------|
|-8--8-8-8--8-7----7-7-|-7----(7)-7-7-7---|-----------------|
|-7--7-7-7--7-7----8-8-|-8----(8)-8-8-8---|-----------------|
|-9--9-9-9--9-7----9-9-|-9----(9)-9-9-9---|---------------7-|
|------------------9-9-|-9----(9)-9-9-9---|-5-5-7-5-5-5-x-5-|
|------------------7-7-|-7----(7)-7-7-7-0-|-3-3-3-3-3-3-----|
|
| E  e Q    q    q       W                  W
|---10-----10---10-----|-7----------------|-----------------|
|---10-----10---10-----|-7----------------|-----------------|
|---11-----11---11-----|-8----------------|-----------------|
|---12-----12---12-----|-9----------------|-----------------|
|---12-----12---12-----|-9----------------|-----------------|
|---10-----10---10-----|-7----------------|-----------------|


                  A5      A                 B
  +E  E E E E E E E   +E  E E E E E E S S   H    +E  S S E E
|-------------------|-----------------7-7-|-7----(7)-7-7-7---|
|-------------------|-----------------7-7-|-7----(7)-7-7-7---|
|-----------7-7-----|-----------------8-8-|-8----(8)-8-8-8---|
|-(7)-7-9-7-7-7---2-|-(2)-2-4-2-4-2---9-9-|-9----(9)-9-9-9---|
|-(5)-5-5-5-5-5-x-0-|-(0)-0-0-0-0-0-x-9-9-|-9----(9)-9-9-9---|
|-------------------|-----------------7-7-|-7----(7)-7-7-7-0-|
|
|  W                   E  E Q   q   q       W
|-------------------|-----5-----5---5-----|-7----------------|
|-------------------|-----5-----5---5-----|-7----------------|
|-------------------|-----6-----6---6-----|-8----------------|
|-------------------|-----7-----7---7-----|-9----------------|
|-------------------|-----7-----7---7-----|-9----------------|
|-------------------|-----5-----5---5-----|-7----------------|


  G5            D5                  D               G      D    B
  E E E E E E E E   +E  E E E E E E E   S   +S  +E  E E  E E  E S S
|-----------------|-------------------|-------------------------7-7-|
|-----------------|-----------------7-|-------------8-8--8-7----7-7-|
|-----------------|-----------7-7---7-|-7b8r(7)-(7)-7-7--7-7----8-8-|
|---------------7-|-(7)-7-9-7-7-7---7-|-7b8r(7)-(7)-9-9--9-7----9-9-|
|-5-5-7-5-5-5-x-5-|-(5)-5-5-5-5-5-----|-------------------------9-9-|
|-3-3-3-3-3-3-----|-------------------|-------------------------7-7-|
|
| W                  W                  E        E  Q    q    q
|-----------------|-------------------|---------10------10---10-----|
|-----------------|-------------------|---------10------10---10-----|
|-----------------|-------------------|---------11------11---11-----|
|-----------------|-------------------|---------12------12---12-----|
|-----------------|-------------------|---------12------12---12-----|
|-----------------|-------------------|---------10------10---10-----|


  B                  G5            D5                  A5
  H    +E  S S E E   E E E E E E E E   +E  E E E E E E E
|-7----(7)-7-7-7---|-----------------|-------------------|
|-7----(7)-7-7-7---|-----------------|-------------------|
|-8----(8)-8-8-8---|-----------------|-----------7-7-----|
|-9----(9)-9-9-9---|---------------7-|-(7)-7-9-7-7-7---2-|
|-9----(9)-9-9-9---|-5-5-7-5-5-5-x-5-|-(5)-5-5-5-5-5-x-0-|
|-7----(7)-7-7-7-0-|-3-3-3-3-3-3-----|-------------------|
|
| W                  W                  W
|-7----------------|-----------------|-------------------|
|-7----------------|-----------------|-------------------|
|-8----------------|-----------------|-------------------|
|-9----------------|-----------------|-------------------|
|-9----------------|-----------------|-------------------|
|-7----------------|-----------------|-------------------|


                     Chorus
      A               Bm              G
  +E  E E E E E Q     Q  E E E E Q    E E E E E E Q
|------------------||---------------|----------------|
|------------------||---------------|----------------|
|------------------||-4-------------|----------------|
|-(2)-2-4-2-4-2-4--||-4----4-4-4----|-5-5---5-5-5----|
|-(0)-0-0-0-0-0-0--||-2----2-2-2----|-5-5---5-5-5----|
|------------------||---------------|-3-3---3-3-3----|
|
|  E  E Q   E E Q     Q  E E E E Q    E E E E E E Q
|-----5-----5-5-5--||-2----2-2-2----|-3-3---3-3-3----|
|-----5-----5-5-5--||-3----3-3-3----|-3-3---3-3-3----|
|-----6-----6-6-6--||-4----4-4-4----|-4-4---4-4-4----|
|-----7-----7-7-7--||-4----4-4-4----|-5-5---5-5-5----|
|-----7-----7-7-7--||-2----2-2-2----|-5-5---5-5-5----|
|-----5-----5-5-5--||---------------|-3-3---3-3-3----|


                                   Interlude
  Bm              G                   B5
  Q  E E E E Q    E E E E E E Q     E E E E +Q.   E
|---------------|----------------||-----------------|
|---------------|----------------||-----------------|
|-4-------------|----------------||-----------------|
|-4----4-4-4----|-5-5---5-5-5----||---4---4-(4)-----|
|-2----2-2-2----|-5-5---5-5-5----||-0-2---2-(2)---0-|
|---------------|-3-3---3-3-3----||-----------------|
|
| Q  E E E E Q    E E E E E E Q     E E E E +Q.   E
|-2----2-2-2----|-3-3---3-3-3----||-----------------|
|-3----3-3-3----|-3-3---3-3-3----||-----------------|
|-4----4-4-4----|-4-4---4-4-4----||-----------------|
|-4----4-4-4----|-5-5---5-5-5----||-----------------|
|-2----2-2-2----|-5-5---5-5-5----||-0-2---2-(2)---0-|
|---------------|-3-3---3-3-3----||-----------------|


                      E5             D5E5/B N.C.
  E E E E E E E E   E E E E +H       E E Q  E E Q
|-----------------|----------------|---------------|
|-----------------|----------------|---------------|
|-----------------|---4---4-(4)----|-7-------------|
|-4-4-----4-4-----|-0-2---2-(2)----|-7-9-----------|
|-2-2---0-2-2---2-|----------------|-5-7----0------|
|-----------------|----------------|---7------2----|
|
| E E E E E E E E   E E E E +H       E E Q  E E Q
|-----------------|----------------|---------------|
|-----------------|----------------|---------------|
|-----------------|----------------|---------------|
|-----------------|-0-2---2-(2)----|-0-------------|
|-2-2---0-2-2---2-|----------------|---2----0------|
|-----------------|----------------|----------2----|


    B5                                  E5             D5E5/B N.C.
  E E E E +Q.   E   E E E E E E E E   E E E E +H       E E Q  E E Q
|-----------------|-----------------|----------------|----------------|
|-----------------|-----------------|----------------|----------------|
|-----------------|-----------------|---4---4-(4)----|-7--------------|
|---4---4-(4)-----|-4-4-----4-4-----|-0-2---2-(2)----|-7-9------------|
|-0-2---2-(2)---0-|-2-2---0-2-2---2-|----------------|-5-7----0-------|
|-----------------|-----------------|----------------|---7------2-----|
|
| E E E E +Q.   E   E E E E E E E E   E E E E +H       E E Q  E E Q
|-----------------|-----------------|----------------|----------------|
|-----------------|-----------------|----------------|----------------|
|-----------------|-----------------|----------------|----------------|
|-----------------|-----------------|-0-2---2-(2)----|-0--------------|
|-0-2---2-(2)---0-|-2-2---0-2-2---2-|----------------|---2----0-------|
|-----------------|-----------------|----------------|----------2-----|


    B5                                  E5
  E E E E +Q.   E   E E E E E E E E   E E E E +H
|-----------------|-----------------|----------------|
|-----------------|-----------------|----------------|
|-----------------|-----------------|---4---4-(4)----|
|---4---4-(4)-----|-4-4-----4-4-----|-0-2---2-(2)----|
|-0-2---2-(2)---0-|-2-2---0-2-2---2-|----------------|
|-----------------|-----------------|----------------|
|
| E E E E +Q.   E   E E E E E E E E   E E E E +H
|-----------------|-----------------|----------------|
|-----------------|-----------------|----------------|
|-----------------|-----------------|----------------|
|-----------------|-----------------|-0-2---2-(2)----|
|-0-2---2-(2)---0-|-2-2---0-2-2---2-|----------------|
|-----------------|-----------------|----------------|


                     Verse
    G5/D D5A5  B      B                  G5            D5                  D
  E E Q  E E E S S    H    +E  S S E E   E E E E E E E E   +E  E E E E E E E
|--------------7-7-||-7----(7)-7-7-7---|-----------------|--------------------|
|---3----3-----7-7-||-7----(7)-7-7-7---|-----------------|-----------------7--|
|---0----2-2---8-8-||-8----(8)-8-8-8---|-----------------|-----------7-7---7--|
|---0----0-2---9-9-||-9----(9)-9-9-9---|---------------7-|-(7)-7-9-7-7-7---7--|
|----------0---9-9-||-9----(9)-9-9-9---|-5-5-7-5-5-5-x-5-|-(5)-5-5-5-5-5------|
|-3------------7-7-||-7----(7)-7-7-7-0-|-3-3-3-3-3-3-----|--------------------|
|
| E E Q  E E E S S    W                  W                  W
|--------------7-7-||-7----------------|-----------------|--------------------|
|---3----3-----7-7-||-7----------------|-----------------|--------------------|
|---0----2-2---8-8-||-8----------------|-----------------|--------------------|
|---0----0-2---9-9-||-9----------------|-----------------|--------------------|
|----------0---9-9-||-9----------------|-----------------|--------------------|
|-3------------7-7-||-7----------------|-----------------|--------------------|


  G           D    B                        G5            D5
  E  E E E  E E  E S S   H    +E  S S E E   E E E E E E E E
|------------------7-7-|-7----(7)-7-7-7---|-----------------|
|-8--8-8-8--8-7----7-7-|-7----(7)-7-7-7---|-----------------|
|-7--7-7-7--7-7----8-8-|-8----(8)-8-8-8---|-----------------|
|-9--9-9-9--9-7----9-9-|-9----(9)-9-9-9---|---------------7-|
|------------------9-9-|-9----(9)-9-9-9---|-5-5-7-5-5-5-x-5-|
|------------------7-7-|-7----(7)-7-7-7-0-|-3-3-3-3-3-3-----|
|
| E  e Q    q    q       W                  W
|---10-----10---10-----|-7----------------|-----------------|
|---10-----10---10-----|-7----------------|-----------------|
|---11-----11---11-----|-8----------------|-----------------|
|---12-----12---12-----|-9----------------|-----------------|
|---12-----12---12-----|-9----------------|-----------------|
|---10-----10---10-----|-7----------------|-----------------|


                  A5      A                 B
  +E  E E E E E E E   +E  E E E E E E S S   H    +E  S S E E
|-------------------|-----------------7-7-|-7----(7)-7-7-7---|
|-------------------|-----------------7-7-|-7----(7)-7-7-7---|
|-----------7-7-----|-----------------8-8-|-8----(8)-8-8-8---|
|-(7)-7-9-7-7-7---2-|-(2)-2-4-2-4-2---9-9-|-9----(9)-9-9-9---|
|-(5)-5-5-5-5-5-x-0-|-(0)-0-0-0-0-0-x-9-9-|-9----(9)-9-9-9---|
|-------------------|-----------------7-7-|-7----(7)-7-7-7-0-|
|
|  W                   E  E Q   q   q       W
|-------------------|-----5-----5---5-----|-7----------------|
|-------------------|-----5-----5---5-----|-7----------------|
|-------------------|-----6-----6---6-----|-8----------------|
|-------------------|-----7-----7---7-----|-9----------------|
|-------------------|-----7-----7---7-----|-9----------------|
|-------------------|-----5-----5---5-----|-7----------------|


  G5            D5                  D   G           D B
  E E E E E E E E   +E  E E E E E E E   E  E E E  E E  E S S
|-----------------|-------------------|------------------7-7-|
|-----------------|-----------------7-|-8--8-8-8--8-7----7-7-|
|-----------------|-----------7-7---7-|-7--7-7-7--7-7----8-8-|
|---------------7-|-(7)-7-9-7-7-7---7-|-9--9-9-9--9-7----9-9-|
|-5-5-7-5-5-5-x-5-|-(5)-5-5-5-5-5-----|------------------9-9-|
|-3-3-3-3-3-3-----|-------------------|------------------7-7-|
|
| W                  W                  E  E Q    q    q
|-----------------|-------------------|---10-----10---10-----|
|-----------------|-------------------|---10-----10---10-----|
|-----------------|-------------------|---11-----11---11-----|
|-----------------|-------------------|---12-----12---12-----|
|-----------------|-------------------|---12-----12---12-----|
|-----------------|-------------------|---10-----10---10-----|


  B                  G5            D5                  A5
  H    +E  S S E E   E E E E E E E E   +E  E E E E E E E
|-7----(7)-7-7-7---|-----------------|-------------------|
|-7----(7)-7-7-7---|-----------------|-------------------|
|-8----(8)-8-8-8---|-----------------|-----------7-7-----|
|-9----(9)-9-9-9---|---------------7-|-(7)-7-9-7-7-7---2-|
|-9----(9)-9-9-9---|-5-5-7-5-5-5-x-5-|-(5)-5-5-5-5-5-x-0-|
|-7----(7)-7-7-7-0-|-3-3-3-3-3-3-----|-------------------|
|
| W                  W                  W
|-7----------------|-----------------|-------------------|
|-7----------------|-----------------|-------------------|
|-8----------------|-----------------|-------------------|
|-9----------------|-----------------|-------------------|
|-9----------------|-----------------|-------------------|
|-7----------------|-----------------|-------------------|


                     Chorus
                      Bm              G                Bm
  +E  E E E E E Q     Q  E E E E Q    E E E E E E Q    Q  E E E E Q
|------------------||---------------|----------------|----------------|
|------------------||---------------|----------------|----------------|
|------------------||-4-------------|----------------|-4--------------|
|-(2)-2-4-2-4-2-4--||-4----4-4-4----|-5-5---5-5-5----|-4----4-4-4-----|
|-(0)-0-0-0-0-0-0--||-2----2-2-2----|-5-5---5-5-5----|-2----2-2-2-----|
|------------------||---------------|-3-3---3-3-3----|----------------|
|
|  E  E Q   E E Q     Q  E E E E Q    E E E E E E Q    Q  E E E E Q
|-----5-----5-5-5--||-2----2-2-2----|-3-3---3-3-3----|-2----2-2-2-----|
|-----5-----5-5-5--||-3----3-3-3----|-3-3---3-3-3----|-3----3-3-3-----|
|-----6-----6-6-6--||-4----4-4-4----|-4-4---4-4-4----|-4----4-4-4-----|
|-----7-----7-7-7--||-4----4-4-4----|-5-5---5-5-5----|-4----4-4-4-----|
|-----7-----7-7-7--||-2----2-2-2----|-5-5---5-5-5----|-2----2-2-2-----|
|-----5-----5-5-5--||---------------|-3-3---3-3-3----|----------------|


                   Guitar Solo
  G                      B5
  E E E E E E Q     Q      Q       Q     Q
|----------------||-----------------------------|
|----------------||-----------------------------|
|----------------||-9b11---9b11----9b11--9b11---|
|-5-5---5-5-5----||-----------------------------|
|-5-5---5-5-5----||-----------------------------|
|-3-3---3-3-3----||-----------------------------|
|
| E E E E E E Q     E    E E    E +Q.         E
|-3-3---3-3-3----||-----------------------------|
|-3-3---3-3-3----||-----------------------------|
|-4-4---4-4-4----||-----------------------------|
|-5-5---5-5-5----||------4------4-(4)-----------|
|-5-5---5-5-5----||-0----2------2-(2)---------0-|
|-3-3---3-3-3----||-----------------------------|


  Q      Q      E    E    E    E
|-----------------------------------|
|-----------------------------------|
|-9b11---9b11---9b11-9b11-9b11-9b11-|
|-----------------------------------|
|-----------------------------------|
|-----------------------------------|
|
| E    E E    E E    E    E    E
|-----------------------------------|
|-----------------------------------|
|-----------------------------------|
|-4----4--------4----4---------4----|
|-2----2------0-2----2---------2----|
|-----------------------------------|


       E5                             N.C.
  E    E    E    E    +S   S  E E E    S S  S S  S S  S S  S S  S S  S S  S S
|-----------------------------------|-----------------------------------------|
|-----------------------------------|-10p7h10p7h10p7h10p7h10p7h10p7h10p7h10p7-|
|-9b11-9b11-9b11-9b11r(9)p-7p---7---|-----------------------------------------|
|-----------------------------9-----|-----------------------------------------|
|-----------------------------------|-----------------------------------------|
|-----------------------------------|-----------------------------------------|
|
| E    E    E    E    +H               E    E    Q         E    E    Q
|-----------------------------------|-----------------------------------------|
|-----------------------------------|-----------------------------------------|
|------4---------4----(4)-----------|-----------------------------------------|
|-0----2---------2----(2)-----------|--0--------------------------------------|
|-----------------------------------|-------2--------------0------------------|
|-----------------------------------|---------------------------2-------------|


        B5
   E.      S      +S   S      +S   S     +S   S      +S   S      +S   S      +S   S
|---------------------------------------------------------------------------------------|
|-10b12r==10b12==(10)r10b12==(10)r10b12-(10)r10b12==(10)r10b12==(10)r10b12==(10)r10b12==|
|---------------------------------------------------------------------------------------|
|---------------------------------------------------------------------------------------|
|---------------------------------------------------------------------------------------|
|---------------------------------------------------------------------------------------|
|
|  E    E          E           E         +Q.                                  E
|---------------------------------------------------------------------------------------|
|---------------------------------------------------------------------------------------|
|---------------------------------------------------------------------------------------|
|-------4----------------------4---------(4)--------------------------------------------|
|--0----2----------------------2---------(2)----------------------------------0---------|
|---------------------------------------------------------------------------------------|


   +S   S      +S   S      +S   S      +S   S      +S   S      +S   S      +S   S      +S   S
|--------------------------------------------------------------------------------------------------|
|-(10)r10b12==(10)r10b12==(10)r10b12==(10)r10b12==(10)r10b12==(10)r10b12==(10)r10b12==(10)r10b12===|
|--------------------------------------------------------------------------------------------------|
|--------------------------------------------------------------------------------------------------|
|--------------------------------------------------------------------------------------------------|
|--------------------------------------------------------------------------------------------------|
|
|   E           E           E           E           E           E           E           E
|--------------------------------------------------------------------------------------------------|
|--------------------------------------------------------------------------------------------------|
|--------------------------------------------------------------------------------------------------|
|---4-----------4-----------------------------------4-----------4-----------------------4----------|
|---2-----------2-----------------------0-----------2-----------2-----------------------2----------|
|--------------------------------------------------------------------------------------------------|


              E5                              N.C.
   +S   S      +S   S  Q       E   Q      E    E     E E  E  S S S S E E
|-------------------------------------------|----------------------------|
|-(10)r10b12==(10)r10-10b12r==10--10b12r=10-|-10b12r10-7-10-10-7s5-7-5-7-|
|-------------------------------------------|----------------------------|
|-------------------------------------------|----------------------------|
|-------------------------------------------|----------------------------|
|-------------------------------------------|----------------------------|
|
|   E           E      E    E +H               E     E Q     E   E   Q
|-------------------------------------------|----------------------------|
|-------------------------------------------|----------------------------|
|---------------4-----------4-(4)-----------|----------------------------|
|---0-----------2-----------2-(2)-----------|--0-------------------------|
|-------------------------------------------|--------2-------0-----------|
|-------------------------------------------|--------------------2-------|


     B5
   E  E  S  S  S  S  Q      Q         Q       Q       E     E     E     E
|----------------------------------|-------------------------------------------|
|----19-22s19----19-22b24--22b24---|-22b24---22b24---22b24-22b24-22b24-22pb24r=|
|-21----------21-------------------|-------------------------------------------|
|----------------------------------|-------------------------------------------|
|----------------------------------|-------------------------------------------|
|----------------------------------|-------------------------------------------|
|
|  E  E  E     E    +Q.          E    E    E  E    E  E     E     E     E
|----------------------------------|-------------------------------------------|
|----------------------------------|-------------------------------------------|
|----------------------------------|-------------------------------------------|
|-----4--------4----(4)------------|--4----4----------4-----4-----------4------|
|--0--2--------2----(2)----------0-|--2----2-------0--2-----2-----------2------|
|----------------------------------|-------------------------------------------|


        E5                                          G5/D        D5 A5     B
                  |--3--|
   S  S  S  S  e  S  S  S  S   S  E  E  E       +E   E  E  E     E  E  Q
|--------------------------------------22b24-|-(22)r22-19---------------------||
|-22-19----19-22-19-22-19-----19-22-19-------|------------22b24r22-19---------||
|-------21----------------21-----------------|------------------------21\-----||
|--------------------------------------------|--------------------------------||
|--------------------------------------------|--------------------------------||
|--------------------------------------------|--------------------------------||
|
|  E     E     E  E       +H                     E   E  Q        E  E  E  S S
|--------------------------------------------|----------------------------7-7-||
|--------------------------------------------|-------3-----------3--------7-7-||
|--------4--------4-------(4)----------------|-------0-----------2--2-----8-8-||
|--0-----2--------2-------(2)----------------|-------0-----------0--2-----9-9-||
|--------------------------------------------|----------------------0-----9-9-||
|--------------------------------------------|---3------------------------7-7-||


 Verse
  B                  G5            D5
  H    +E  S S E E   E E E E E E E E   +E  E E E E E E E
|-7----(7)-7-7-7---|-----------------|-------------------|
|-7----(7)-7-7-7---|-----------------|-----------------7-|
|-8----(8)-8-8-8---|-----------------|-----------7-7---7-|
|-9----(9)-9-9-9---|---------------7-|-(7)-7-9-7-7-7---7-|
|-9----(9)-9-9-9---|-5-5-7-5-5-5-x-5-|-(5)-5-5-5-5-5-----|
|-7----(7)-7-7-7-0-|-3-3-3-3-3-3-----|-------------------|
|
| W                  W                  W
|-7----------------|-----------------|-------------------|
|-7----------------|-----------------|-------------------|
|-8----------------|-----------------|-------------------|
|-9----------------|-----------------|-------------------|
|-9----------------|-----------------|-------------------|
|-7----------------|-----------------|-------------------|
|
| Gtr III
| W                  H       Q   E E   +E  E E E E E E E
|------------------|-----------------|-------------------|
|------------------|-----------------|-------------------|
|------------------|-----------------|-----------7-7---7-|
|------------------|---------------7-|-(7)-7-9-7-7-7---7-|
|------------------|---------------5-|-(5)-5-5-5-5-5---5-|
|------------------|-----------------|-------------------|


  G             D          B                  G5            D5
   E   E E E  E E  E S S   H    +E  S S E E   E E E E E E E E
|--------------------7-7-|-7----(7)-7-7-7---|-----------------|
|--8---8-8-8--8-7----7-7-|-7----(7)-7-7-7---|-----------------|
|--7---7-7-7--7-7----8-8-|-8----(8)-8-8-8---|-----------------|
|--9---9-9-9--9-7----9-9-|-9----(9)-9-9-9---|---------------7-|
|--------------------9-9-|-9----(9)-9-9-9---|-5-5-7-5-5-5-x-5-|
|--------------------7-7-|-7----(7)-7-7-7-0-|-3-3-3-3-3-3-----|
|
|  E   e Q    q    q       W                  W
|-----10-----10---10-----|-7----------------|-----------------|
|-----10-----10---10-----|-7----------------|-----------------|
|-----11-----11---11-----|-8----------------|-----------------|
|-----12-----12---12-----|-9----------------|-----------------|
|-----12-----12---12-----|-9----------------|-----------------|
|-----10-----10---10-----|-7----------------|-----------------|
|
| +E   E E E  E E  E S S   W                  W
|--------------------7-7-|------------------|-----------------|
|--------------------7-7-|------------------|-----------------|
|-(7)--7------7-7----8-8-|------------------|-----------------|
|-(7)--7-9-7--7-7----9-9-|------------------|-----------------|
|-(5)--5-5-5--5-5----9-9-|------------------|-----------------|
|--------------------7-7-|------------------|-----------------|


                  A5      A                 B
  +E  E E E E E E E   +E  E E E E E E S S   H    +E  S S E E
|-------------------|-----------------7-7-|-7----(7)-7-7-7---|
|-------------------|-----------------7-7-|-7----(7)-7-7-7---|
|-----------7-7-----|-----------------8-8-|-8----(8)-8-8-8---|
|-(7)-7-9-7-7-7---2-|-(2)-2-4-2-4-2---9-9-|-9----(9)-9-9-9---|
|-(5)-5-5-5-5-5-x-0-|-(0)-0-0-0-0-0-x-9-9-|-9----(9)-9-9-9---|
|-------------------|-----------------7-7-|-7----(7)-7-7-7-0-|
|
|  W                   E  E Q   q   q       W
|-------------------|-----5-----5---5-----|-7----------------|
|-------------------|-----5-----5---5-----|-7----------------|
|-------------------|-----6-----6---6-----|-8----------------|
|-------------------|-----7-----7---7-----|-9----------------|
|-------------------|-----7-----7---7-----|-9----------------|
|-------------------|-----5-----5---5-----|-7----------------|


  G5            D5                  D   G                 D  B
  E E E E E E E E   +E  E E E E E E E    E E    E    E  E  E  E S S
|-----------------|-------------------|-------------------------7-7--|
|-----------------|-----------------7-|--8-8----8----8--8--7----7-7--|
|-----------------|-----------7-7---7-|--7-7----7----7--7--7----8-8--|
|---------------7-|-(7)-7-9-7-7-7---7-|--9-9----9----9--9--7----9-9--|
|-5-5-7-5-5-5-x-5-|-(5)-5-5-5-5-5-----|-------------------------9-9--|
|-3-3-3-3-3-3-----|-------------------|-------------------------7-7--|
|
|                                        |----3----|
| W                  W                   Q    Q    Q    E  E  E E
|-----------------|-------------------|-10---10---10---10-10-10------|
|-----------------|-------------------|-10---10---10---10-10-10-x----|
|-----------------|-------------------|-11---11---11---11-11-11------|
|-----------------|-------------------|-12---12---12---12-12-12------|
|-----------------|-------------------|-12---12---12---12-12-12------|
|-----------------|-------------------|-10---10---10---10-10-10------|


  B                  G5            D5                  A5
  H    +E  S S E E   E E E E E E E E   +E  E E E E E E E
|-7----(7)-7-7-7---|-----------------|-------------------|
|-7----(7)-7-7-7---|-----------------|-------------------|
|-8----(8)-8-8-8---|-----------------|-----------7-7-----|
|-9----(9)-9-9-9---|---------------7-|-(7)-7-9-7-7-7---2-|
|-9----(9)-9-9-9---|-5-5-7-5-5-5-x-5-|-(5)-5-5-5-5-5-x-0-|
|-7----(7)-7-7-7-0-|-3-3-3-3-3-3-----|-------------------|
|
| W                  W                  W
|-7----------------|-----------------|-------------------|
|-7----------------|-----------------|-------------------|
|-8----------------|-----------------|-------------------|
|-9----------------|-----------------|-------------------|
|-9----------------|-----------------|-------------------|
|-7----------------|-----------------|-------------------|


                            Chorus
      A                      Bm              G
  +E  E   E   E E E   Q      Q  E E E E Q    E E E E E E Q
|-------------------------||---------------|-----------------|
|-------------------------||---------------|-----------------|
|-------------------------||-4-------------|-----------------|
|-(2)-2---4---2-4-2---4---||-4----4-4-4----|-5-5---5-5-5-----|
|-(0)-0---0---0-0-0---0---||-2----2-2-2----|-5-5---5-5-5-----|
|-------------------------||---------------|-3-3---3-3-3-----|
|
|  |---3----|   |---3---|
|  Q    Q   Q   Q   Q   Q    Q  E E E E Q    E E E E E E Q
|--5----5---5---5---5---5-||-2----2-2-2----|-3-3---3-3-3-----|
|--5----5---5---5---5---5-||-3----3-3-3----|-3-3---3-3-3-----|
|--6----6---6---6---6---6-||-4----4-4-4----|-4-4---4-4-4-----|
|--7----7---7---7---7---7-||-4----4-4-4----|-5-5---5-5-5-----|
|--7----7---7---7---7---7-||-2----2-2-2----|-5-5---5-5-5-----|
|--5----5---5---5---5---5-||---------------|-3-3---3-3-3-----|


                                   Outro
  Bm              G                      B5
  Q  E E E E Q    E E E E E E Q     E    E E E     E  E E    E
|---------------|----------------||--------7----------7--------|
|---------------|----------------||------7-7-------7--7------7-|
|-4-------------|----------------||-9b11-----9b11-------9b11---|
|-4----4-4-4----|-5-5---5-5-5----||----------------------------|
|-2----2-2-2----|-5-5---5-5-5----||----------------------------|
|---------------|-3-3---3-3-3----||----------------------------|
|
| Q  E E E E Q    E E E E E E Q     E    E E E    +Q.        E
|-2----2-2-2----|-3-3---3-3-3----||----------------------------|
|-3----3-3-3----|-3-3---3-3-3----||----------------------------|
|-4----4-4-4----|-4-4---4-4-4----||----------------------------|
|-4----4-4-4----|-5-5---5-5-5----||------4---4----(4)----------|
|-2----2-2-2----|-5-5---5-5-5----||-0----2---2----(2)--------0-|
|---------------|-3-3---3-3-3----||----------------------------|


                               E5
  E E    E E E    E E E      E E  S S S S  E   S S  S S S S
|-7--------7--------7------|---7----------------------------|
|-7------7-7------7-7------|-7-7-10p7---7-10--10p7-10p7---7-|
|---9b11-----9b11-----9b11-|----------9-----------------9---|
|--------------------------|--------------------------------|
|--------------------------|--------------------------------|
|--------------------------|--------------------------------|
|
| E E    E E E    E E E      E E  E   E   +H
|--------------------------|--------------------------------|
|--------------------------|--------------------------------|
|--------------------------|---4------4---(4)---------------|
|-4-4--------4----4---4----|-0-2------2---(2)---------------|
|-2-2------0-2----2---2----|--------------------------------|
|--------------------------|--------------------------------|


  N.C.                                         B5
   S S S S S  S  E  S S  S S  S S  S S    E    E Q        Q   E E
|--------------------------------------|--------------------------|
|-10p7---7------10-10p7h10p7h10p7h10p7-|-10b12-7------------------|
|------9---9s11------------------------|---------7b7.5------------|
|--------------------------------------|------------------9---7-9-|
|--------------------------------------|--------------------------|
|--------------------------------------|--------------------------|
|
|  E   E   Q        E    E    Q           E    E E     E +Q.    E
|--------------------------------------|--------------------------|
|--------------------------------------|--------------------------|
|--------------------------------------|--------------------------|
|--0-----------------------------------|-------4-------4-(4)------|
|------2------------0------------------|--0----2-------2-(2)----0-|
|------------------------2-------------|--------------------------|


                          E5
                            |-3-|
  +E  E E E Q   a E E   E E S S S S S  S  S S S Q
|---------------------|----------------------------|
|---------------------|----------------7-----------|
|---------------------|-----7-9-7---7-----9p7---7--|
|-(9)-7---------------|-----------9-----------9----|
|-------9-7s5-------5-|-7-9------------------------|
|---------------5s7---|----------------------------|
|
|  E  E E E E E   E E   E E E     E   +H
|---------------------|----------------------------|
|---------------------|----------------------------|
|---------------------|---4-------4---(4)----------|
|--4--4-----4-4-----4-|-0-2-------2---(2)----------|
|--2--2---0-2-2-----2-|----------------------------|
|---------------------|----------------------------|


  N.C.
   S S  S S  E  E     +E   E     E     E
|-------------------------------------------|
|-10p7h10p7h10-12b15-(12)-12b15-12b15-12b15-|
|-------------------------------------------|
|-------------------------------------------|
|-------------------------------------------|
|-------------------------------------------|
|
|  E    E    Q         E   E     Q
|-------------------------------------------|
|-------------------------------------------|
|-------------------------------------------|
|--0----------------------------------------|
|-------2--------------0--------------------|
|--------------------------2----------------|


        B5
                                    |--3--|
   E     E     E     E     E     E  S  S  S  S  S
|-------------------------------------------------|
|-12b15-12b15-12b15-12b15-12b15r12-10h12p10----10-|
|-------------------------------------------11----|
|-------------------------------------------------|
|-------------------------------------------------|
|-------------------------------------------------|
|
|  E     E     E     E    +Q.                E
|-------------------------------------------------|
|-------------------------------------------------|
|-------------------------------------------------|
|--------4-----------4----(4)---------------------|
|--0-----2-----------2----(2)----------------0----|
|-------------------------------------------------|


   Q    S  S  S  S  S  S  S  S  S  S  S  S
|------10-11-12-10-11-12-10-11-12-10-11-12-|
|-12---------------------------------------|
|------------------------------------------|
|------------------------------------------|
|------------------------------------------|
|------------------------------------------|
|
|  E E  E     E     E     E     E     E
|------------------------------------------|
|------------------------------------------|
|------------------------------------------|
|--4-4--------------4-----4----------------|
|--2-2--------0-----2-----2-----------2----|
|------------------------------------------|


        E5
                        |--3---|
   S  S  S  S  E     E  S   S  S  E  E  E
|-10-11-12-10-12b14r12-10h=12p10----10-------|
|--------------------------------12----12b15-|
|--------------------------------------------|
|--------------------------------------------|
|--------------------------------------------|
|--------------------------------------------|
|
|  E     E     E     E +H
|--------------------------------------------|
|--------------------------------------------|
|--------4-----------4-(4)-------------------|
|--0-----2-----------2-(2)-------------------|
|--------------------------------------------|
|--------------------------------------------|


     G5/D     D5 A5     B
   E  E  E  E  E E S E.       a W          +Q   Q  H
|---------------------------|------------|--------------*|
|-12r12-10------------------|------------|--------------*|
|----------11-10-9-9p7------|------------|--------------*|
|---------------------------|-7s9--------|-(9)----------*|
|---------------------------|------------|--------------*|
|---------------------------|------------|--------------*|
|
|  E  E  Q     E E E    S S     W           Q   Q  H
|-----------------------7-7-|---7--------|--------------*|
|-----3--------3--------7-7-|---7--------|--------------*|
|-----0--------2-2------8-8-|---8--------|--8-----------*|
|-----0--------0-2------9-9-|---9--------|--9-----------*|
|----------------0------9-9-|---9--------|--9-----------*|
|--3--------------------7-7-|---7--------|--7-----------*|


Duration Legend
---------------
W - whole; H - half; Q - quarter; E - 8th; S - 16th; T - 32nd; X - 64th; a - acciaccatura
+ - note tied to previous; . - note dotted; .. - note double dotted
Uncapitalized letters represent notes that are staccato (1/2 duration)
Irregular groupings are notated above the duration line
Duration letters will always appear directly above the note/fret number it represents the
duration for.  Duration letters with no fret number below them represent rests.  Multi-
bar rests are notated in the form Wxn, where n is the number of bars to rest for.  Low
melody durations appear below the staff

Tablature Legend
----------------
 h   - hammer-on
 p   - pull-off
 b   - bend
 pb  - pre-bend
 r   - bend release (if no number after the r, then release immediately)
 /\  - slide into or out of (from/to "nowhere")
 s   - legato slide
 S   - shift slide
  - natural harmonic
[n]  - artificial harmonic
n(n) - tapped harmonic
 ~   - vibrato
 tr  - trill
 T   - tap
 TP  - trem. picking
 PM  - palm muting
\n/  - tremolo bar dip; n = amount to dip
 \n  - tremolo bar down
 n/  - tremolo bar up
/n\  - tremolo bar inverted dip
 =   - hold bend; also acts as connecting device for hammers/pulls
 <>  - volume swell (louder/softer)
 x   - on rhythm slash represents muted slash
 o   - on rhythm slash represents single note slash

Misc Legend
-----------
 |  - bar
||  - double bar
||o - repeat start
o|| - repeat end
*|  - double bar (ending)
 :  - bar (freetime)
 $  - Segno
 &  - Coda
Tempo markers -  = BPM(8/16=s8/s16), where s8 = swing 8ths, s16 = swing 16ths
comments
print report bad tab
32 comments total. Showing first comments.
+3 reply
Little Angus wrote on November 11 2006, 01:09 pm

This truly an awsome tab! I cannot belive how in depth this is! Great job this tab rocks! :)

-1 reply
13blackcats wrote on December 18 2006, 10:12 pm

Hey man sont mean to burst your bubble but the tuning is Eb Ab Db Gb Bb eb

+2 reply
Pedro007 wrote on February 18 2007, 05:37 pm

dont they only have two electrics?

I want to post or [tab]
guest
You may want to rate the tab now too:
select rating
Please do not post tabs as comments. Select "correction" instead!