Oops, an error
Loading. Please wait.

Strutter Tab

by Kiss
ver4
ver4

Whole song

More versions @911Tabs.com
6,846 views 6 this week
no commentswrite comment
1 2 3 4 5
worth learning
x 3
Autoscroll
+/-
esc
set tempo
stop
Contributor
WARNING: You are trying to view
                                    content from Ultimate-Guitar.com
                                    in an unauthorized application,
                                    which is prohibited.

                                    Please use an official Ultimate
                                    Guitar Tabs application for iPhone,
                                    iPad or Android to access legitimate
                                    chords, guitar, bass, and drum tabs
                                    from Ultimate-Guitar.com database.

                                    Type "ultimate guitar tabs" in Apple
                                    App Store's or Android Market's
                                    search to find the application.
|-----------------------------------------------|
|-----------------------------------------------|
|-----------------------------------------7-----|
|--4--4-----4-----6----4---6----4----0----5-----|
|--2--2-----2-----2----2---2----2----0----5-----|
|-----------------------------------------------|


|-------------------------------------|
|-------------------------------------|
|--7---9------7---7-------------------|
|--5---5--5---5---5---9---7--7--------|
|--5---5--5---5---5---5---5--5--------|
|-------------------------------------|

|------------------------------------------------------------------|
|------------------------------------------------------------------|
|------------------------------------------------------------------|
|--7--7--9--7--9--7-----2------2--4--2--4--2--2--4--4--------------|
|--5--5--5--5--5--5-----0------0--0--0--0--0--0--2--2--------------|
|--------------------0---------------------------------------------|

|------------------------------------------------------------------|
|------------------------------------------------------------------|
|------------------------------------------------------------------|
|--7--7--9--7--7--7--9--7-----7--9--7--7--7-----4--4---------------|
|--5--5--5--5--5--5--5--5-----5--5--5--5--5-----2--2---------------|
|--------------------------------------------0---------------------|

Verse      0:16

|------------------------------------------------------------------|
|---------------------------------------------7--------------------|
|---------------------------------------------7--------------------|
|--2--------2--2------------------------------7--------------------|
|--2--------2--2---------5--5--7--5--5--5-----------5--------------|
|-----------------0------3--3--3--3--3--3--0-----------------------|

|----7------7--7-\----------------------------------------------------------|
|----7------7--7-\--------------------------------------------------------2-|
|----8------8--8-\--------------------------------2-----2--4-----2--2-----2-|
|----9------9--9-\--------------------------------0-----0--0--0--0--0--4--2-|
|----------------------------5--5--7--5--5--5-----------------------------0-|
|-------------------0--0-----3--3--3--3--3--3--0----------------------------|

|----------------------------------------------------------------|
|--2--2------------------------2---------------------------------|
|--2--2-----2--2---------------2---------------------------------|
|--2--4--2--4--4-----4--4------2--2--4--2--2--2--4---------------|
|--0--0--0--------4--2--2------0--0--0--0--0--0--0--0------------|
|----------------------------------------------------------------|

Pre-Chorus    0:46

|--2-------------2------2---------3--------3----3----------------------|
|--3-------------3------3---------3--------3----3----------------------|
|--4-------------4------4---------4--------4----4----------------------|
|--4-------------4------4---------5--------5----5----------------------|
|--2-------------2------2---------5--------5----5----------------------|
|---------------------------------3--------3----3----------------------|


Chorus    0:53

|--------------------------------------------------------------------|
|--------------------------------------------------------------------|
|-----------------------------------------------------7--9-----------|
|--7--9---9-----7---9--9---7--9--9----9----7--9---9---7--9--7--------|
|--7--9---9-----7---9--9---7--9--9----9----7--9---9---------7--9-----|
|--------------------------------------------------------------9-----|


|--------------------------------------------|
|----------3---------------------------------|
|--0--5----2--2------------------------------|
|--0--5-------2---4--4-----------------------|
|-----------------2--2-----------------------|
|--------------------------------------------|


Solo 1     1:44

|--------------------------------------------------------------|
|--------------------------------------------------------------|
|--9-(11)---9-(11)---9-(11)---9-(11)---------------------------|
|--------------------------------------------------------------|
|--------------------------------------------------------------|
|--------------------------------------------------------------|


|----------------------------------------------------------|
|----------------------------------------------------------|
|--9-(11)--9-(11)----9-(11)-9-(11)-9-(11)-9-(11)-----------|
|----------------------------------------------------------|
|----------------------------------------------------------|
|----------------------------------------------------------|


|--------------------------------------------------------|
|--------------------------------------------------------|
|--9-(11)-9-(11)-9-(11)-9-(11)--(9)--7------7------------|
|---------------------------------------9----------------|
|--------------------------------------------------------|
|--------------------------------------------------------|


|---------------------------------------------------------------|
|--10-7-10-7-10-7-10-7-10-7-10-7-10-7-10-7----------------------|
|---------------------------------------------------------------|
|---------------------------------------------------------------|
|---------------------------------------------------------------|
|---------------------------------------------------------------|


|----------------------------------------------------------------------------|
|--10-(12)-10-(12)-(10)-(12)-(10)-(12)-(10)-(12)-(10)-10-(12)--(10)-(12)(10--|
|----------------------------------------------------------------------------|
|----------------------------------------------------------------------------|
|----------------------------------------------------------------------------|
|----------------------------------------------------------------------------|


|---------------------------------------------------------------------------|
|--(12)-(10)-(12)-(10)-10-(12)-(10)-(12)-(10)(12)(10)(12)10(12)(10)(12)(10)-|
|---------------------------------------------------------------------------|
|---------------------------------------------------------------------------|
|---------------------------------------------------------------------------|
|---------------------------------------------------------------------------|


|------------------------------------------------------------|
|--(12)-(10)-(12)-(10)-10-(12)---(10)-10-(12)---(10)---------|
|------------------------------------------------------------|
|------------------------------------------------------------|
|------------------------------------------------------------|
|------------------------------------------------------------|


|------------------------------------------------------|
|--10-(12)-(10)-7--10--7-10-7----7----7----------------|
|-----------------------------9----9-------------------|
|------------------------------------------------------|
|------------------------------------------------------|
|------------------------------------------------------|


|-------------------------------------------|
|-------19-22-19-----19--22-(24)--22-(24)---|
|--/21-----------21-------------------------|
|-------------------------------------------|
|-------------------------------------------|
|-------------------------------------------|


|-----------------------------------------------------------------|
|--22-(24)-22-(24)-22-(24) 22-(24)-22-(24)-22-(24)----------------|
|-----------------------------------------------------------------|
|-----------------------------------------------------------------|
|-----------------------------------------------------------------|
|-----------------------------------------------------------------|


|--------------------------------------22-(24)-----------|
|--(22)-19-22--19-22-19-----19-22--19--------------------|
|-----------------------21-------------------------------|
|--------------------------------------------------------|
|--------------------------------------------------------|
|--------------------------------------------------------|


|--[24]--(22)--19-----------------------------------------|
|------------------22-(24)-(22)--19-----------------------|
|------------------------------------21\------------------|
|---------------------------------------------------------|
|---------------------------------------------------------|
|---------------------------------------------------------|


solo 2          2:43


|-----------7------------7-------------7-------------7-------------7------7-|
|---------7-----------7------------7-------------7-------------7-------7----|
|--9(11)------9(11)-------9(11)--------9(11)--------9(11)--------9(11)------|
|---------------------------------------------------------------------------|
|---------------------------------------------------------------------------|
|---------------------------------------------------------------------------|

|-------------------------------------------------------------------|
|--10--7--10--7----7--10-7-10-7-----7-------------------------------|
|----------------9---------------9----------------------------------|
|-------------------------------------------------------------------|
|-------------------------------------------------------------------|
|-------------------------------------------------------------------|


|-----------------------------------------------------|
|--10-7-10-7---7-10--10-7-10-7-10-7-10-7--------------|
|------------9----------------------------------------|
|-----------------------------------------------------|
|-----------------------------------------------------|
|-----------------------------------------------------|


|--------------------------------------------------------------------------|
|-10(12)--(10)-------------------------------------------------------------|
|---------------7----9--7--------------------------------------------------|
|--------------------------9--7---9------7---------------------------------|
|-------------------------------------------9-8-7--5b----------------------|
|------------------------------------------------------7--5---7------------|


|----------------------------------------------------------------------------|
|-----------------------------------------------10-----10-12(15)12(15)12(15--|
|-------------7--9--7-----9-11--9-7---7b----/11------11----------------------|
|-------7-------------9-------------9----------------------------------------|
|--/9------9-----------------------------------------------------------------|
|----------------------------------------------------------------------------|


|---------------------------------------------------------|
|--12(15)-12(15)-12(15)-12(15)-12(15)-12(15)--------------|
|---------------------------------------------------------|
|---------------------------------------------------------|
|---------------------------------------------------------|
|---------------------------------------------------------|

|-------------------------------10-11--12-10-11--12--10--11--12-10--11--12--|
|---(12)-10--12--10-----10--12----------------------------------------------|
|-------------------11------------------------------------------------------|
|---------------------------------------------------------------------------|
|---------------------------------------------------------------------------|
|---------------------------------------------------------------------------|


|--10-12--10--12(14)-(12)-10--12-----10----------------------------|
|--------------------------------12------12(15)--------------------|
|------------------------------------------------------------------|
|------------------------------------------------------------------|
|------------------------------------------------------------------|
|------------------------------------------------------------------|


|-----------------------------------------------------------|
|--[15]-(12)--12--10----------------------------------------|
|---------------------11--9b--------------------------------|
|-----------------------------12b-------9-------------------|
|-----------------------------------------------------------|
|-----------------------------------------------------------|

Ending       3:05


|---------------------------------------|
|---------------------------------------|
|---------------------------------------|
|--4--------------------------------4---|
|--4--------------------------------4---|
|--2--------------------------------2---|
comments
We did not receive enough feedback on this tab! Please rate:
print report bad tab
1 2 3 4 5
I want to post or [tab]
guest
You may want to rate the tab now too:
select rating
Please do not post tabs as comments. Select "correction" instead!