Oops, an error
Loading. Please wait.

Sure Know Something Tab

by Kiss
ver2
ver2

Solo

Whole song

Interactive

More versions @911Tabs.com
11,971 views 36 this week
1 commentread comment
1 2 3 4 5
excellent!
x 5
Autoscroll
+/-
esc
set tempo
stop
Contributor
Hey! There's an official Ultimate Guitar app which is ideal
for learning songs when you're away from computer. Get the app
WARNING: You are trying to view
                                    content from Ultimate-Guitar.com
                                    in an unauthorized application,
                                    which is prohibited.

                                    Please use an official Ultimate
                                    Guitar Tabs application for iPhone,
                                    iPad or Android to access legitimate
                                    chords, guitar, bass, and drum tabs
                                    from Ultimate-Guitar.com database.

                                    Type "ultimate guitar tabs" in Apple
                                    App Store's or Android Market's
                                    search to find the application.
-------------------------------------------------------------------------------
                 Sure Know Something - Kiss
-------------------------------------------------------------------------------
Tabbed by:LFSilva

Tuning:Standart

Intro

E|----------------------------------------------------|
B|--5*------------------------------------------------|
G|--5*------------------------------------------------|
D|----------------------------------------------------|
A|----------------------------------------------------|
E|----------------------------------------------------|

E|----------------------------------------------------|
B|------8--------------------8------------------------|
G|-------------7------------------7-------------------|
D|----------------------9--------------9--------------|
A|----------------------------------------------------|
E|----------------------------------------------------|

Verse

E|----------------------------------------------------|
B|-------12------12----12-------12------12------------|
G|-------12------12----12-------12------12------------|
D|-------12------12----12-------12------12------------|
A|----------------------------------------------------|
E|--0-------------------------------------------------|
                                                    
E|----------------------------------------------------|
B|--10----10------10----10-------10------10----10\----|
G|--9-----9-------9-----9--------9-------9-----9------|
D|--10----10------10----10-------10------10----10\----|
A|----------------------------------------------------|
E|----------------------------------------------------|
                                                  
E|-------7------7-------------------------------------|
B|--7----7------7-----10----10------10----10----------|
G|-------7------7-----9-----9-------9-----9-----------|
D|--7-----------------10----10------10----10----------|
A|----------------------------------------------------|
E|----------------------------------------------------|
                                             
E|----------------------------------------------------|
B|-------8--------------------8-----------------------|
G|--------------7------------------7------------------|
D|-----------------------9--------------9-------------|
A|----------------------------------------------------|
E|--0-------------------------------------------------|


E|----------------------------------------------------|
B|-------12------12----12-------12------12------------|
G|-------12------12----12-------12------12------------|
D|-------12------12----12-------12------12------------|
A|----------------------------------------------------|
E|--0-------------------------------------------------|
                                                    
E|----------------------------------------------------|
B|--10----10------10----10-------10------10----10\----|
G|--9-----9-------9-----9--------9-------9-----9------|
D|--10----10------10----10-------10------10----10\----|
A|----------------------------------------------------|
E|----------------------------------------------------|
                                                 
E|-------7------7-------------------------------------|
B|--7----7------7----10-------10------10--10----------|
G|-------7------7----9--------9-------9---9-----------|
D|--7----------------10-------10------10--10----------|
A|----------------------------------------------------|
E|----------------------------------------------------|

E|--------------------------------7--7--7-------------|
B|--------------------------8--8--8--8--8-------------|
G|--------------9--9--9--9--9--9--9--9--9--5--5--7----|
D|--------------9--9--9--9--9--9--9--9--9--5--5--7----|
A|--------7--7--7--7--7--7--7--7--7--7--7--3--3--5----|
E|--0--0--0--0--0--0--0--0--0--0--0--0--0-------------|

Chorus

E|----------------------------------------------------|
B|----------------------------------------------------|
G|--7----7----7----7----7----7----7----7--------------|
D|--7----7----7----7----7----7----7----7--5-----------|
A|--5----5----5----5----5----5----5----5--3-----------|
E|----------------------------------------------------|
                                              

E|----------------------------------------------------|
B|----------------------------------------------------|
G|----0--------------------0----------------7---------|
D|--------------------5---------------------7---------|
A|-------2~---0-------3-------2~---0--------5---------|
E|---------------3--------------------3p-0------------|


E|----------------------------------------------------|
B|----------------------------------------------------|
G|--7----7----7----7----7----7----7----7--------------|
D|--7----7----7----7----7----7----7----7--5-----------|
A|--5----5----5----5----5----5----5----5--3-----------|
E|----------------------------------------------------|

                                               
E|----------------------------------------------------|
B|----------------------------------------------------|
G|----0--------------------0----------------7---------|
D|--------------------5---------------------7---------|
A|-------2~---0-------3-------2~---0--------5---------|
E|---------------3--------------------3p-0------------|


E|----------------------------------------------------|
B|----------------------------------------------------|
G|--7----7----7----7----7----7----7----7--------------|
D|--7----7----7----7----7----7----7----7--5-----------|
A|--5----5----5----5----5----5----5----5--3-----------|
E|----------------------------------------------------|
                                               

E|----------------------------------------------------|
B|----------------------------------------------------|
G|----0--------------------0----------------7---------|
D|--------------------5---------------------7---------|
A|-------2~---0-------3-------2~---0--------5---------|
E|---------------3--------------------3p-0------------|


E|----------------------------------------------------|
B|----------------------------------------------------|
G|--7----7----7----7----7----7----7----7--------------|
D|--7----7----7----7----7----7----7----7--5-----------|
A|--5----5----5----5----5----5----5----5--3-----------|
E|----------------------------------------------------|

                                            
E|----------------------------------------------------|
B|-----------------(5)-7------------------------------|
G|----0-------------5--7------------------------------|
D|------------------5--7------------------------------|
A|-------2~---0-----3--5------------------------------|
E|---------------3------------------------------------|

Verse

Chorus

Solo

E|----------------------------------------------------|
B|----------------------------------------------------|
G|----------9-----------------------------7--9--7--9--|
D|-------------9----------------5-----7/9-------------|
A|--7-----------------------5h7-----------------------|
E|----------------------------------------------------|
                                               
E|----------------------------------------------------|
B|----------------------------------------------------|
G|--9b---------9b^^-----r9p7-9~---------12--14b-------|
D|----------------------------------------------------|
A|----------------------------------------------------|
E|----------------------------------------------------|
                                                                  
E|--12--------12--------------------------12h15p12----|
B|----------------------15----------12h15----------15-|
G|------14~-------14~-------12~-----------------------|
D|----------------------------------------------------|
A|----------------------------------------------------|
E|----------------------------------------------------|
                                                                    
E|--12---------------------------------17b------------|
B|----15--15b~------------17b^^--17p15----------------|
G|----------------------------------------------------|
D|----------------------------------------------------|
A|------------------------------------------------x\--|
E|------------------------------------------------x\--|

Bridge

E|----------------------------------------------------|
B|-------8---------------------8----------------------|
G|------------7---------------------7-----------------|
D|-----------------9---------------------9------------|
A|----------------------------------------------------|
E|--0---------------------0---------------------------|
   < - - - - - - - - - 3x - - - - - - - - - >
                                              
E|----------------------------------------------------|
B|-------5---------------------5----------------------|
G|------------5---------------------5-----------------|
D|-----------------5---------------------5------------|
A|--7---------------------7---------------------------|
E|----------------------------------------------------|
                                               
E|----------------------------------------------------|
B|-------7----------------------5---------------------|
G|------------7--------------5-------5----------------|
D|-----------------7----------------------5-----------|
A|--9---------------------7---------------------------|
E|----------------------------------------------------|
                                              
E|----------------------------------------------------|
B|-------8---------------------8----------------------|
G|------------7---------------------7-----------------|
D|-----------------9---------------------9------------|
A|----------------------------------------------------|
E|--0---------------------0---------------------------|

E|----------------------------------------------------|
B|-------8---------------------8----------------------|
G|------------7---------------------7-----------------|
D|-----------------9---------------------9------------|
A|----------------------------------------------------|
E|--0---------------------0---------------------------|

                                                                                         
E|----------------------------------------------------|
B|-------5---------------------5----------------------|
G|------------5---------------------5-----------------|
D|-----------------5---------------------5------------|
A|--7---------------------7---------------------------|
E|----------------------------------------------------|
                                              
E|----------------------------------------------------|
B|-------7---------------------5----------------------|
G|------------7---------------------5-----------------|
D|-----------------7---------------------5------------|
A|--9---------------------7---------------------------|
E|----------------------------------------------------|
                                                       
E|--------------------------------7--7--7-------------|
B|--------------------------8--8--8--8--8-------------|
G|--------------9--9--9--9--9--9--9--9--9--5--5--7----|
D|--------------9--9--9--9--9--9--9--9--9--5--5--7----|
A|--------7--7--7--7--7--7--7--7--7--7--7--3--3--5----|
E|--0--0--0--0--0--0--0--0--0--0--0--0--0-------------|

Chorus 

Fade Out




comments
print report bad tab
1 comment total.
0 reply
CinderellaFan14 wrote on April 1 2012, 01:15 am

Adding this to my Kiss tabs' collection! Awesome job! 5 stars!

I want to post or [tab]
guest
You may want to rate the tab now too:
select rating
Please do not post tabs as comments. Select "correction" instead!