Oops, an error
Loading. Please wait.

Thrills In The Night Tab

by Kiss
4,285 views 15 this week
2 commentsread comments
1 2 3 4 5
excellent!
x 1
Autoscroll
+/-
esc
set tempo
stop
Contributor
Difficulty
advanced
WARNING: You are trying to view
                                    content from Ultimate-Guitar.com
                                    in an unauthorized application,
                                    which is prohibited.

                                    Please use an official Ultimate
                                    Guitar Tabs application for iPhone,
                                    iPad or Android to access legitimate
                                    chords, guitar, bass, and drum tabs
                                    from Ultimate-Guitar.com database.

                                    Type "ultimate guitar tabs" in Apple
                                    App Store's or Android Market's
                                    search to find the application.
                        Kiss - Thrills In The Night
                             Album : Animalize
                        Written by Stanley/Beauvoir
                          Tabbed by Ignacio Arcos              


Rhythm Fig. 1

E|--------------------------------------------------------------|
B|--------------------------------------------------------------|
G|--7/-9--9----9------7/----9--9----9---------------------------|
D|--7/-9--9----9------7/----9--9----9---------------------------|
A|--5/-7--7----7------5/----7--7----7----0--2-------------------|
E|--------------------------------------------------------------|


End 1

E|--------------------------------------------------------------|
B|--------------------------------------------------------------|
G|--5----5-----------9--7------7----7--7--7---------------------|
D|--5-------5-----9-----7------7----7--7--7---------------------|
A|--3----------7--------5------5----5--5--5---------------------|
E|--------------------------------------------------------------|
    Let ring > Let ring


End 2

E|--------------------------------------------------------------|
B|--------------------------------------------------------------|
G|--5----5-----------9--7---------------------------------------|
D|--5-------5-----9-----7---------------------------------------|
A|--3----------7--------5---------------------------------------|
E|----------------------------------------------------------10--|
    Let ring > Let ring                                    P.M.


End 3

E|--------------------------------------------------------------|
B|--------------------------------------------------------------|
G|--5----5-----------9--7-------x-x-5--x-x-4--------------------|
D|--5-------5-----9-----7-------x-x-5--x-x-4--------------------|
A|--3----------7--------5-------x-x-3--x-x-2--------------------|
E|--------------------------------------------------------------|
    Let ring > Let ring


End 4

E|--------------------------------------------------------------|
B|--------------------------------------------------------------|
G|--5----5-----------9--7-------x-x-12--x-x-11------------------|
D|--5-------5-----9-----7-------x-x-12--x-x-11------------------|
A|--3----------7--------5-------x-x-10--x-x-9-------------------|
E|----------------------------------------------------------10--|
    Let ring > Let ring                                    P.M.


Rhythm Fig. 2

E|--------------------------------------------------------------|
B|--------------------------------------------------------------|
G|--7/-9--9----9------7/----9--9----9------5--------------------|
D|--7/-9--9----9------7/----9--9----9------5--------------------|
A|--5/-7--7----7------5/----7--7----7------3--------------------|
E|--------------------------------------------------------------|



End 1

E|--------------------------------------------------------------|
B|--------------------------------------------------------------|
G|----5----9----9----7-------7----7--7--7-----------------------|
D|----5----9----9----7-------7----7--7--7-----------------------|
A|----3----7----7----5-------5----5--5--5-----------------------|
E|--------------------------------------------------------------|



End 2

E|--------------------------------------------------------------|
B|--------------------------------------------------------------|
G|----5----9----9----7------------------------------------------|
D|----5----9----9----7------------------------------------------|
A|----3----7----7----5------------------------------------------|
E|--------------------------------------------------------10----|
                                                         P.M.


End 3

E|--------------------------------------------------------------|
B|--------------------------------------------------------------|
G|----5----9----9----7-----7--x-x-12--x-x-11--------------------|
D|----5----9----9----7-----7--x-x-12--x-x-11--------------------|
A|----3----7----7----5-----5--x-x-10--x-x-9---------------------|
E|--------------------------------------------------------------|


End 4

E|--------------------------------------------------------------|
B|--------------------------------------------------------------|
G|----5----9----9----7-----7--x-x-5--x-x-4----------------------|
D|----5----9----9----7-----7--x-x-5--x-x-4----------------------|
A|----3----7----7----5-----5--x-x-3--x-x-2----------------------|
E|--------------------------------------------------------------|



Rhythm Fig. 3a

E|--------------------------------------------------------------|
B|--------------------------------------------------------------|
G|--------------12------------------------14--------------------|
D|--------------12------------------------14--------------------|
A|--------------10------------------------12--------------------|
E|--12--10--12------------10--12--10--12--------------------10--|
   P.M. - - - >           P.M. - - - - ->                   P.M.


E|--------------------------------------------------------------|
B|--------------------------------------------------------------|
G|-------------(9~)----------------------(11~)------------------|
D|--------------10~-----------------------12~-------------------|
A|--------------10~-----------------------12~-------------------|
E|--12--10--12------------10--12--10--12--------------------10--|
   P.M. - - - >           P.M. - - - - ->                   P.M.



Rhythm Fig. 3b

E|--------------------------------------------------------------|
B|--------------------------------------------------------------|
G|------------------12----------------------------14------------|
D|------------------12----------------------------14------------|
A|------------------10----------------------------12------------|
E|--12-12-10-10-12------------10--12-12-10-10-12------------10--|
    P.M. - - - - >            P.M. - - - - - - >           P.M.


E|--------------------------------------------------------------|
B|--------------------------------------------------------------|
G|-----------------(9~)--------------------------(11~)----------|
D|------------------10~---------------------------12~-----------|
A|------------------10~---------------------------12~-----------|
E|--12-12-10-10-12------------10--12-12-10-10-12------------10--|
    P.M. - - - - >            P.M. - - - - - - >           P.M.



Rhythm Fig. 4

E|--------------------------------------2-----------------------|
B|-----------5---------------3--------------3-------------------|
G|--5------------5---------------0------------------------------|
D|--5----------------5--------------0---------------------------|
A|--3-----------------------------------------------------------|
E|-----------------------3--------------------------------------|
   Let ring - - - - - >  Let ring > Let ring >


End 1

E|--------------------------------3---2-------------------------|
B|--5------3--3------3---3----------------3---------------------|
G|--5------0--0------2---2--------------------------------------|
D|--5------0--0------0---0--------------------------------------|
A|--3-----------------------------------------------------------|
E|---------3--3-------------------------------------------------|
                         Let ring - - - - - >


End 2

E|--------------------------------------------------------------|
B|--------------------------------------------------------------|
G|--4----4--4--4--4--x-x-x-x--5------4------7-------------------|
D|--4----4--4--4--4--x-x-x-x--5------4------7-------------------|
A|--2----2--2--2--2--x-x-x-x--3------2------5-------------------|
E|--------------------------------------------------------------|



Rhythm Fig. 5

E|--------------------------------------------------------------|
B|-----------------------------12--12---------------------------|
G|----10--10----10--10--10-----12--12----14---------------------|
D|----8---8-----8---8---8------12--12----12---------------------|
A|----8---8-----8---8---8------10--10----12---------------------|
E|--------------------------------------------------------------|
   < - - - - - - - - - 3x - - - - - - - - - >


E|--------------------------------------------------------------|
B|--------------0-----------------------------------------------|
G|-----------0--------------12----12--7-------------------------|
D|--------0-----------------12----12--7-------------------------|
A|--2h-3--------------------10----10--5-------------------------|
E|--------------------------------------------------------------|
       Let ring - >


Rhythm Fig. 6

E|--------------------------------------------------------------|
B|--------------------------------------------------------------|
G|--------------12--------------------------14------------------|
D|--------------12--------------------------14------------------|
A|--------------10--------------------------12------------------|
E|--12--10--12--------12---10---12--10--12--------12---10-------|
    P.M. - - >        P.M. - - - - - - - >        P.M. - >


End 1

E|--------------------------------------------------------------|
B|--------------------------------------------------------------|
G|--------------9~--------------------------11~-----------------|
D|--------------10~-------------------------12~-----------------|
A|--------------10~-------------------------12~-----------------|
E|--12--10--12--------12---10---12--10--12--------12---10-------|
    P.M. - - >        P.M. - - - - - - - >        P.M. - >


End 2

E|--------------------------------------------------------------|
B|--------------------------------------------------------------|
G|--------------9~--------------------------11~-----------------|
D|--------------10~-------------------------12~-----------------|
A|--------------10~-------------------------12~-----------------|
E|--12--10--12--------12---10---12--10--12----------------------|
    P.M. - - >        P.M. - - - - - - - >




Intro solo

E|--------------------------------------------------------------|
B|--15--15b---15b---15b~---------15b--15b--r15--15b--r15--13----|
G|--------------------------------------------------------------|
D|--------------------------------------------------------------|
A|--------------------------------------------------------------|
E|--------------------------------------------------------------|



E|-----12-14-15-14-12----14-12-------12-------------------------|
B|--15----------------15-------15-13----15-13-12-15-13-12-------|
G|--------------------------------------------------------14----|
D|--------------------------------------------------------------|
A|--------------------------------------------------------------|
E|--------------------------------------------------------------|



E|--------------------------------------------------------------|
B|--------------------12----12-15p12-12--12-15p12-12--12-15p12--|
G|--11~-------\-------14b------------14b----------14b-----------|
D|--------------------------------------------------------------|
A|--------------------------------------------------------------|
E|--------------------------------------------------------------|



E|---------15b----15--12h15p12----------------------------------|
B|--12--12---------------------15--15b~-------12-13-15-13-12----|
G|--14b------------------------------------------------------14-|
D|--------------------------------------------------------------|
A|--------------------------------------------------------------|
E|--------------------------------------------------------------|



E|--------------------------------------------------------------|
B|--13-12-------12----------------------------------------------|
G|--------14-12----14-12-11-14-12-11----------------------------|
D|-----------------------------------14-12~---------------------|
A|--------------------------------------------------------------|
E|--------------------------------------------------------------|



Riff 1

E|--------------------------------------------------------------|
B|--------------------------------------------------------------|
G|--5*--(\/)--(\/)--(\/)-(\/)-(\/)----12*--(\/)--(\/)--(\/)-----|
D|--------------------------------------------------------------|
A|--------------------------------------------------------------|
E|--------------------------------------------------------------|




E|--------------------------------------------------------------|
B|--------------------------------------------------------------|
G|--5*--(\/)--(\/)--(\/)-(\/)-(\/)---4*--(\)--------------------|
D|--------------------------------------------------------------|
A|--------------------------------------------------------------|
E|--------------------------------------------------------------|



Solo

E|--------------------------------------------------------------|
B|--8-----8-----8----------12----12-15p12-12--12-15p12-12--12---|
G|--10b---10b---10b~-------14b------------14b----------14b------|
D|--------------------------------------------------------------|
A|--------------------------------------------------------------|
E|--------------------------------------------------------------|




E|---------------------------------------12--14--15-15p14p12----|
B|--15p12-12--12-15b~----15b--15b~------------------------------|
G|--------14b---------------------------------------------------|
D|--------------------------------------------------------------|
A|--------------------------------------------------------------|
E|--------------------------------------------------------------|




E|--------------------------------------------------------------|
B|--15p13p12-13p12----------------------------------------------|
G|-----------------14-12-11-12-11h12p11-------------------------|
D|--------------------------------------12----------------------|
A|-----------------------------------------12-(\/)--~----0(\)---|
E|--------------------------------------------------------------|




E|--------------------------------------------------------------|
B|---------------------------------10b-----t13-p10~---r10-------|
G|--2b-----t5-p2~---r2-t9p4-/-----------------------------------|
D|--------------------------------------------------------------|
A|--------------------------------------------------------------|
E|--------------------------------------------------------------|
    Hold bend - ->                 Hold bend - - - >



E|----------------17p15p14h15p14----14--------------------------|
B|--t17p12~----------------------17----17-15h17p15p13-17p15p13--|
G|--------------------------------------------------------------|
D|--------------------------------------------------------------|
A|--------------------------------------------------------------|
E|--------------------------------------------------------------|




E|--------------------------------------------------------------|
B|--h15p13----13------------------------------------------------|
G|---------16----16-14h16p14p12-16p14p12h14p12------------------|
D|---------------------------------------------16p14p12-16p14p12|
A|--------------------------------------------------------------|
E|--------------------------------------------------------------|




E|--------------------------------------------------------------|
B|--------------------------------------------------------------|
G|---------------------------------------------------t16-12h14--|
D|-------------------------------t17-12h14-t17-12h14------------|
A|--14p12~-------(\/)(\/)-(\)-----------------------------------|
E|--------------------------------------------------------------|




E|-----------------------------t17-12h15-t17-12h15-t17/19-15h17-|
B|----------t17-12h15-t7-12h15----------------------------------|
G|-t16-12h14----------------------------------------------------|
D|--------------------------------------------------------------|
A|--------------------------------------------------------------|
E|--------------------------------------------------------------|



E|--t19-15h17p15-17b~-------15p14--15--17--/19--17--15--17/19---|
B|--------------------------------------------------------------|
G|--------------------------------------------------------------|
D|--------------------------------------------------------------|
A|--------------------------------------------------------------|
E|--------------------------------------------------------------|



E|--19b^^~--------r19\------------------------------------------|
B|--------------------------------------------------------------|
G|--------------------------------------------------------------|
D|--------------------------------------------------------------|
A|--------------------------------------------------------------|
E|--------------------------------------------------------------|



Outro solo

E|-------------------------12--15b----15~---------19b~-----19b~-|
B|--15b--15b~---------15~---------------------------------------|
G|--------------------------------------------------------------|
D|--------------------------------------------------------------|
A|--------------------------------------------------------------|
E|--------------------------------------------------------------|



E|------19b-r19~----\-------15-17/19----15-17/19----15-17/19----|
B|-----------------------17----------17----------17-------------|
G|--------------------------------------------------------------|
D|--------------------------------------------------------------|
A|--------------------------------------------------------------|
E|--------------------------------------------------------------|



E|-----15h17----------------------------------------------------|
B|--17-------17~------------------------------------------------|
G|--------------------------------------------------------------|
D|--------------------------------------------------------------|
A|--------------------------------------------------------------|
E|--------------------------------------------------------------|
comments
We did not receive enough feedback on this tab! Please rate:
1 2 3 4 5
2 comments total.
0 reply
rockero-rojo wrote on April 26 2007, 10:37 pm

the best xd

0 reply
elkrloevh wrote on April 27 2007, 10:30 am

gran tab

I want to post or [tab]
guest
You may want to rate the tab now too:
select rating
Please do not post tabs as comments. Select "correction" instead!