Oops, an error
Loading. Please wait.

Tonight You Belong To Me Tab

by Kiss
6,808 views 6 this week
no commentswrite comment
1 2 3 4 5
excellent!
x 1
Autoscroll
+/-
esc
set tempo
stop
Hey! There's an official Ultimate Guitar app which is ideal
for learning songs when you're away from computer. Get the app
WARNING: You are trying to view
                                    content from Ultimate-Guitar.com
                                    in an unauthorized application,
                                    which is prohibited.

                                    Please use an official Ultimate
                                    Guitar Tabs application for iPhone,
                                    iPad or Android to access legitimate
                                    chords, guitar, bass, and drum tabs
                                    from Ultimate-Guitar.com database.

                                    Type "ultimate guitar tabs" in Apple
                                    App Store's or Android Market's
                                    search to find the application.
TONIGHT YOU BELONG TO ME (from the KISS CD "PAUL STANLEY")
--------------------

Transcribed by Emil Ortenmark, emil@kissasylum.com

Tuned down 1/2-step

Comments: At times it sounds as if Rhy. Figs 5a and 5b are played at the
same time by different guitars. I really don't know. The arpeggiation in
Rhy. Fig 4 might be a little off, the 12-string plays tricks on my ears.

Key:
/    = slide up
\    = slide down
b    = bend (whole step)
b^   = bend (1/2 step)
b^^  = bend (1 1/2 steps)
pb   = pre-bend
r    = release-bend
t    = tap with righthand finger
h    = hammer-on
p    = pull-off
~    = Vibrato
*    = Natural Harmonic
#(#) = Trill
**   = Artificial Harmonic
x    = Dead notes (no pitch)
P.M. = Palm mute (- -> underneath indicates which notes)
(\)  = Dive w\bar
(/)  = Release w\bar
Tp   = Tap w\plectrum


Rhythm Fig. 1 (12-string acoustic, let ring)

Eb|--7-----------7-------------7-----------7------------------|
Bb|--8-----8-----------8-------------8-----------8------------|
Gb|--9--9-----9-----9-----9-------9-----9-----9-----9---------|
Db|-----------------------------------------------------------|
Ab|-----------------------------------------------------------|
Eb|-----------------------------------------------------------|



Eb|--8--------8--------8-------8---------8---------8----------|
Bb|--------8--------8-----8----------10--------10-----10------|
Gb|-----9--------9----------------9---------9-----------------|
Db|-----------------------------------------------------------|
Ab|-----------------------------------------------------------|
Eb|-----------------------------------------------------------|


Rhythm Fig. 2 (12-string acoustic, let ring)

Eb|--7-----------7-------------7-----------7------------------|
Bb|--------8-----------8-------------8-----------8------------|
Gb|-----9-----9-----9-----9-------9-----9-----9-----9---------|
Db|-----------------------------------------------------------|
Ab|-----------------------------------------------------------|
Eb|-----------------------------------------------------------|



Eb|--8-----------8------------8------------8------------------|
Bb|--------8-----------8------------10-----------10-----------|
Gb|-----9-----9-----9-----9------9------9-----9------9--------|
Db|-----------------------------------------------------------|
Ab|-----------------------------------------------------------|
Eb|-----------------------------------------------------------|



Rhythm Fig. 3 (12-string acoustic, let ring)

Eb|--7-----------7-------------7-----------7------------------|
Bb|--------8-----------8-------------8-----------8------------|
Gb|-----9-----9-----9-----9-------9-----9-----9-----9---------|
Db|-----------------------------------------------------------|
Ab|-----------------------------------------------------------|
Eb|-----------------------------------------------------------|



Eb|-12------------12-------------12-------------12------------|
Bb|-------14-------------14-------------14-------------14-----|
Gb|---14------14-----14------14-----14------14-----14------14-|
Db|-----------------------------------------------------------|
Ab|-----------------------------------------------------------|
Eb|-----------------------------------------------------------|



Rhythm Fig. 4 (12-string acoustic, let ring)

Eb|-----------------------------------------------------------|
Bb|-8---------8---------8------10----------10----------10-----|
Gb|--------9---------9-----9-----------11----------11------11-|
Db|----10--------10----------------12----------12-------------|
Ab|-----------------------------------------------------------|
Eb|-----------------------------------------------------------|



Eb|--------------7-------------12--10-------------------------|
Bb|--------8--------8-----8------------12--10-----------------|
Gb|-----9-----9--------9-----------------------12--11--9------|
Db|--9----------------------------------------------------12--|
Ab|-----------------------------------------------------------|
Eb|-----------------------------------------------------------|



Eb|-----------------------------------------------------------|
Bb|-8---------8---------8------10----------10----------10-----|
Gb|--------9---------9-----9-----------11----------11------11-|
Db|----10--------10----------------12----------12-------------|
Ab|-----------------------------------------------------------|
Eb|-----------------------------------------------------------|



Eb|--7--------7--------7-------7------------------------------|
Bb|-----7--------7--------7----7------------------------------|
Gb|--------9--------9----------8------------------------------|
Db|-----------------------------------------------------------|
Ab|-----------------------------------------------------------|
Eb|-----------------------------------------------------------|




Rhythm Fig. 5a

Eb|-----------------------------------------------------------|
Bb|--------7-----7-----------------7-----7--------------------|
Gb|--9--9--7-----7--9----9------9--7-----7--9-----------------|
Db|--9--9--7--9--7--9----9------9--7--9--7--9-----------------|
Ab|--7--7-----9----------7------7-----9-----------------------|
Eb|-----------------------------------------------------------|



Eb|-----------------------------------------------------------|
Bb|-----------------------------------------------------------|
Gb|-----0----------------------0------------------------------|
Db|-----------------------------------------------------------|
Ab|--3~----2~---0-------3~--------2~---0----------------------|
Eb|----------------3~---------------------3~------------------|




Rhythm Fig. 5b

Eb|-----------------------------------------------------------|
Bb|--------7-----7-----------------7-----7--------------------|
Gb|--9--9--7-----7--9----9------9--7-----7--9-----------------|
Db|--9--9--7--9--7--9----9------9--7--9--7--9-----------------|
Ab|--7--7-----9----------7------7-----9-----------------------|
Eb|-----------------------------------------------------------|



Eb|-----------------------------------------------------------|
Bb|------------------------------------7----(7)---------------|
Gb|-----0----------------------0-------7----(7)---------------|
Db|------------------------------------7--9-(7)---------------|
Ab|--3~----2~---0-------3~--------2~------9-------------------|
Eb|----------------3~-----------------------------------------|




Rhythm Fig. 6a

Eb|-----------------------------------------------------------|
Bb|-----------------------------------------------------------|
Gb|--9---------------12---------------7-----------------------|
Db|--9---------------12---------------7-----------------------|
Ab|--7---------------10---------------5-----------------------|
Eb|-----------------------------------------------------------|



Eb|-----------------------------------------------------------|
Bb|-----------------------------------------------------------|
Gb|--9--------------------------------------------------------|
Db|--9------------------x--10------x--12----------------------|
Ab|--7------------------x--10------x--12----------------------|
Eb|---------------------x--8-------x--10----------------------|



Eb|-----------------------------------------------------------|
Bb|-----------------------------------------------------------|
Gb|--9---------------12---------------7-----------------------|
Db|--9---------------12---------------7-----------------------|
Ab|--7---------------10---------------5-----------------------|
Eb|-----------------------------------------------------------|



Eb|-----------------------------------------------------------|
Bb|-----2--------2-------------3p-2--3p-2---------------------|
Gb|--------2--------2-----2----------------2------------------|
Db|-----------2--------2--------------------------------------|
Ab|--0--------------------------------------------------------|
Eb|-----------------------------------------------------------|
     Let ring - - - - - - - - - - - - - - - >





Rhythm Fig. 6b

Eb|-----------------------------------------------------------|
Bb|-----------------------------------------------------------|
Gb|--9---------------12---------12\---7-----------------------|
Db|--9---------------12---------12\---7-----------------------|
Ab|--7---------------10---------------5-----------------------|
Eb|-----------------------------------------------------------|



Eb|-----------------------------------------------------------|
Bb|-----------------------------------------------------------|
Gb|--9--------------------------------------------------------|
Db|--9------------------x--10------x--12----------------------|
Ab|--7------------------x--10------x--12----------------------|
Eb|---------------------x--8-------x--10----------------------|



Eb|-----------------------------------------------------------|
Bb|-----------------------------------------------------------|
Gb|--9---------------12---------------7-----------------------|
Db|--9---------------12---------------7-----------------------|
Ab|--7---------------10---------------5-----------------------|
Eb|-----------------------------------------------------------|



Eb|-----------------------------------------------------------|
Bb|-----------------------------------------------------------|
Gb|--2--2--2--2--2--2--2--2-----------------------------------|
Db|--2--2--2--2--2--2--2--2-----------------------------------|
Ab|--0--0--0--0--0--0--0--0-----------------------------------|
Eb|-----------------------------------------------------------|





Rhythm Fig. 7a

Eb|-----------------------------------------------------------|
Bb|--------5-----3h-5--------------7-----5h-7-----------------|
Gb|--5--------5--------------7--------7-----------------------|
Db|--5--5--------------------7--7-----------------------------|
Ab|--3-----------------------5--------------------------------|
Eb|-----------------------------------------------------------|
    Let ring - - - - >       Let ring - - - - >


Eb|-----------------------------------------------------------|
Bb|--------7-----7-----------------7-----7--------------------|
Gb|--9--9--7-----7--9----9------9--7-----7--9-----------------|
Db|--9--9--7--9--7--9----9------9--7--9--7--9-----------------|
Ab|--7--7-----9----------7------7-----9-----------------------|
Eb|-----------------------------------------------------------|



Rhythm Fig. 7b

Eb|-----------------------------------------------------------|
Bb|-----------------------------------------------------------|
Gb|--5---------------------7----------------------------------|
Db|--5---------------------7----------------------------------|
Ab|--3---------------------5----------------------------------|
Eb|-----------------------------------------------------------|



Eb|-----------------------------------------------------------|
Bb|--------7-----7-----------------7-----7--------------------|
Gb|--9--9--7-----7--9----9------9--7-----7--9-----------------|
Db|--9--9--7--9--7--9----9------9--7--9--7--9-----------------|
Ab|--7--7-----9----------7------7-----9-----------------------|
Eb|-----------------------------------------------------------|




Rhythm Fig. 8a

Eb|-----------------------------------------------------------|
Bb|--------5-----3h-5--------------7-----5h-7-----------------|
Gb|--5--------5--------------7--------7-----------------------|
Db|--5--5--------------------7--7-----------------------------|
Ab|--3-----------------------5--------------------------------|
Eb|-----------------------------------------------------------|
    Let ring - - - - >       Let ring - - - - >


Eb|-----------------------------------------------------------|
Bb|-----------------------------------------------------------|
Gb|--9---9--9--9--9--9--9--9--9--9--9--9--9-------------------|
Db|--9---9--9--9--9--9--9--9--9--9--9--9--9-------------------|
Ab|--7---7--7--7--7--7--7--7--7--7--7--7--7-------------------|
Eb|-----------------------------------------------------------|



Rhythm Fig. 8b

Eb|-----------------------------------------------------------|
Bb|-----------------------------------------------------------|
Gb|--5-----------------------7--------------------------------|
Db|--5-----------------------7--------------------------------|
Ab|--3-----------------------5--------------------------------|
Eb|-----------------------------------------------------------|



Eb|-----------------------------------------------------------|
Bb|-----------------------------------------------------------|
Gb|--9---9--9--9--9--9--9--9--9--9--9--9--9-------------------|
Db|--9---9--9--9--9--9--9--9--9--9--9--9--9-------------------|
Ab|--7---7--7--7--7--7--7--7--7--7--7--7--7-------------------|
Eb|-----------------------------------------------------------|



Rhythm Fig. 9

Eb|-----------------------------------------------------------|
Bb|--------7-----7-----------------7-----7--------------------|
Gb|--9--9--7-----7--9----9------9--7-----7--9-----------------|
Db|--9--9--7--9--7--9----9------9--7--9--7--9-----------------|
Ab|--7--7-----9----------7------7-----9-----------------------|
Eb|-----------------------------------------------------------|



Eb|-----------------------------------------------------------|
Bb|-----1-----------------------------------------------------|
Gb|-----0--0------------2--2--2--2--2--2--2--2--2--2--2--2--2-|
Db|--------0------------2--2--2--2--2--2--2--2--2--2--2--2--2-|
Ab|--3~----2----0-------0--0--0--0--0--0--0--0--0--0--0--0--0-|
Eb|----------------3~-----------------------------------------|




Riff 1 (Acoustic 6-string)

Eb|-----------------------------------------------------------|
Bb|-----------------------------------------------------------|
Gb|-----------------------------------------------------------|
Db|--10--9--7-------------------------------------------------|
Ab|------------10---------------------------------------------|
Eb|-----------------------------------------------------------|



Solo



Eb|--------------15-17-17b-r17p^15-17-17b~-----------------------------|

Bb|-17b-17~---17-------------------------------------------------------|
Gb|--------------------------------------------------------------------|
Db|--------------------------------------------------------------------|
Ab|--------------------------------------------------------------------|
Eb|--------------------------------------------------------------------|



Eb|-17-15-14-15p14-----------------------------------------------------|

Bb|-----------------15--------------------------------15---------------|
Gb|---------------------16-14\12-14b-r14p12----12-14b----14b~----14-12-|
Db|-----------------------------------------14-------------------------|
Ab|--------------------------------------------------------------------|
Eb|--------------------------------------------------------------------|
                                                  Let ring ->


Eb|--15b~---15b~--15b-r15-12-----------12------------------------------|
Bb|---------------------------15b~--------15-----15--------------------|
Gb|------------------------------------------14b----r14p12------14b----|
Db|--------------------------------------------------------------------|
Ab|--------------------------------------------------------------------|
Eb|--------------------------------------------------------------------|




Eb|-----------------------19b^^~---19b^^-r19---------------------------|
Bb|------------------------------------------17-20-20b~------20b-r20---|
Gb|--14b-r14p12-14-14b~------------------------------------------------|
Db|--------------------------------------------------------------------|
Ab|--------------------------------------------------------------------|
Eb|--------------------------------------------------------------------|
                          Hold bend - - >




Eb|--------------------------------------------------------------------|

Bb|--17h^20p^17----17-----17-------------------------------------------|
Gb|-------------19----19b----19b~--------------------------------------|
Db|--------------------------------------------------------------------|
Ab|--------------------------------------------------------------------|
Eb|--------------------------------------------------------------------|






Outro solo


Eb|-----------12~------------------------------------------------------|
Bb|-17p15-15b----------------------------15----------------------------|
Gb|-----------------------14b-r14p12-14b~~~---14b14rp^12-9b**-r9~------|
Db|--------------------------------------------------------------------|
Ab|--------------------------------------------------------------------|
Eb|--------------------------------------------------------------------|





Eb|------12------------------------------------------------------------|
Bb|-15b~-----15-12------------------15---------------------------------|
Gb|-----------------14b-r14p12-14b~----14b~~---------------------------|
Db|--------------------------------------------------------------------|
Ab|--------------------------------------------------------------------|
Eb|--------------------------------------------------------------------|
                               Let ring






Eb|--15b-r15-15b~---15b-r15-15b~--pb15-r15-12h15p12--------------------|
Bb|-------------------------------------------------15-12h15p12--------|
Gb|-------------------------------------------------------------14-12--|
Db|--------------------------------------------------------------------|
Ab|--------------------------------------------------------------------|
Eb|--------------------------------------------------------------------|





Eb|--------------------------------------------------------------------|
Bb|--12--12-15-12-15b~-------------------------------------------------|
Gb|--14b---------------------------------------------------------------|
Db|--------------------------------------------------------------------|
Ab|--------------------------------------------------------------------|
Eb|--------------------------------------------------------------------|
    Let ring



Eb|------------------------19-19-19-19-19-19-19-19-19-19-19-19\--------|
Bb|-17b^^-r17-15-17^^~-------------------------------------------------|
Gb|--------------------------------------------------------------------|
Db|--------------------------------------------------------------------|
Ab|--------------------------------------------------------------------|
Eb|--------------------------------------------------------------------|
   < - - - 2x - - - ->

comments
We did not receive enough feedback on this tab! Please rate:
print report bad tab
1 2 3 4 5
I want to post or [tab]
guest
You may want to rate the tab now too:
select rating
Please do not post tabs as comments. Select "correction" instead!