Oops, an error
Loading. Please wait.

War Machine Tab

by Kiss
ver1
ver1

Whole song

Interactive

More versions @911Tabs.com
13,468 views 27 this week
1 commentread comment
1 2 3 4 5
worth learning
x 4
Autoscroll
+/-
esc
set tempo
stop
Hey! There's an official Ultimate Guitar app which is ideal
for learning songs when you're away from computer. Get the app
WARNING: You are trying to view
                                    content from Ultimate-Guitar.com
                                    in an unauthorized application,
                                    which is prohibited.

                                    Please use an official Ultimate
                                    Guitar Tabs application for iPhone,
                                    iPad or Android to access legitimate
                                    chords, guitar, bass, and drum tabs
                                    from Ultimate-Guitar.com database.

                                    Type "ultimate guitar tabs" in Apple
                                    App Store's or Android Market's
                                    search to find the application.
#----------------------------------PLEASE NOTE---------------------------------#
#This file is the author's own work and represents their interpretation of the #
#song. You may only use this file for private study, scholarship, or research. #
#------------------------------------------------------------------------------##
Received: from rbhp89.rbg.informatik.th-darmstadt.de (rbhp89.rbg.informatik.th-darmstadt.de [130.83.9.41]) by post-office.nevada.edu (8.6.4/8.6.4) with SMTP id GAA10057 for <jamesb@nevada.edu>; Tue, 15 Feb 1994 06:34:56 -0800
Message-Id: <199402151434.GAA10057@post-office.nevada.edu>
Received: from rbhp64.rbg.informatik.th-darmstadt.de by rbhp89.rbg.informatik.th-darmstadt.de with SMTP
	(1.36.108.4/15.6) id AA18147; Tue, 15 Feb 1994 15:34:53 +0100
Received: by rbhp64.rbg.informatik.th-darmstadt.de
	(1.36.108.4/15.6) id AA25440; Tue, 15 Feb 1994 15:34:41 +0100
From: Rainer Montag <montag01@rbg.informatik.th-darmstadt.de>
Subject: TAB:KISS War Machine
To: jamesb@nevada.edu (James Bender)
Date: Tue, 15 Feb 94 15:34:39 MEZ
Mailer: Elm [revision: 66.25]

War Machine (from the KISS-LP "Creatures of the Night")
-----------

transcribed by Rainer Montag (montag01@rbg.informatik.th-darmstadt.de)

Tune guitar 1/2 step down

Intro Riff:

D|-----------------------------------------|
A|-----------------------------------------|
E|--0--7----0--5----0--7----0--7--0--3--5--|

D|-----------------------------------------|
A|-----------------------------------------|
E|--0--7----0--5----0--7----0--7--0--3--5--|


Riff 1:

     A   G   E

E|---------------|
B|---------------|
G|---------------|
D|---7---5---2---|
A|---7---5---2---|
E|---5---3---0---|



Riff 2:

     E   G   A  A  G  A       A   G   B   G   E  E  G  E     E

E|--------------------------------------------------------------|
B|--------------------------------------------------------------|
G|--------------------------------------------------------------|
D|---2---5---7--7--5--7-------7---5---9---5---2--2--5--2-----2--|
A|---2---5---7--7--5--7-------7---5---9---5---2--2--5--2-----2--|
E|---0---3---5--5--3--5-------5---3---7---3---0--0--3--0-----0--|


Riff 3:

     E   G   A  A  G  A       A   G   A   G

E|-------------------------------------------|
B|-------------------------------------------|
G|-------------------------------------------|
D|---2---5---7--7--5--7-------7---5---7---5--|
A|---2---5---7--7--5--7-------7---5---7---5--|
E|---0---3---5--5--3--5-------5---3---5---3--|


Riff 3a:

     B  B  A  B  B  A  B  B  B   A   B

E|---------------------------------------|
B|---------------------------------------|
G|---------------------------------------|
D|---9--9--7--9--9--7--9--9--9---7---9---|
A|---9--9--7--9--9--7--9--9--9---7---9---|
E|---7--7--5--7--7--5--7--7--7---5---7---|


Riff 3b:

     B    B  A    A  G    G  F#   F#

E|-----------------------------------|
B|-----------------------------------|
G|-----------------------------------|
D|---9----9--7----7--5----5--4----4--|
A|---9----9--7----7--5----5--4----4--|
E|---7----9--5----5--3----3--2----2--|


Playing Order:

Intro 
Riff 1
Riff 2
Riff 3
Riff 3a
Riff 3
Riff 3b
Main

and so on....

The Solo starts something like this:

E|---------------14b--16b--18b------|
B|----------------------------------|
G|----------------------------------|
D|----------------------------------|
A|----------------------------------|
E|--12\-----------------------------|
       sl.down    1/2 bend

If you have any more ideas to the solo , please mail me your suggestions !!









comments
print report bad tab
1 comment total.
0 reply
coaster666 wrote on September 7 2008, 02:08 am

Intro Riff:

D|-----------------------------------------|
A|-----------------------------------------|
E|--0--7----0--5----0--7----0--7--0--3--5--|

D|-----------------------------------------|
A|-----------------------------------------|
E|--0--7----0--3----0--5----0--3--0--3--5--|

I want to post or [tab]
guest
You may want to rate the tab now too:
select rating
Please do not post tabs as comments. Select "correction" instead!