Oops, an error
Loading. Please wait.

Bbk Tab

by Korn
ver5
ver5
More versions @911Tabs.com
2,461 views 6 this week
no commentswrite comment
1 2 3 4 5
excellent!
x 1
Autoscroll
+/-
esc
set tempo
stop
Contributor
Difficulty
novice
Hey! There's an official Ultimate Guitar app which is ideal
for learning songs when you're away from computer. Get the app
WARNING: You are trying to view
                                    content from Ultimate-Guitar.com
                                    in an unauthorized application,
                                    which is prohibited.

                                    Please use an official Ultimate
                                    Guitar Tabs application for iPhone,
                                    iPad or Android to access legitimate
                                    chords, guitar, bass, and drum tabs
                                    from Ultimate-Guitar.com database.

                                    Type "ultimate guitar tabs" in Apple
                                    App Store's or Android Market's
                                    search to find the application.
Gtr I (A D G C F A D) - 'Munky'
Gtr II (A D G C F A D) - 'Head'
Gtr III (A D G C F A D) - 'Munky clean'
Gtr IV (A D G C F A D) - 'Head clean'
Gtr V (A D G C F A D) - 'Head w/ Whammy'


 Intro
  Q=112
  A#                B                 A#                  B
 4/4
  Gtr I
  S S S S S S S S S S S S S S S S     S S S S S S S S S S S S S S S S
|-6-6-6-6-6-6-6-6-6-7-7-7-7-7-7-7-||--6-6-6-6-6-6-6-6-6-6-7-7-7-7-7-7--||
|---------------------------------||-----------------------------------||
|-3-3-3-3-3-3-3-3-3-4-4-4-4-4-4-4-||o-3-3-3-3-3-3-3-3-3-3-4-4-4-4-4-4-o||
|---------------------------------||-----------------------------------||
|---------------------------------||o---------------------------------o||
|---------------------------------||-----------------------------------||
|---------------------------------||-----------------------------------||


  A#                  B          A#                  B
                          Gtrs I, II
  S S S S S S S S S S S S Q      S S S S S T +T   Q   E Q   8x
|-6-6-6-6-6-6-6-6-6-6-7-7----||--6-6-6-6-6-6-(6)S18--19-----||
|----------------------------||-----------------------------||
|-3-3-3-3-3-3-3-3-3-3-4-4----||o-3-3-3-3-3-3-(3)S15--16----o||
|----------------------------||-----------------------------||
|----------------------------||o---------------------------o||
|----------------------------||-----------------------------||
|-------------------------0--||-------------------------0---||


   Verse
    B5                  F#/Bb
    Gtr I
     H.            Q     Q.    Q   E  Q
||--------------------|------------------|
||--------------------|------------------|
||o-11------------11--|-11---------------|
||---9-------------9--|--8-----7------9--|
||o-------------------|------------9-----|
||--------------------|------------------|
||--------------------|------------------|
|
|   Gtr II
|    Q.    Q   Q.        Q.    Q   Q.
||------------14------|-----------14-----|
||--------17--17------|-------17--17-----|
||o-------16----------|-------16---------|
||--------------------|------------------|
||o-------------------|------------------|
||--------------------|------------------|
||--------------------|------------------|


  B5                  F#/Bb
   H.            Q     Q.    Q   E  Q
|-------------------|-------------------||
|-------------------|-------------------||
|-11------------11--|-11---------------o||
|--9-------------9--|--8-----7------9---||
|-------------------|------------9-----o||
|-------------------|-------------------||
|-------------------|-------------------||
|
|  Q.    Q   Q.        Q.    Q   Q.
|-----------14------|-----------14------||
|-------17--17------|-------17--17------||
|-------16----------|-------16---------o||
|-------------------|-------------------||
|-------------------|------------------o||
|-------------------|-------------------||
|-------------------|-------------------||


   Guitar Break
    A#                  B       A#                  B
    Gtrs I, II
    S S S S S T +T   Q   E Q    S S S S S T +T   Q   E Q
||--6-6-6-6-6-6-(6)S18--19----|-6-6-6-6-6-6-(6)S18--19-----||
||----------------------------|----------------------------||
||o-3-3-3-3-3-3-(3)S15--16----|-3-3-3-3-3-3-(3)S15--16----o||
||----------------------------|----------------------------||
||o---------------------------|---------------------------o||
||----------------------------|----------------------------||
||-------------------------0--|------------------------0---||


   Verse
    B5                  F#/Bb
    Gtr I
     H.            Q     Q.    Q   E  Q
||--------------------|------------------|
||--------------------|------------------|
||o-11------------11--|-11---------------|
||---9-------------9--|--8-----7------9--|
||o-------------------|------------9-----|
||--------------------|------------------|
||--------------------|------------------|
|
|   Gtr II
|    Q.    Q   Q.        Q.    Q   Q.
||------------14------|-----------14-----|
||--------17--17------|-------17--17-----|
||o-------16----------|-------16---------|
||--------------------|------------------|
||o-------------------|------------------|
||--------------------|------------------|
||--------------------|------------------|


  B5                  F#/Bb
   H.            Q     Q.    Q   E  Q
|-------------------|-------------------||
|-------------------|-------------------||
|-11------------11--|-11---------------o||
|--9-------------9--|--8-----7------9---||
|-------------------|------------9-----o||
|-------------------|-------------------||
|-------------------|-------------------||
|
|  Q.    Q   Q.        Q.    Q   Q.
|-----------14------|-----------14------||
|-------17--17------|-------17--17------||
|-------16----------|-------16---------o||
|-------------------|-------------------||
|-------------------|------------------o||
|-------------------|-------------------||
|-------------------|-------------------||


  B5                  F#/Bb
  Gtr I
   H.            Q     Q.    Q   E  Q
|-------------------|------------------|
|-------------------|------------------|
|-11------------11--|-11---------------|
|--9-------------9--|--8-----7------9--|
|-------------------|------------9-----|
|-------------------|------------------|
|-------------------|------------------|
|
| Gtr II
|  Q.    Q   Q.        Q.    Q   Q.
|-----------14------|-----------14-----|
|-------17--17------|-------17--17-----|
|-------16----------|-------16---------|
|-------------------|------------------|
|-------------------|------------------|
|-------------------|------------------|
|-------------------|------------------|


   Chorus
    F#                         C        B
    Gtr I
     E     E     E     E     E  E     E  E
||--------------------------------------------|
||--------------------------------------------|
||o-------------------------------------------|
||--------------------------------------------|
||o-------------------------------------------|
||---------------1--------------------1--2----|
||---0-----0-----------0--------0-------------|
|
|   Gtr II
|    S  S  S  S  S  S  S  S  E  S  S  E  S  S
||-----------------------------20-20-20-19-19-|
||--19-19-19-19-19-19-19-19-19----------------|
||o----------------------------17-17-17-16-16-|
||--16-16-16-16-16-16-16-16-16----------------|
||o-------------------------------------------|
||--------------------------------------------|
||--------------------------------------------|


     F        C
   E  E     E  E     E     E     E     E
|-------------------------------------------|
|-------------------------------------------|
|-------------------------------------------|
|-------------------------------------------|
|-------------------------------------------|
|-----------1--------------------1-----2----|
|--0--0--------0-----------0----------------|
|
|  E  S  S  E  S  S  S  S  S  S  S  S  S  S
|-19----------------------------------------|
|----18-18-18-17-17-17-17-17-17-17-17-17-17-|
|-16----------------------------------------|
|----15-15-15-15-15-15-15-15-15-15-15-15-15-|
|-------------------------------------------|
|-------------------------------------------|
|-------------------------------------------|


  F#                         C        B         F     C
   E     E     E     E     E  E     E  E      E E   E E   E   E   E   E
|-------------------------------------------|-------------------------------||
|-------------------------------------------|-------------------------------||
|-------------------------------------------|------------------------------o||
|-------------------------------------------|-------------------------------||
|-------------------------------------------|------------------------------o||
|--------------1--------------------1--2----|-------1-------------1---2-----||
|--0-----0-----------0--------0-------------|-0-0-----0-------0-------------||
|
|  S  S  S  S  S  S  S  S  E  S  S  E  S  S   E S S E S S S S S S S S S S
|----------------------------20-20-20-19-19-|-7-------8-8-8-8-8-8-8-8-8-8---||
|-19-19-19-19-19-19-19-19-19----------------|---6-6-6-----------------------||
|----------------------------17-17-17-16-16-|-4-------5-5-5-5-5-5-5-5-5-5--o||
|-16-16-16-16-16-16-16-16-16----------------|---3-3-3-----------------------||
|-------------------------------------------|------------------------------o||
|-------------------------------------------|-------------------------------||
|-------------------------------------------|-------------------------------||


 Verse
  B5                 A#               B                  A#
        ~~~~~~~~~~~~~~~~~~~~~~~~~~~~~~~~~~~~~~~~~~~~~~~~~~~~~~~~~~~~~~~~~
  Q.    E   Q.   E    +E  E Q  H      Q.    E   Q.   E    +E  E Q    H
|-------0---2------|------0-1-------|-------0---2------|------0-1--------------|
|-0----------------|----------------|-0----------------|-----------------------|
|----------------3-|--(3)------3----|----------------3-|--(3)--------3---------|
|------------------|----------------|------------------|-----------------------|
|------------------|----------------|------------------|-----------------------|
|------------------|----------------|------------------|-----------------------|
|------------------|----------------|------------------|-----------------------|
|
| Gtr V
|           ~~~~~~~~~~~~~~                      ~~~~~~~~~~~~~~           ~~~
| Q.   +E   H         +W              Q.   +E   H         +H        +E   Q.
|-2----(2)s14------|-(14)-----------|-2----(2)s14------|-(14)------(14)S13-----|
|------------------|----------------|------------------|-----------------------|
|------------------|----------------|------------------|-----------------------|
|------------------|----------------|------------------|-----------------------|
|------------------|----------------|------------------|-----------------------|
|------------------|----------------|------------------|-----------------------|
|------------------|----------------|------------------|-----------------------|


  B                  A#
        ~~~~~~~~~~~~~~~~~~~~~~~~~~~~~~~~~
  Q.    E   Q.   E    +E  E Q  H
|-------0---2------|------0-1-----------|
|-0----------------|--------------------|
|----------------3-|--(3)------3--------|
|------------------|--------------------|
|------------------|--------------------|
|------------------|--------------------|
|------------------|--------------------|
|
|           ~~~~~~~~~~~~~~~
| Q.   +E   H         +H.          E  E
|-2----(2)s14------|-(14)S========13S12-|
|------------------|--------------------|
|------------------|--------------------|
|------------------|--------------------|
|------------------|--------------------|
|------------------|--------------------|
|------------------|--------------------|


  B                  A#
 ~~~~~~~~~~~~~~~~~~~~~~~~~~~~~~~~
  Q.    E   Q.   E    +E  E Q  H
|-------0---2------|------0-1----------------|
|-0----------------|-------------------------|
|----------------3-|--(3)------3-------------|
|------------------|-------------------------|
|------------------|-------------------------|
|------------------|-------------------------|
|------------------|-------------------------|
|
|           ~~~~~~~~~~~~~~~~~~~~~~~~~~~~
| Q.   +E   H         +H.          +E   S  S
|-2----(2)s14------|-(14)---------(14)S13S12-|
|------------------|-------------------------|
|------------------|-------------------------|
|------------------|-------------------------|
|------------------|-------------------------|
|------------------|-------------------------|
|------------------|-------------------------|


  B               A#
  Q.   E Q.   E   +E  E Q  H
|------0-2------|-----0-1-------|
|-0-------------|---------------|
|-------------3-|-(3)------3----|
|---------------|---------------|
|---------------|---------------|
|---------------|---------------|
|---------------|---------------|
|
| ~~~~~~~~~~~~~~~~~~~~
| W               +W
|-2-------------|-(2)-----------|
|---------------|---------------|
|---------------|---------------|
|---------------|---------------|
|---------------|---------------|
|---------------|---------------|
|---------------|---------------|


   Chorus
    F#                         C        B
     E     E     E     E     E  E     E  E
||--------------------------------------------|
||--------------------------------------------|
||o-------------------------------------------|
||--------------------------------------------|
||o-------------------------------------------|
||---------------1--------------------1--2----|
||---0-----0-----------0--------0-------------|
|
|   Gtr II
|    S  S  S  S  S  S  S  S  E  S  S  E  S  S
||-----------------------------20-20-20-19-19-|
||--19-19-19-19-19-19-19-19-19----------------|
||o----------------------------17-17-17-16-16-|
||--16-16-16-16-16-16-16-16-16----------------|
||o-------------------------------------------|
||--------------------------------------------|
||--------------------------------------------|


     F        C
   E  E     E  E     E     E     E     E
|-------------------------------------------|
|-------------------------------------------|
|-------------------------------------------|
|-------------------------------------------|
|-------------------------------------------|
|-----------1--------------------1-----2----|
|--0--0--------0-----------0----------------|
|
|  E  S  S  E  S  S  S  S  S  S  S  S  S  S
|-19----------------------------------------|
|----18-18-18-------------------------------|
|-16----------17-17-17-17-17-17-17-17-17-17-|
|----15-15-15-------------------------------|
|-------------15-15-15-15-15-15-15-15-15-15-|
|-------------------------------------------|
|-------------------------------------------|


  F#                         C        B       B F     C
   E     E     E     E     E  E     E  E      E E   E E   E   E   E   E
|-------------------------------------------|-------------------------------||
|-------------------------------------------|-------------------------------||
|-------------------------------------------|------------------------------o||
|-------------------------------------------|-------------------------------||
|-------------------------------------------|------------------------------o||
|--------------1--------------------1--2----|-------1-------------1---2-----||
|--0-----0-----------0--------0-------------|-0-0-----0-------0-------------||
|
|  S  S  S  S  S  S  S  S  E  S  S  E  S  S   E S S E S S S S S S S S S S
|----------------------------20-20-20-19-19-|-7-------8-8-8-8-8-8-8-8-8-8---||
|-19-19-19-19-19-19-19-19-19----------------|---6-6-6-----------------------||
|----------------------------17-17-17-16-16-|-4-------5-5-5-5-5-5-5-5-5-5--o||
|-16-16-16-16-16-16-16-16-16----------------|---3-3-3-----------------------||
|-------------------------------------------|------------------------------o||
|-------------------------------------------|-------------------------------||
|-------------------------------------------|-------------------------------||


   Interlude
    B              A#               B              A#
    Gtr III
    Q.   Q  Q  E   Q.   Q  Q  E  3x Q.   Q  Q  E   W
||-------0--2----|------0--2-----||------0--2----|-------------------|
||---------------|---------------||--------------|-------------------|
||o--------------|--------------o||--------------|-------------------|
||---------------|---------------||--------------|-------------------|
||o-2------------|-1------------o||-2------------|-1-----------------|
||---------------|---------------||--------------|-------------------|
||---------------|---------------||--------------|-------------------|
|
|   Gtr IV
|   Q.   Q  Q  E   Q.   Q  Q  E  3x Q.   Q  Q  E   Q  E  H      +E
||-------0-------|------0--------||------0-------|-------------------|
||----------3----|---------3-----||------3--3----|------<5>----(<5>)-|
||o--------------|--------------o||--------------|-------------------|
||---------------|---------------||--------------|-------------------|
||o-2------------|-1------------o||-2------------|-1-----------------|
||---------------|---------------||--------------|-------------------|
||---------------|---------------||--------------|-------------------|


    B
    Gtrs I, II
    E E E E S S E E E  7x E E E E S S E E E
||---------------------||-------------------|
||---------------------||-------------------|
||o-------------------o||-------------------|
||---------------------||-------------------|
||o-------------------o||-------------------|
||------1---------1----||-----1---------1---|
||--0-0---0---0-0---0--||-0-0---0---0-0-----|


  A#                   B
  Gtr I
  S S S S S T +T   Q    E Q
|-6-6-6-6-6-6-(6)-18---19----|
|----------------------------|
|-3-3-3-3-3-3-(3)-15---16----|
|----------------------------|
|----------------------------|
|----------------------------|
|-------------------------0--|
|
| Gtr II
| H                  H
|----------------------------|
|-5--------------------------|
|----------------------------|
|-2--------------------------|
|----------------------------|
|----------------------------|
|----------------------------|


  A#                   B       A#                   B
  S S S S S T +T   Q    E Q    S S S S S T +T   Q    E Q
|-6-6-6-6-6-6-(6)-18---19----|-6-6-6-6-6-6-(6)-18---19----|
|----------------------------|----------------------------|
|-3-3-3-3-3-3-(3)-15---16----|-3-3-3-3-3-3-(3)-15---16----|
|----------------------------|----------------------------|
|----------------------------|----------------------------|
|----------------------------|----------------------------|
|-------------------------0--|-------------------------0--|
|
| H                  H         H                  H
|----------------------------|----------------------------|
|-5--------------------------|-5--------------------------|
|----------------------------|----------------------------|
|-2--------------------------|-2--------------------------|
|----------------------------|----------------------------|
|----------------------------|----------------------------|
|----------------------------|----------------------------|


                 A#                  B       A#                  B
                 Gtrs I, II
  Wx4            S S S S S T +T   Q   E Q    S S S S S T +T   Q   E Q   4x
|------------||--6-6-6-6-6-6-(6)S18--19----|-6-6-6-6-6-6-(6)S18--19-----||
|------------||----------------------------|----------------------------||
|------------||o-3-3-3-3-3-3-(3)S15--16----|-3-3-3-3-3-3-(3)S15--16----o||
|------------||----------------------------|----------------------------||
|------------||o---------------------------|---------------------------o||
|------------||----------------------------|----------------------------||
|------------||-------------------------0--|------------------------0---||


   Out-Chorus
    B5     F#5  F5           G5     B5     F#5  F5           G5
    Gtr II
    Q.   E Q.   E   +E  E Q  H      Q.   E Q.   E   +E  E Q  H     4x
||-------0-2------|-----0-1-------|------0-2------|-----0-1--------||
||--0-------------|---------------|-0-------------|----------------||
||o-------------3-|-(3)------3----|-------------3-|-(3)------3----o||
||----------------|---------------|---------------|----------------||
||o---------------|---------------|---------------|---------------o||
||----------------|---------------|---------------|----------------||
||----------------|---------------|---------------|----------------||
|
|   Gtr I
|   H      Q.   E   +H       H      H      Q.   E   +H       H     4x
||----------------|---------------|---------------|----------------||
||----------------|---------------|---------------|----------------||
||o---------------|---------------|---------------|---------------o||
||---------4----3-|-(3)------5----|--------4----3-|-(3)------5-----||
||o-2------4----3-|-(3)------5----|-2------4----3-|-(3)------5----o||
||--2------2----1-|-(1)------3----|-2------2----1-|-(1)------3-----||
||--0-------------|---------------|-0-------------|----------------||


    A#              Bb  B         A#                  B
    Gtrs I, II
    S S S S S T +T   Q   E Q   3x S S S S S T +T   Q   E Q
||--6-6-6-6-6-6-(6)S18--19-----||-6-6-6-6-6-6-(6)S18--19----*|
||-----------------------------||---------------------------*|
||o-3-3-3-3-3-3-(3)S15--16----o||-3-3-3-3-3-3-(3)S15--16----*|
||-----------------------------||---------------------------*|
||o---------------------------o||---------------------------*|
||-----------------------------||---------------------------*|
||-------------------------0---||---------------------------*|




--------------------------------------------------------------------------------


Duration Legend
---------------
W - whole; H - half; Q - quarter; E - 8th; S - 16th; T - 32nd; X - 64th; a - acciaccatura
+ - note tied to previous; . - note dotted; .. - note double dotted
Uncapitalized letters represent notes that are staccato (1/2 duration)
Irregular groupings are notated above the duration line
Duration letters will always appear directly above the note/fret number it represents the
duration for.  Duration letters with no fret number below them represent rests.  Multi-
bar rests are notated in the form Wxn, where n is the number of bars to rest for.  Low
melody durations appear below the staff

Tablature Legend
----------------
 h   - hammer-on
 p   - pull-off
 b   - bend
 pb  - pre-bend
 r   - bend release (if no number after the r, then release immediately)
 /\  - slide into or out of (from/to "nowhere")
 s   - legato slide
 S   - shift slide
 - natural harmonic
[n]  - artificial harmonic
n(n) - tapped harmonic
 ~   - vibrato
 tr  - trill
 T   - tap
 TP  - trem. picking
 PM  - palm muting
\n/  - tremolo bar dip; n = amount to dip
 \n  - tremolo bar down
 n/  - tremolo bar up
/n\  - tremolo bar inverted dip
 =   - hold bend; also acts as connecting device for hammers/pulls
 <> - volume swell (louder/softer)
 x   - on rhythm slash represents muted slash
 o   - on rhythm slash represents single note slash

Misc Legend
-----------
 |  - bar
||  - double bar
||o - repeat start
o|| - repeat end
*|  - double bar (ending)
 :  - bar (freetime)
 $  - Segno
 &  - Coda
Tempo markers -  = BPM(8/16=s8/s16), where s8 = swing 8ths, s16 = swing 16ths

comments
We did not receive enough feedback on this tab! Please rate:
print report bad tab
1 2 3 4 5
I want to post or [tab]
guest
You may want to rate the tab now too:
select rating
Please do not post tabs as comments. Select "correction" instead!