Oops, an error
Loading. Please wait.

Beg For Me Tab

by Korn
ver4
ver4

Whole song

Interactive

More versions @911Tabs.com
379 views 1 this week
no commentswrite comment
1 2 3 4 5
please rate
Autoscroll
+/-
esc
set tempo
stop
Contributor
Difficulty
novice
Hey! There's an official Ultimate Guitar app which is ideal
for learning songs when you're away from computer. Get the app
WARNING: You are trying to view
                                    content from Ultimate-Guitar.com
                                    in an unauthorized application,
                                    which is prohibited.

                                    Please use an official Ultimate
                                    Guitar Tabs application for iPhone,
                                    iPad or Android to access legitimate
                                    chords, guitar, bass, and drum tabs
                                    from Ultimate-Guitar.com database.

                                    Type "ultimate guitar tabs" in Apple
                                    App Store's or Android Market's
                                    search to find the application.
Gtr I (A D G C F A D) - 'munky'
Gtr II (A D G C F A D) - 'head'
Gtr III (A D G C F A D) - 'munky vers'
Gtr IV (A D G C F A D) - 'head outro'


 Intro
  Q=90
 4/4
  Gtr III
  S S S S E S S S S E Q    S S S S E S S S S E Q
|------------------------|------------------------|
|------------------------|------------------------|
|------------------------|------------------------|
|------------------------|------------------------|
|-----6-----6---6--------|-----6-----6---6--------|
|------------------------|------------------------|
|-4-3---3-----3---3------|-4-3---3-----3---3------|


  S S S S E S S S S E Q    S S S S H.
|------------------------|---------------|
|------------------------|---------------|
|------------------------|---------------|
|------------------------|---------------|
|-----6-----6---6--------|-----6---------|
|------------------------|---------------|
|-4-3---3-----3---3------|-4-3---3-------|


   Chorus
    Gtr I
    E S S S E S E S S S S E   E S S S E S E S S S S E
||--------------------------|-------------------------|
||--------------------------|-------------------------|
||o-------------------------|-------------------------|
||--------------------------|-------------------------|
||o---6---6---6---6---6-----|---6---6---6---6---6-----|
||--------------------------|-------------------------|
||--3---3---3---3---3---3s7-|-3---3---3---3---3---3s4-|
|
|   Gtr II
|   E S S S E S E S S S S E   E S S S E S E S S S S E
||--------------------------|-------------------------|
||--------------------------|-------------------------|
||o-------------------------|-------------------------|
||--------------------------|-------------------------|
||o---6---6---6---6---6-5s9-|---6---6---6---6---6-----|
||--------------------------|-------------------------|
||--3---3---3---3---3-------|-3---3---3---3---3---3s4-|


  E S S S E S E S S S S E   E S S S E S E S S S S E
|-------------------------|----------------------------||
|-------------------------|----------------------------||
|-------------------------|---------------------------o||
|-------------------------|----------------------------||
|---6---6---6---6---6-----|---6---6---6---6---6-------o||
|-------------------------|----------------------------||
|-3---3---3---3---3---3s7-|-3---3---3---3---3---3s4----||
|
| E S S S E S E S S S S E   E S S S E S E S S S S E
|-------------------------|----------------------------||
|-------------------------|----------------------------||
|-------------------------|---------------------------o||
|-------------------------|----------------------------||
|---6---6---6---6---6-5s9-|---6---6---6---6---6-------o||
|-------------------------|----------------------------||
|-3---3---3---3---3-------|-3---3---3---3---3---3s4----||


 Vers
  Gtr III
  S S S S E S   S   S   S   E Q         S S S S E S   S   S   S   E Q
|-------------------------------------|-------------------------------------|
|-------------------------------------|-------------------------------------|
|-------------------------------------|-------------------------------------|
|-------------------------------------|-------------------------------------|
|-----6-----6-------6-----------------|-----6-----6-------6-----------------|
|-------------------------------------|-------------------------------------|
|-4-3---3-------3-------3-------------|-4-3---3-------3-------3-------------|
|
| Gtr II
| E   S S E T T T T T T T T E S S S S   E   S S E T T T T T T T T E S S S S
|-------------------------------------|-------------------------------------|
|-------------------------------------|-------------------------------------|
|-------------------------------------|-------------------------------------|
|-------------------------------------|-------------------------------------|
|-----x-----x---x---x---x-----x-x-x-x-|-----x-----x---x---x---x-----x-x-x-x-|
|-------------------------------------|-------------------------------------|
|-------x-----x---x---x---x-----------|-------x-----x---x---x---x-----------|


  S S S S E S   S   S   S   E Q         S S S S E S   S   S   S   E Q
|-------------------------------------|----------------------------------------|
|-------------------------------------|----------------------------------------|
|-------------------------------------|----------------------------------------|
|-------------------------------------|----------------------------------------|
|-----6-----6-------6-----------------|-----6-----6-------6--------------------|
|-------------------------------------|----------------------------------------|
|-4-3---3-------3-------3-------------|-4-3---3-------3-------3----------------|
|
| E   S S E T T T T T T T T E S S S S   E   S S E T T T T T T T T E S S S S
|-------------------------------------|----------------------------------------|
|-------------------------------------|----------------------------------------|
|-------------------------------------|----------------------------------------|
|-------------------------------------|----------------------------------------|
|-----x-----x---x---x---x-----x-x-x-x-|-----x-----x---x---x---x-----x-x-x-x----|
|-------------------------------------|----------------------------------------|
|-------x-----x---x---x---x-----------|-------x-----x---x---x---x--------------|


  S S S S E S   S   S   S   E Q         S S S S E S   S   S   S   E Q
|-------------------------------------|-------------------------------------|
|-------------------------------------|-------------------------------------|
|-------------------------------------|-------------------------------------|
|-------------------------------------|-------------------------------------|
|-----6-----6-------6-----------------|-----6-----6-------6-----------------|
|-------------------------------------|-------------------------------------|
|-4-3---3-------3-------3-------------|-4-3---3-------3-------3-------------|
|
| E   S S E T T T T T T T T E S S S S   E   S S E T T T T T T T T E S S S S
|-------------------------------------|-------------------------------------|
|-------------------------------------|-------------------------------------|
|-------------------------------------|-------------------------------------|
|-------------------------------------|-------------------------------------|
|-----x-----x---x---x---x-----x-x-x-x-|-----x-----x---x---x---x-----x-x-x-x-|
|-------------------------------------|-------------------------------------|
|-------x-----x---x---x---x-----------|-------x-----x---x---x---x-----------|


  S S S S E S   S   S   S   E Q         S S S S H.
|-------------------------------------|------------------------|
|-------------------------------------|------------------------|
|-------------------------------------|------------------------|
|-------------------------------------|------------------------|
|-----6-----6-------6-----------------|-----6------------------|
|-------------------------------------|------------------------|
|-4-3---3-------3-------3-------------|-4-3---3----------------|
|
| E   S S E T T T T T T T T E S S S S   E   S S T  T H    E.
|-------------------------------------|------------------------|
|-------------------------------------|------------------------|
|-------------------------------------|------------------------|
|-------------------------------------|------------------------|
|-----x-----x---x---x---x-----x-x-x-x-|-----x---x--------------|
|-------------------------------------|------------------------|
|-------x-----x---x---x---x-----------|-------x----x-----------|


   Chorus
    E S S S E S E S S S S E   E S S S E S E S S S S E
||--------------------------|-------------------------|
||--------------------------|-------------------------|
||o-------------------------|-------------------------|
||--------------------------|-------------------------|
||o---6---6---6---6---6-----|---6---6---6---6---6-----|
||--------------------------|-------------------------|
||--3---3---3---3---3---3s7-|-3---3---3---3---3---3s4-|
|
|   E S S S E S E S S S S E   E S S S E S E S S S S E
||--------------------------|-------------------------|
||--------------------------|-------------------------|
||o-------------------------|-------------------------|
||--------------------------|-------------------------|
||o---6---6---6---6---6-5s9-|---6---6---6---6---6-----|
||--------------------------|-------------------------|
||--3---3---3---3---3-------|-3---3---3---3---3---3s4-|


  E S S S E S E S S S S E   E S S S E S E S S S S E
|-------------------------|----------------------------||
|-------------------------|----------------------------||
|-------------------------|---------------------------o||
|-------------------------|----------------------------||
|---6---6---6---6---6-----|---6---6---6---6---6-------o||
|-------------------------|----------------------------||
|-3---3---3---3---3---3s7-|-3---3---3---3---3---3s4----||
|
| E S S S E S E S S S S E   E S S S E S E S S S S E
|-------------------------|----------------------------||
|-------------------------|----------------------------||
|-------------------------|---------------------------o||
|-------------------------|----------------------------||
|---6---6---6---6---6-5s9-|---6---6---6---6---6-------o||
|-------------------------|----------------------------||
|-3---3---3---3---3-------|-3---3---3---3---3---3s4----||


 Vers
  Gtr III
  S S S S E S   S   S   S   E Q         S S S S E S   S   S   S   E Q
|-------------------------------------|-------------------------------------|
|-------------------------------------|-------------------------------------|
|-------------------------------------|-------------------------------------|
|-------------------------------------|-------------------------------------|
|-----6-----6-------6-----------------|-----6-----6-------6-----------------|
|-------------------------------------|-------------------------------------|
|-4-3---3-------3-------3-------------|-4-3---3-------3-------3-------------|
|
| E   S S E T T T T T T T T E S S S S   E   S S E T T T T T T T T E S S S S
|-------------------------------------|-------------------------------------|
|-------------------------------------|-------------------------------------|
|-------------------------------------|-------------------------------------|
|-------------------------------------|-------------------------------------|
|-----x-----x---x---x---x-----x-x-x-x-|-----x-----x---x---x---x-----x-x-x-x-|
|-------------------------------------|-------------------------------------|
|-------x-----x---x---x---x-----------|-------x-----x---x---x---x-----------|


  S S S S E S   S   S   S   E Q         S S S S E S   S   S   S   E Q
|-------------------------------------|----------------------------------------|
|-------------------------------------|----------------------------------------|
|-------------------------------------|----------------------------------------|
|-------------------------------------|----------------------------------------|
|-----6-----6-------6-----------------|-----6-----6-------6--------------------|
|-------------------------------------|----------------------------------------|
|-4-3---3-------3-------3-------------|-4-3---3-------3-------3----------------|
|
| E   S S E T T T T T T T T E S S S S   E   S S E T T T T T T T T E S S S S
|-------------------------------------|----------------------------------------|
|-------------------------------------|----------------------------------------|
|-------------------------------------|----------------------------------------|
|-------------------------------------|----------------------------------------|
|-----x-----x---x---x---x-----x-x-x-x-|-----x-----x---x---x---x-----x-x-x-x----|
|-------------------------------------|----------------------------------------|
|-------x-----x---x---x---x-----------|-------x-----x---x---x---x--------------|


  S S S S E S   S   S   S   E Q         S S S S E S   S   S   S   E Q
|-------------------------------------|-------------------------------------|
|-------------------------------------|-------------------------------------|
|-------------------------------------|-------------------------------------|
|-------------------------------------|-------------------------------------|
|-----6-----6-------6-----------------|-----6-----6-------6-----------------|
|-------------------------------------|-------------------------------------|
|-4-3---3-------3-------3-------------|-4-3---3-------3-------3-------------|
|
| E   S S E T T T T T T T T E S S S S   E   S S E T T T T T T T T E S S S S
|-------------------------------------|-------------------------------------|
|-------------------------------------|-------------------------------------|
|-------------------------------------|-------------------------------------|
|-------------------------------------|-------------------------------------|
|-----x-----x---x---x---x-----x-x-x-x-|-----x-----x---x---x---x-----x-x-x-x-|
|-------------------------------------|-------------------------------------|
|-------x-----x---x---x---x-----------|-------x-----x---x---x---x-----------|


  S S S S E S   S   S   S   E Q         S S S S H.
|-------------------------------------|------------------------|
|-------------------------------------|------------------------|
|-------------------------------------|------------------------|
|-------------------------------------|------------------------|
|-----6-----6-------6-----------------|-----6------------------|
|-------------------------------------|------------------------|
|-4-3---3-------3-------3-------------|-4-3---3----------------|
|
| E   S S E T T T T T T T T E S S S S   E   S S T  T H    E.
|-------------------------------------|------------------------|
|-------------------------------------|------------------------|
|-------------------------------------|------------------------|
|-------------------------------------|------------------------|
|-----x-----x---x---x---x-----x-x-x-x-|-----x---x--------------|
|-------------------------------------|------------------------|
|-------x-----x---x---x---x-----------|-------x----x-----------|


 Chorus
  Gtr I
  E S S S E S E S S S S E   E S S S E S E S S S S E
|-------------------------|-------------------------|
|-------------------------|-------------------------|
|-------------------------|-------------------------|
|-------------------------|-------------------------|
|---6---6---6---6---6-----|---6---6---6---6---6-----|
|-------------------------|-------------------------|
|-3---3---3---3---3---3s7-|-3---3---3---3---3---3s4-|
|
| Gtr II
| E S S S E S E S S S S E   E S S S E S E S S S S E
|-------------------------|-------------------------|
|-------------------------|-------------------------|
|-------------------------|-------------------------|
|-------------------------|-------------------------|
|---6---6---6---6---6-5s9-|---6---6---6---6---6-----|
|-------------------------|-------------------------|
|-3---3---3---3---3-------|-3---3---3---3---3---3s4-|


  E S S S E S E S S S S E   E S S S E S E S S Q
|-------------------------|----------------------|
|-------------------------|----------------------|
|-------------------------|----------------------|
|-------------------------|----------------------|
|---6---6---6---6---6-----|---6---6---6---6------|
|-------------------------|----------------------|
|-3---3---3---3---3---3s7-|-3---3---3---3---3----|
|
| E S S S E S E S S S S E   E S S S E S E S S Q
|-------------------------|----------------------|
|-------------------------|----------------------|
|-------------------------|----------------------|
|-------------------------|----------------------|
|---6---6---6---6---6-5s9-|---6---6---6---6------|
|-------------------------|----------------------|
|-3---3---3---3---3-------|-3---3---3---3---3----|


  Gtr I
  E S S S E S E S S S S E   E S S S E S E S S S S E
|-------------------------|-------------------------|
|-------------------------|-------------------------|
|-------------------------|-------------------------|
|-------------------------|-------------------------|
|---6---6---6---6---6-----|---6---6---6---6---6-----|
|-------------------------|-------------------------|
|-3---3---3---3---3---3s7-|-3---3---3---3---3---3s4-|
|
| Gtr II
| E S S S E S E S S S S E   E S S S E S E S S S S E
|-------------------------|-------------------------|
|-------------------------|-------------------------|
|-------------------------|-------------------------|
|-------------------------|-------------------------|
|---6---6---6---6---6-5s9-|---6---6---6---6---6-----|
|-------------------------|-------------------------|
|-3---3---3---3---3-------|-3---3---3---3---3---3s4-|


  E S S S E S E S S S S E   E S S S E S E S S S S E
|-------------------------|----------------------------|
|-------------------------|----------------------------|
|-------------------------|----------------------------|
|-------------------------|----------------------------|
|---6---6---6---6---6-----|---6---6---6---6---6--------|
|-------------------------|----------------------------|
|-3---3---3---3---3---3s7-|-3---3---3---3---3---3s4----|
|
| E S S S E S E S S S S E   E S S S E S E S S S S E
|-------------------------|----------------------------|
|-------------------------|----------------------------|
|-------------------------|----------------------------|
|-------------------------|----------------------------|
|---6---6---6---6---6-5s9-|---6---6---6---6---6--------|
|-------------------------|----------------------------|
|-3---3---3---3---3-------|-3---3---3---3---3---3s4----|


   Heavy Interlude
    Bb5  C#aC#51/F#C5   F5 B5 A5  Bb5  C#aC#51/F#C5   F5 B5 A5
    Gtrs I, II
    Q.   Q  Q.     Q.   Q  Q  E   Q.   Q  Q.     Q.   Q  Q  E
||---------------|--------------|--------------|---------------||
||---------------|--------------|--------------|---------------||
||o------0-------|--------------|------0-------|--------------o||
||-------6-------|--------------|------6-------|---------------||
||o-3----6--6----|------5-----2-|-3----6--6----|------5-----2-o||
||--3----4--6----|-5----3--4--2-|-3----4--6----|-5----3--4--2--||
||--1-------4----|-3-------2--0-|-1-------4----|-3-------2--0--||


 Vers Variation
  Gtr III
  S S S S E S   S   S   S   E Q         S S S S E S   S   S   S   E Q
|-------------------------------------|-------------------------------------|
|-------------------------------------|-------------------------------------|
|-------------------------------------|-------------------------------------|
|-------------------------------------|-------------------------------------|
|-----6-----6-------6-----------------|-----6-----6-------6-----------------|
|-------------------------------------|-------------------------------------|
|-4-3---3-------3-------3-------------|-4-3---3-------3-------3-------------|
|
| Gtr II
| E   S S E T T T T T T T T E S S S S   E   S S E T T T T T T T T E S S S S
|-------------------------------------|-------------------------------------|
|-------------------------------------|-------------------------------------|
|-------------------------------------|-------------------------------------|
|-------------------------------------|-------------------------------------|
|-----x-----x---x---x---x-----x-x-x-x-|-----x-----x---x---x---x-----x-x-x-x-|
|-------------------------------------|-------------------------------------|
|-------x-----x---x---x---x-----------|-------x-----x---x---x---x-----------|


  S S S S E S   S   S   S   E Q         S S S S E S   S   S   S   E Q
|-------------------------------------|----------------------------------------|
|-------------------------------------|----------------------------------------|
|-------------------------------------|----------------------------------------|
|-------------------------------------|----------------------------------------|
|-----6-----6-------6-----------------|-----6-----6-------6--------------------|
|-------------------------------------|----------------------------------------|
|-4-3---3-------3-------3-------------|-4-3---3-------3-------3----------------|
|
| E   S S E T T T T T T T T E S S S S   E   S S E T T T T T T T T E S S S S
|-------------------------------------|----------------------------------------|
|-------------------------------------|----------------------------------------|
|-------------------------------------|----------------------------------------|
|-------------------------------------|----------------------------------------|
|-----x-----x---x---x---x-----x-x-x-x-|-----x-----x---x---x---x-----x-x-x-x----|
|-------------------------------------|----------------------------------------|
|-------x-----x---x---x---x-----------|-------x-----x---x---x---x--------------|


  S S S S E S   S   S   S   E Q         S S S S E S   S   S   S   E Q
|-------------------------------------|-------------------------------------|
|-------------------------------------|-------------------------------------|
|-------------------------------------|-------------------------------------|
|-------------------------------------|-------------------------------------|
|-----6-----6-------6-----------------|-----6-----6-------6-----------------|
|-------------------------------------|-------------------------------------|
|-4-3---3-------3-------3-------------|-4-3---3-------3-------3-------------|
|
| E   S S E T T T T T T T T E S S S S   E   S S E T T T T T T T T E S S S S
|-------------------------------------|-------------------------------------|
|-------------------------------------|-------------------------------------|
|-------------------------------------|-------------------------------------|
|-------------------------------------|-------------------------------------|
|-----x-----x---x---x---x-----x-x-x-x-|-----x-----x---x---x---x-----x-x-x-x-|
|-------------------------------------|-------------------------------------|
|-------x-----x---x---x---x-----------|-------x-----x---x---x---x-----------|


  S S S S E S   S   S   S   E Q         S S S S H.
|-------------------------------------|------------------------|
|-------------------------------------|------------------------|
|-------------------------------------|------------------------|
|-------------------------------------|------------------------|
|-----6-----6-------6-----------------|-----6------------------|
|-------------------------------------|------------------------|
|-4-3---3-------3-------3-------------|-4-3---3----------------|
|
| E   S S E T T T T T T T T E S S S S   E   S S T  T H    E.
|-------------------------------------|------------------------|
|-------------------------------------|------------------------|
|-------------------------------------|------------------------|
|-------------------------------------|------------------------|
|-----x-----x---x---x---x-----x-x-x-x-|-----x---x--------------|
|-------------------------------------|------------------------|
|-------x-----x---x---x---x-----------|-------x----x-----------|


   Chorus
    Gtr I
    E S S S E S E S S S S E   E S S S E S E S S S S E
||--------------------------|-------------------------|
||--------------------------|-------------------------|
||o-------------------------|-------------------------|
||--------------------------|-------------------------|
||o---6---6---6---6---6-----|---6---6---6---6---6-----|
||--------------------------|-------------------------|
||--3---3---3---3---3---3s7-|-3---3---3---3---3---3s4-|
|
|   Gtr II
|   E S S S E S E S S S S E   E S S S E S E S S S S E
||--------------------------|-------------------------|
||--------------------------|-------------------------|
||o-------------------------|-------------------------|
||--------------------------|-------------------------|
||o---6---6---6---6---6-5s9-|---6---6---6---6---6-----|
||--------------------------|-------------------------|
||--3---3---3---3---3-------|-3---3---3---3---3---3s4-|


  E S S S E S E S S S S E   E S S S E S E S S S S E
|-------------------------|----------------------------||
|-------------------------|----------------------------||
|-------------------------|---------------------------o||
|-------------------------|----------------------------||
|---6---6---6---6---6-----|---6---6---6---6---6-------o||
|-------------------------|----------------------------||
|-3---3---3---3---3---3s7-|-3---3---3---3---3---3s4----||
|
| E S S S E S E S S S S E   E S S S E S E S S S S E
|-------------------------|----------------------------||
|-------------------------|----------------------------||
|-------------------------|---------------------------o||
|-------------------------|----------------------------||
|---6---6---6---6---6-5s9-|---6---6---6---6---6-------o||
|-------------------------|----------------------------||
|-3---3---3---3---3-------|-3---3---3---3---3---3s4----||


  Gtr I
  E S S S E S  E  S S S S E   E S S S E S  E  S S S S E
|---------------------------|---------------------------|
|---------------------------|---------------------------|
|---------------------------|---------------------------|
|---------------------------|---------------------------|
|---6---6---6-----6---6-----|---6---6---6-----6---6-----|
|---------------------------|---------------------------|
|-3---3---3----3----3---3s7-|-3---3---3----3----3---3s4-|
|
| Gtr II
| E S S S E S  E  S S S S E   E S S S E S  E  S S S S E
|---------------------------|---------------------------|
|---------------------------|---------------------------|
|---------------------------|---------------------------|
|---------------------------|---------------------------|
|---6---6---6-----6---6-5s9-|---6---6---6-----6---6-----|
|---------------------------|---------------------------|
|-3---3---3----3----3-------|-3---3---3----3----3---3s4-|
|
| Gtr III
| <            >              <            >
| H           +H              H           +H
|---------------------------|---------------------------|
|-9-----------(9)-----------|-9-----------(9)-----------|
|---------------------------|---------------------------|
|-6-----------(6)-----------|-6-----------(6)-----------|
|---------------------------|---------------------------|
|---------------------------|---------------------------|
|---------------------------|---------------------------|


  E S S S E S  E  S S S S E   E S S S E S  E  S S S S E
|---------------------------|------------------------------|
|---------------------------|------------------------------|
|---------------------------|------------------------------|
|---------------------------|------------------------------|
|---6---6---6-----6---6-----|---6---6---6-----6---6--------|
|---------------------------|------------------------------|
|-3---3---3----3----3---3s7-|-3---3---3----3----3---3s4----|
|
| E S S S E S  E  S S S S E   E S S S E S  E  S S S S E
|---------------------------|------------------------------|
|---------------------------|------------------------------|
|---------------------------|------------------------------|
|---------------------------|------------------------------|
|---6---6---6-----6---6-5s9-|---6---6---6-----6---6--------|
|---------------------------|------------------------------|
|-3---3---3----3----3-------|-3---3---3----3----3---3s4----|
|
| <            >              <            >
| H           +H              H           +H
|---------------------------|------------------------------|
|-9-----------(9)-----------|-9-----------(9)--------------|
|---------------------------|------------------------------|
|-6-----------(6)-----------|-6-----------(6)--------------|
|---------------------------|------------------------------|
|---------------------------|------------------------------|
|---------------------------|------------------------------|


   Outro
    Bb5                Bb5
    Gtr I
    Q.    E     H      Q.    E     H
||-------------------|------------------|
||-------------------|------------------|
||o------------------|------------------|
||-------------------|------------------|
||o-3----------------|-3----------------|
||--3----------------|-3----------------|
||--1----------------|-1----------------|
|
|   Gtr II
|   Q.    E     H      Q.    E     H
||-------------------|------------------|
||-------------------|------------------|
||o-5----------------|-5----------------|
||--5----------------|-5----------------|
||o-3----------------|-3----------------|
||-------------------|------------------|
||-------------------|------------------|
|
|   Gtr IV
|   Q.    S  S  H      Q.    S  S  H
||-------------15----|------------18----|
||----------16-------|---------16-------|
||o------13----------|------13----------|
||-------------------|------------------|
||o------------------|------------------|
||-------------------|------------------|
||-------------------|------------------|


  Bb5                Bb5
  Q.    E     H      Q.    E     H
|------------------|-------------------||
|------------------|-------------------||
|------------------|------------------o||
|------------------|-------------------||
|-3----------------|-3----------------o||
|-3----------------|-3-----------------||
|-1----------------|-1-----------------||
|
| Q.    E     H      Q.    E     H
|------------------|-------------------||
|------------------|-------------------||
|-5----------------|-5----------------o||
|-5----------------|-5-----------------||
|-3----------------|-3----------------o||
|------------------|-------------------||
|------------------|-------------------||
|
| Q.    S  S  H      Q.    S  S  H
|------------15----|------------18-----||
|---------16-------|---------16--------||
|------13----------|------13----------o||
|------------------|-------------------||
|------------------|------------------o||
|------------------|-------------------||
|------------------|-------------------||




--------------------------------------------------------------------------------


Duration Legend
---------------
W - whole; H - half; Q - quarter; E - 8th; S - 16th; T - 32nd; X - 64th; a - acciaccatura
+ - note tied to previous; . - note dotted; .. - note double dotted
Uncapitalized letters represent notes that are staccato (1/2 duration)
Irregular groupings are notated above the duration line
Duration letters will always appear directly above the note/fret number it represents the
duration for.  Duration letters with no fret number below them represent rests.  Multi-
bar rests are notated in the form Wxn, where n is the number of bars to rest for.  Low
melody durations appear below the staff

Tablature Legend
----------------
 h   - hammer-on
 p   - pull-off
 b   - bend
 pb  - pre-bend
 r   - bend release (if no number after the r, then release immediately)
 /\  - slide into or out of (from/to "nowhere")
 s   - legato slide
 S   - shift slide
<n> - natural harmonic
[n]  - artificial harmonic
n(n) - tapped harmonic
 ~   - vibrato
 tr  - trill
 T   - tap
 TP  - trem. picking
 PM  - palm muting
\n/  - tremolo bar dip; n = amount to dip
 \n  - tremolo bar down
 n/  - tremolo bar up
/n\  - tremolo bar inverted dip
 =   - hold bend; also acts as connecting device for hammers/pulls
 <> - volume swell (louder/softer)
 x   - on rhythm slash represents muted slash
 o   - on rhythm slash represents single note slash

Misc Legend
-----------
 |  - bar
||  - double bar
||o - repeat start
o|| - repeat end
*|  - double bar (ending)
 :  - bar (freetime)
 $  - Segno
 &  - Coda
Tempo markers - <E/E./Q/Q./H/H.> = BPM(8/16=s8/s16), where s8 = swing 8ths, s16 = swing 16ths


comments
We did not receive enough feedback on this tab! Please rate:
print report bad tab
1 2 3 4 5
I want to post or [tab]
guest
You may want to rate the tab now too:
select rating
Please do not post tabs as comments. Select "correction" instead!