Oops, an error
Loading. Please wait.

Bitch We Got A Problem Tab

by Korn
ver2
ver2

Whole song

Interactive

More versions @911Tabs.com
2,544 views 1 this week
no commentswrite comment
1 2 3 4 5
excellent!
x 4
Autoscroll
+/-
esc
set tempo
stop
Contributor
Difficulty
intermediate
WARNING: You are trying to view
                                    content from Ultimate-Guitar.com
                                    in an unauthorized application,
                                    which is prohibited.

                                    Please use an official Ultimate
                                    Guitar Tabs application for iPhone,
                                    iPad or Android to access legitimate
                                    chords, guitar, bass, and drum tabs
                                    from Ultimate-Guitar.com database.

                                    Type "ultimate guitar tabs" in Apple
                                    App Store's or Android Market's
                                    search to find the application.
KoRn - Bitch We Got A Problem - Untitled

Tabbed by Elvisz (elvisz84@yahoo.com)
Tuning : 7 String Tuned Low to High (A D G C F a d)

Vocal: Jonathan Houseman Davis 'Hiv'
Guitar: James Randal Shaffer 'Munky'
Bass: Reginald Arvizu 'Fieldy'
Drums: Jonathan Houseman Davis 'Hiv'

Intro:
d|-----------------------------------------------------------------|
a|-15^-----15^-----15^-----15^-----15^-----15^-----15^-----15^-----|
F|-17^(19)-17^(19)-17^(19)-17^(19)-17^(19)-17^(19)-17^(19)-17^(19)-|
C|-----------------------------------------------------------------|
G|-----------------------------------------------------------------|
D|-----------------------------------------------------------------|
A|-----------------------------------------------------------------|

d|-----------------------------------------------------------------|
a|-18^-----18^-----18^-----18^-----18^-----18^-----18^-----18^-----|
F|-20^(22)-20^(22)-20^(22)-20^(22)-20^(22)-20^(22)-20^(22)-20^(22)-|
C|-----------------------------------------------------------------|
G|-----------------------------------------------------------------|
D|-----------------------------------------------------------------|
A|-----------------------------------------------------------------|

Verse:
(guitar1)
d|---------------------------------------------|
a|---------------------------------------------|
F|---------------------------------------------|
C|---------------------------------------------|
G|---------------------------------------------|
D|---------------------------------------------|
A|-9-7-9-777-9-777-710~~--9-7-9-777-9-777-97~~-|

d|-----------------------------------------|
a|-----------------------------------------|
F|-----------------------------------------|
C|-----------------------------------------|
G|-----------------------------------------|
D|-999-9-9-9-999-9-9-9-999-9-9-9-999-9-9-9-|
A|-777-7-7-7-777-7-7-7-777-7-7-7-777-7-7-7-|

(guitar2)
d|-----------------------------------------------------------------|
a|-15^-----15^-----15^-----15^-----15^-----15^-----15^-----15^-----|
F|-17^(19)-17^(19)-17^(19)-17^(19)-17^(19)-17^(19)-17^(19)-17^(19)-|
C|-----------------------------------------------------------------|
G|-----------------------------------------------------------------|
D|-----------------------------------------------------------------|
A|-----------------------------------------------------------------|

d|-----------------------------------------------------------------|
a|-18^-----18^-----18^-----18^-----18^-----18^-----18^-----18^-----|
F|-20^(22)-20^(22)-20^(22)-20^(22)-20^(22)-20^(22)-20^(22)-20^(22)-|
C|-----------------------------------------------------------------|
G|-----------------------------------------------------------------|
D|-----------------------------------------------------------------|
A|-----------------------------------------------------------------|

Chorus:
(guitar1)
d|---------------------------------------|
a|---------------------------------------|
F|---------------------------------------|
C|---------------------------------------|
G|-1111~~~~-1313~~~~-1212~~~~~-1111~~~~~-|
D|-1111~~~~-1313~~~~-1212~~~~~-1111~~~~~-|
A|- 9 9~~~~-1111~~~~-1010~~~~~- 9 9~~~~~-|
   ..       ..       ..        ..         .palm mute

(guitar2)
d|----------------------------------------------------------------|
a|-12------------12---------------16----12----14----12------------|
F|----13------------13---------------13----13----13----13---------|
C|-------12-11-9-------12-11-11/9-------------------------12-11-9-|
G|----------------------------------------------------------------|
D|----------------------------------------------------------------|
A|----------------------------------------------------------------|

d|--------------------------------------------------------------------|
a|-16----12----14----16----12----14----16----12----12-----------------|
F|----13----13----13----13----13----13----13----13----13--------------|
C|-------------------------------------------------------12-11-9------|
G|---------------------------------------------------------------11-9-|
D|--------------------------------------------------------------------|
A|--------------------------------------------------------------------|

Verse:
(guitar1)
d|---------------------------------------------|
a|---------------------------------------------|
F|---------------------------------------------|
C|---------------------------------------------|
G|---------------------------------------------|
D|---------------------------------------------|
A|-9-7-9-777-9-777-710~~--9-7-9-777-9-777-97~~-|

d|-----------------------------------------|
a|-----------------------------------------|
F|-----------------------------------------|
C|-----------------------------------------|
G|-----------------------------------------|
D|-999-9-9-9-999-9-9-9-999-9-9-9-999-9-9-9-|
A|-777-7-7-7-777-7-7-7-777-7-7-7-777-7-7-7-|

(guitar2)
d|-----------------------------------------------------------------|
a|-15^-----15^-----15^-----15^-----15^-----15^-----15^-----15^-----|
F|-17^(19)-17^(19)-17^(19)-17^(19)-17^(19)-17^(19)-17^(19)-17^(19)-|
C|-----------------------------------------------------------------|
G|-----------------------------------------------------------------|
D|-----------------------------------------------------------------|
A|-----------------------------------------------------------------|

d|-----------------------------------------------------------------|
a|-18^-----18^-----18^-----18^-----18^-----18^-----18^-----18^-----|
F|-20^(22)-20^(22)-20^(22)-20^(22)-20^(22)-20^(22)-20^(22)-20^(22)-|
C|-----------------------------------------------------------------|
G|-----------------------------------------------------------------|
D|-----------------------------------------------------------------|
A|-----------------------------------------------------------------|

Chorus:
(guitar1)
d|---------------------------------------|
a|---------------------------------------|
F|---------------------------------------|
C|---------------------------------------|
G|-1111~~~~-1313~~~~-1212~~~~~-1111~~~~~-|
D|-1111~~~~-1313~~~~-1212~~~~~-1111~~~~~-|
A|- 9 9~~~~-1111~~~~-1010~~~~~- 9 9~~~~~-|
   ..       ..       ..        ..         .palm mute

(guitar2)
d|----------------------------------------------------------------|
a|-12------------12---------------16----12----14----12------------|
F|----13------------13---------------13----13----13----13---------|
C|-------12-11-9-------12-11-11/9-------------------------12-11-9-|
G|----------------------------------------------------------------|
D|----------------------------------------------------------------|
A|----------------------------------------------------------------|

d|--------------------------------------------------------------------|
a|-16----12----14----16----12----14----16----12----12-----------------|
F|----13----13----13----13----13----13----13----13----13--------------|
C|-------------------------------------------------------12-11-9------|
G|---------------------------------------------------------------11-9-|
D|--------------------------------------------------------------------|
A|--------------------------------------------------------------------|

Bridge1:
d|-------------------------------------|
a|-------------------------------------|
F|-------------------------------------|
C|-------------------------------------|
G|-8\\5-55-5-55555/8\3-55-5-5-5555/8\3-|
D|-8\\5-55-5-55555/8\3-55-5-5-5555/8\3-|
A|-6\\3-33-3-33333/6\1-33-3-3-3333/6\1-|

Bridge2:
d|-------------------------|
a|-------------------------|
F|-------------------------|
C|-9/10/11/12--9~/10/11/12-|
G|-xxxxxxxxxx--xxxxxxxxxxx-|
D|-7/ 8/ 9/10--7~/ 8/ 9/10-|
A|-------------------------|

Bridge3:
(guitar1)
d|---------------------------------------------|
a|---------------------------------------------|
F|---------------------------------------------|
C|---------------------------------------------|
G|---------------------------------------------|
D|---------------------------------------------|
A|-9-7-9-777-9-777-710~~--9-7-9-777-9-777-97~~-|

(guitar2)
d|-----------------------------------|
a|-----------------------------------|
F|-----------------------------------|
C|-///18~~~~~16~~~~~15~~~~~13~~~~~~~-|
G|-----------------------------------|
D|-----------------------------------|
A|-----------------------------------|

Bridge4:
(guitar1)
d|---------------------------------------------|
a|---------------------------------------------|
F|---------------------------------------------|
C|---------------------------------------------|
G|---------------------------------------------|
D|---------------------------------------------|
A|-9-7-9-777-9-777-710~~--9-7-9-777-9-777-97~~-|

(guitar2)
d|-----------------------------------|
a|-----------------------------------|
F|-----------------------------------|
C|-///18~~~~~16~~~~~15~~~~~13~~~~~~~-|
G|-----------------------------------|
D|-----------------------------------|
A|-----------------------------------|

(guitar3)
d|----------------------------------------|
a|----------------------------------------|
F|----------------------------------------|
C|-1615-1615-1615-1615-1615--11-11-9-9-6--|
G|-xxxx-xxxx-xxxx-xxxx-xxxx--xx-xx-x-x-x--|
D|-1413-1413-1413-1413-1413-- 9- 9-7-7-4~-|
A|----------------------------------------|

Chorus:
(guitar1)
d|---------------------------------------|
a|---------------------------------------|
F|---------------------------------------|
C|---------------------------------------|
G|-1111~~~~-1313~~~~-1212~~~~~-1111~~~~~-|
D|-1111~~~~-1313~~~~-1212~~~~~-1111~~~~~-|
A|- 9 9~~~~-1111~~~~-1010~~~~~- 9 9~~~~~-|
   ..       ..       ..        ..         .palm mute

(guitar2)
d|----------------------------------------------------------------|
a|-12------------12---------------16----12----14----12------------|
F|----13------------13---------------13----13----13----13---------|
C|-------12-11-9-------12-11-11/9-------------------------12-11-9-|
G|----------------------------------------------------------------|
D|----------------------------------------------------------------|
A|----------------------------------------------------------------|

d|--------------------------------------------------------------------|
a|-16----12----14----16----12----14----16----12----12-----------------|
F|----13----13----13----13----13----13----13----13----13--------------|
C|-------------------------------------------------------12-11-9------|
G|---------------------------------------------------------------11-9-|
D|--------------------------------------------------------------------|
A|--------------------------------------------------------------------|

Bridge5:
(guitar1)
d|---------------------------------------|
a|---------------------------------------|
F|---------------------------------------|
C|---------------------------------------|
G|-1111~~~~-1313~~~~-1212~~~~~-1111~~~~~-|
D|-1111~~~~-1313~~~~-1212~~~~~-1111~~~~~-|
A|- 9 9~~~~-1111~~~~-1010~~~~~- 9 9~~~~~-|
   ..       ..       ..        ..         .palm mute

(guitar2)
d|--------------------------------|
a|--------------------------------|
F|-xx-16-161616-xx-16111113-13-xx-|
C|-xx-xx-xxxxxx-xx-xxxxxxxx-xx-xx-|
G|-xx-14-141414-xx-14 9 911-11-xx-|
D|--------------------------------|
A|--------------------------------|

d|--------------------------------|
a|--------------------------------|
F|-xx-16-161616-xx-1818^1818^^-xx-|
C|-xx-xx-xxxxxx-xx-xxxxxxxx-xx-xx-|
G|-xx-14-141414-xx-1616^1616^^-xx-|
D|--------------------------------|
A|--------------------------------|

Outro:
(guitar1)
d|---------------------------------------|
a|---------------------------------------|
F|---------------------------------------|
C|---------------------------------------|
G|-1111~~~~-1313~~~~-1212~~~~~-1111~~~~~-|
D|-1111~~~~-1313~~~~-1212~~~~~-1111~~~~~-|
A|- 9 9~~~~-1111~~~~-1010~~~~~- 9 9~~~~~-|
   ..       ..       ..        ..         .palm mute

(guitar2)
d|--------------------------------|
a|--------------------------------|
F|-xx-16-161616-xx-16111113-13-xx-|
C|-xx-xx-xxxxxx-xx-xxxxxxxx-xx-xx-|
G|-xx-14-141414-xx-14 9 911-11-xx-|
D|--------------------------------|
A|--------------------------------|

d|--------------------------------|
a|--------------------------------|
F|-xx-16-161616-xx-1818^1818^^-xx-|
C|-xx-xx-xxxxxx-xx-xxxxxxxx-xx-xx-|
G|-xx-14-141414-xx-1616^1616^^-xx-|
D|--------------------------------|
A|--------------------------------|

(guitar3;the last 8 times hec only bends the notes up and down)
d|-----------------------------------------------------------------|
a|-15^-----15^-----15^-----15^-----15^-----15^-----15^-----15^-----|
F|-17^(19)-17^(19)-17^(19)-17^(19)-17^(19)-17^(19)-17^(19)-17^(19)-|
C|-----------------------------------------------------------------|
G|-----------------------------------------------------------------|
D|-----------------------------------------------------------------|
A|-----------------------------------------------------------------|
comments
print report bad tab
I want to post or [tab]
guest
You may want to rate the tab now too:
select rating
Please do not post tabs as comments. Select "correction" instead!