Oops, an error
Loading. Please wait.

Follow The Leader Tab

by Korn
ver1
ver1

Album

More versions @911Tabs.com
16,399 views 18 this week
1 commentread comment
1 2 3 4 5
accurate
x 3
Autoscroll
+/-
esc
set tempo
stop
Contributor
WARNING: You are trying to view
                                    content from Ultimate-Guitar.com
                                    in an unauthorized application,
                                    which is prohibited.

                                    Please use an official Ultimate
                                    Guitar Tabs application for iPhone,
                                    iPad or Android to access legitimate
                                    chords, guitar, bass, and drum tabs
                                    from Ultimate-Guitar.com database.

                                    Type "ultimate guitar tabs" in Apple
                                    App Store's or Android Market's
                                    search to find the application.
Band  - Korn
Album - Follow The Leader
______________________________________________________________________________



KoRn - It's On! - Follow The Leader 

Tabbed by Elvisz (elvisz@kornkids.com)
Tuning : 7 String Tuned Low to High (A D G C F a d)

Intro1:(Guitar2 with Whammy)
d|----------------------------------|------------------------|
a|----------------------------------|------------------------|
F|----------------------------------|------------------------|  ^^^ = Whammy Pedal/Bar
C|---^^^  -1 1/2 -- ^^^ -1 ----- ^^^| +1/2  -1 ^^^  -1 ------|  -1, +1/2, etc = # of octaves
G|----2-------------(2)--(2)------2-|----------(2)------(2)--|  (This part thanks to James
D|----------------------------------|------------------------|  Frazzetto)
A|----------------------------------|------------------------|

Intro2:
d|----------------------12-|
a|-12---------------13-----|
F|---------12--11----------|
C|-------------------------|	(Guitar1 with tremolo)
G|-------------------------|
D|-------------------------|
A|-------------------------|

d|--------------------------------------|
a|--------------------------------------|
F|--------------------------------------|
C|--------------------------------------|	(Guitar2)	
G|--------------------------------------|
D|--------------------------------------|
A|-0---13/12p00-12--0----13/12p00-12--0-|
  ....................................... .Palm Mute
Fill1:
d|--------------------------------------|
a|--------------------------------------|
F|--------------------------------------|
C|--------------------------------------|	(Guitar2)	
G|--------------------------------------|
D|--------------------------------------|
A|-0---13/12p0--12--0----13/12p0--12--0-|
  ....................................... .Palm Mute

Pre-Verse:
(Guitar2)
d|--------------------------------------|--------------------------------------|
a|--------------------------------------|--------------------------------------|
F|--------------------------------------|--------------------------------------|
C|--------------------------------------|--------------------------------------|
G|--------------------------------------|---------------------------------X--3-|
D|--------------------------------------|---------------------------------X--3-|
A|-0---13/12p0--12--0----13/12p0--12--0-|-0---13/12p0--12--0---0-13/12p0--X--1-|

(Guitar1)
d|--------------------------------------|--------------------------------------|
a|--------------------------------------|---------------------------------12~~~|
F|--------------------------------------|--------------------------------------|
C|--------------------------------------|---------------------------------9~~~~|
G|--------------------------------------|--------------------------------------|
D|--------------------------------------|--------------------------------------|
A|-0---13/12p0--12--0----13/12p0--12--0-|-0---13/12p0--12--0---0-13/12p0-------|

Verse:
d|----------------------12-|-------------------|
a|-12---------------13-----|-12-------12-------|
F|---------12--11----------|----10-------12-11-|
C|-------------------------|-------14----------|	(Guitar1 with tremolo)
G|-------------------------|-------------------|
D|-------------------------|-------------------|
A|-------------------------|-------------------|

d|--------------------------------------|
a|--------------------------------------|
F|--------------------------------------|
C|--------------------------------------|	(Guitar2)	
G|--------------------------------------|
D|--------------------------------------|
A|-0---13/12p0--12--0----13/12p0--12--0-|
  ....................................... .Palm Mute

Pre-Verse:
(Guitar2)
d|--------------------------------------|--------------------------------------|
a|--------------------------------------|--------------------------------------|
F|--------------------------------------|--------------------------------------|
C|--------------------------------------|--------------------------------------|
G|--------------------------------------|---------------------------------X--3-|
D|--------------------------------------|---------------------------------X--3-|
A|-0---13/12p0--12--0----13/12p0--12--0-|-0---13/12p0--12--0---0-13/12p0--X--1-|

(Guitar1)
d|--------------------------------------|--------------------------------------|
a|--------------------------------------|---------------------------------12~~~|
F|--------------------------------------|--------------------------------------|
C|--------------------------------------|---------------------------------9~~~~|
G|--------------------------------------|--------------------------------------|
D|--------------------------------------|--------------------------------------|
A|-0---13/12p0--12--0----13/12p0--12--0-|-0---13/12p0--12--0---0-13/12p0-------|

Chorus:
d|-----------------------------------------------|
a|121212121010101010101012/13/101212121212121212-|
F|-----------------------------------------------|
C|-9-9-9-9-7-7-7-7-7-7-7-9/10/-7-9-9-9-9-9-9-9-9-|	(Guitar1)
G|-----------------------------------------------|
D|-----------------------------------------------|
A|-----------------------------------------------|

d|------------------------------------|
a|------------------------------------|
F|-------------------888999-----------|
C|------------------------------------|	(Guitar2)
G|-7-6---/11--3--2---666777--11--3--2-|
D|------------3--2---------------3--2-|
A|-5-4---/10--1--0-----------10--1--0-|

Fill2:

d|--------------------------------------|
a|--------------------------------------|
F|--------------------------------------|
C|--------------------------------------|	(Guitar2 with some effect)	
G|--------------------------------------|
D|-0---13/12p0--12--0----13/12p0--12--0-|
A|--------------------------------------|

Verse:
d|----------------------12-|-------------------|
a|-12---------------13-----|-12-------12-------|
F|---------12--11----------|----10-------12-11-|
C|-------------------------|-------14----------|	(Guitar1 with tremolo)
G|-------------------------|-------------------|
D|-------------------------|-------------------|
A|-------------------------|-------------------|

d|--------------------------------------|
a|--------------------------------------|
F|--------------------------------------|
C|--------------------------------------|	(Guitar2)	
G|--------------------------------------|
D|--------------------------------------|
A|-0---13/12p0--12--0----13/12p0--12--0-|
  ....................................... .Palm Mute

Pre-Verse:
(Guitar2)
d|--------------------------------------|--------------------------------------|
a|--------------------------------------|--------------------------------------|
F|--------------------------------------|--------------------------------------|
C|--------------------------------------|--------------------------------------|
G|--------------------------------------|---------------------------------X--3-|
D|--------------------------------------|---------------------------------X--3-|
A|-0---13/12p0--12--0----13/12p0--12--0-|-0---13/12p0--12--0---0-13/12p0--X--1-|

(Guitar1)
d|--------------------------------------|--------------------------------------|
a|--------------------------------------|---------------------------------12~~~|
F|--------------------------------------|--------------------------------------|
C|--------------------------------------|---------------------------------9~~~~|
G|--------------------------------------|--------------------------------------|
D|--------------------------------------|--------------------------------------|
A|-0---13/12p0--12--0----13/12p0--12--0-|-0---13/12p0--12--0---0-13/12p0-------|

Chorus:
d|-----------------------------------------------|
a|121212121010101010101012/13/101212121212121212-|
F|-----------------------------------------------|
C|-9-9-9-9-7-7-7-7-7-7-7-9/10/-7-9-9-9-9-9-9-9-9-|	(Guitar1)
G|-----------------------------------------------|
D|-----------------------------------------------|
A|-----------------------------------------------|

d|------------------------------------|
a|------------------------------------|
F|-------------------888999-----------|
C|------------------------------------|	(Guitar2)
G|-7-6---/11--3--2---666777--11--3--2-|
D|------------3--2---------------3--2-|
A|-5-4---/10--1--0-----------10--1--0-|

Bridge:
d|------------------------------------------|
a|------------------------------------------|
F|------------------------------------------|
C|-9^(1/2 step)\9--9--9--9--9--9^10\9--9h10-|
G|------------------------------------------|
D|------------------------------------------|
A|------------------------------------------|

Outro:
(Guitar2)
d|--------------------------------------|--------------------------------------|
a|--------------------------------------|--------------------------------------|
F|--------------------------------------|--------------------------------------|
C|--------------------------------------|--------------------------------------|
G|--------------------------------------|---------------------------------X--3-|
D|--------------------------------------|---------------------------------X--3-|
A|-0---13/12p0--12--0----13/12p0--12--0-|-0---13/12p0--12--0---0-13/12p0--X--1-|

(Guitar1)
d|--------------------------------------|--------------------------------------|
a|--------------------------------------|---------------------------------12~~~|
F|--------------------------------------|--------------------------------------|
C|--------------------------------------|---------------------------------9~~~~|
G|--------------------------------------|--------------------------------------|
D|--------------------------------------|--------------------------------------|
A|-0---13/12p0--12--0----13/12p0--12--0-|-0---13/12p0--12--0---0-13/12p0-------|

KoRn - Freak On A Leash - Follow The Leader 

Tabbed by Elvisz (elvisz@kornkids.com)
Tuning : 7 String Tuned Low to High (A D G C F a d)

Intro & Verse:

d|--------19------------|
a|-17---------18--------|
F|----------------------|
C|----------------------|	(Guitar1)
G|----------------------|
D|----------------------|
A|----------------------|

d|-------------------24-|
a|---------------22-----|
F|------------21--------|
C|----------------------|	(Guitar2)
G|----------------------|
D|----------------------|
A|----------------------|

Pre-Chorus:(Guitar1 & Guitar2)

d|-----------------|----------------------|
a|-----------------|----------------------|
F|-13/-14\-13---13-|-13/-14\-13---13---10-|
C|-----------------|----------------------|
G|-11/-12\-11---11-|-11/-12\-11---11---8--|
D|------------0----|------------0---------|
A|-----------------|----------------------|

Chorus:(Guitar1 & Guitar2)

d|---------------------|
a|---------------------|
F|---------------------|
C|-99-9-99-99----------|
G|-99-9-99-99-9-9-10-8-|
D|-77-7-77-77-9-9-10-8-|
A|------------7-7-8--6-|

Verse:


d|--------19------------|
a|-17---------18--------|
F|----------------------|
C|----------------------|	(Guitar1)
G|----------------------|
D|----------------------|
A|----------------------|

d|-------------------24-|
a|---------------22-----|
F|------------21--------|
C|----------------------|	(Guitar2)
G|----------------------|
D|----------------------|
A|----------------------|

Pre-Chorus:(Guitar1 & Guitar2)

d|-----------------|----------------------|
a|-----------------|----------------------|
F|-13/-14\-13---13-|-13/-14\-13---13---10-|
C|-----------------|----------------------|
G|-11/-12\-11---11-|-11/-12\-11---11---8--|
D|------------0----|------------0---------|
A|-----------------|----------------------|

Chorus:(Guitar1 & Guitar2)

d|---------------------|
a|---------------------|
F|---------------------|
C|-99-9-99-99----------|
G|-99-9-99-99-9-9-10-8-|
D|-77-7-77-77-9-9-10-8-|
A|------------7-7-8--6-|

Bridge1:

d|------------------------------------------|
a|------------------------------------------|
F|------------------------------------------|
C|------------------------------------------|	(Guitar2)
G|------------------------------------------|
D|-9-9-------9-9----------------------------|
A|------------------------------------------|

d|-----10-10-----10-10p9h10p9-|
a|----------------------------|
F|----------------------------|
C|----------------------------|	(Guitar1)
G|----------------------------|
D|----------------------------|
A|----------------------------|

Bridge2:(Guitar1 & Guitar2)

d|-----------|-----------|-----------|-----------|
a|-----------|-----------|-----------|-----------|
F|-----------|-----------|-----------|-----------|
C|-----------|-----------|-----------|-----------|
G|-4--5--6-7-|-4--5--6-7-|-4--5--6-7-|-4--5--4-3-|
D|-4--5--6-7-|-4--5--6-7-|-4--5--6-7-|-4--5--4-3-|
A|-2--3--4-5-|-2--3--4-5-|-2--3--4-5-|-2--3--2-1-|

Chorus:(Guitar1 & Guitar2)

d|---------------------|
a|---------------------|
F|---------------------|
C|-99-9-99-99----------|
G|-99-9-99-99-9-9-10-8-|
D|-77-7-77-77-9-9-10-8-|
A|------------7-7-8--6-|

Outro:

d|--7---------/19----\7--|---------8-----5--|
a|-----------------------|------------------|
F|-----------------------|------------------|
C|-----------------------|------------------|	(Guitar1)
G|-----------------------|------------------|
D|-----------------------|------------------|
A|-----------------------|------------------|

d|---------------------|
a|---------------------|
F|---------------------|
C|-99-9-99-99----------|	(Guitar2)
G|-99-9-99-99-9-9-10-8-|
D|-77-7-77-77-9-9-10-8-|
A|------------7-7-8--6-|

KoRn - Got The Life - Follow The Leader

Tabbed by Elvisz (elvisz@kornkids.com)
Tuning : 7 String Tuned Low to High (A D G C F a d)

Intro:
(Guitar1)
d|------------------------------------------------------------------------------------------|
a|-7777-77-7777-77-55555/88888/14141414141415-777777777-55555/888/15151515151515\7-7-777-77-|
F|------------------------------------------------------------------------------------------|
C|-4444-44-4444-44-22222/55555/11111111111112-444444444-22222/555/12121212121212\4-4-444-44-|
G|------------------------------------------------------------------------------------------|
D|------------------------------------------------------------------------------------------|
A|------------------------------------------------------------------------------------------|

d|-----------------------------------------------------|
a|-5555/88888/141414141414157777777-77-55555/888888888-|
F|-----------------------------------------------------|
C|-2222/55555/111111111111124444444-44-22222/555555555-|
G|-----------------------------------------------------|
D|-----------------------------------------------------|
A|-----------------------------------------------------|

(Guitar2)
d|-------------|---------------|
a|-------------|---------------|
F|-------------|---------------|
C|-----------8-|-----------(8)-|
G|-6~--4--7--8-|-6~--4--7--(8)-|
D|-6~--4--7--6-|-6~--4--7--(6)-|
A|-4~--2--5----|-4~--2--5------|

Fill1:(Guitar1)
d|------|
a|-8~~~-|
F|------|
C|-6~~~-|
G|------|
D|------|
A|------|

Verse:
d|-14-15-19-14-|-14-----19-14-|
a|-------------|-----17-------|
F|-------------|--------------|
C|-------------|--------------|	(Guitar2)
G|-------------|--------------|
D|-------------|--------------|
A|-------------|--------------|

Fill2:
d|-----------------------------------------------------------------|
a|-----------------------------------------------------------------|
F|-----------------------------------------------------------------|
C|-----------------------------------------------------------------| (Guitar1)
G|-44xx2244xxxx44xx44xx2244xxxx44xx44xx2244xxxx44xx44xx2244xxxx44xx|
D|-----------------------------------------------------------------|
A|-----------------------------------------------------------------|

Verse:
d|-14-15-19-14-|-14-----19-14-|
a|-------------|-----17-------|
F|-------------|--------------|
C|-------------|--------------|	(Guitar2)
G|-------------|--------------|
D|-------------|--------------|
A|-------------|--------------|

Chorus:
(Guitar1)
d|------------------------------------------------------------------------------------------|
a|-7777-77-7777-77-55555/88888/14141414141415-777777777-55555/888/15151515151515\7-7-777-77-|
F|------------------------------------------------------------------------------------------|
C|-4444-44-4444-44-22222/55555/11111111111112-444444444-22222/555/12121212121212\4-4-444-44-|
G|------------------------------------------------------------------------------------------|
D|------------------------------------------------------------------------------------------|
A|------------------------------------------------------------------------------------------|

d|-----------------------------------------------------|
a|-5555/88888/141414141414157777777-77-55555/888888888-|
F|-----------------------------------------------------|
C|-2222/55555/111111111111124444444-44-22222/555555555-|
G|-----------------------------------------------------|
D|-----------------------------------------------------|
A|-----------------------------------------------------|

(Guitar2)
d|-------------|---------------|
a|-------------|---------------|
F|-------------|---------------|
C|-----------8-|-----------(8)-|
G|-6~--4--7--8-|-6~--4--7--(8)-|
D|-6~--4--7--6-|-6~--4--7--(6)-|
A|-4~--2--5----|-4~--2--5------|

Bridge:
d|-----------|
a|-----------|
F|-----------|
C|-----------|	(Guitar2)
G|-----------|
D|-----------|
A|-4#########|

d|------------|---------|
a|----9----10-|----9----|
F|-8----10----|-8----10-|
C|------------|---------|	(Guitar1)
G|------------|---------|
D|------------|---------|
A|------------|---------|

d|-------13^13-----------13^-----|
a|-12^12-----------12^12---------|
F|-------------------------------|
C|-------------------------------|	(Guitar2)
G|-------------------------------|
D|-------------------------------|
A|-------------------------------|

d|-------------------------------|
a|-------------------------------|
F|-------------0---------------0-|
C|-------------3---------------3-|	(Guitar1)
G|-------------------------------|
D|-------------------------------|
A|-------------------------------|

Chorus:
(Guitar1)
d|------------------------------------------------------------------------------------------|
a|-7777-77-7777-77-55555/88888/14141414141415-777777777-55555/888/15151515151515\7-7-777-77-|
F|------------------------------------------------------------------------------------------|
C|-4444-44-4444-44-22222/55555/11111111111112-444444444-22222/555/12121212121212\4-4-444-44-|
G|------------------------------------------------------------------------------------------|
D|------------------------------------------------------------------------------------------|
A|------------------------------------------------------------------------------------------|

d|-----------------------------------------------------|
a|-5555/88888/141414141414157777777-77-55555/888888888-|
F|-----------------------------------------------------|
C|-2222/55555/111111111111124444444-44-22222/555555555-|
G|-----------------------------------------------------|
D|-----------------------------------------------------|
A|-----------------------------------------------------|

(Guitar2)
d|-------------|---------------|
a|-------------|---------------|
F|-------------|---------------|
C|-----------8-|-----------(8)-|
G|-6~--4--7--8-|-6~--4--7--(8)-|
D|-6~--4--7--6-|-6~--4--7--(6)-|
A|-4~--2--5----|-4~--2--5------|

KoRn - Dead Bodies Everywhere - Follow The Leader 

Tabbed by Elvisz (elvisz@kornkids.com)
Tuning : 7 String Tuned Low to High (A D G C F a d)

Intro:
d|---------21----------------------19-----|
a|-----19------19------19------19------19-|
F|-20--------------20------20-------------|
C|----------------------------------------|	(Guitar1)
G|----------------------------------------|
D|----------------------------------------|
A|----------------------------------------|

Chorus:(Guitar1 & Guitar2)
d|---------------------------|
a|---------------------------|
F|---------------------------|
C|---------------------------|
G|---------------------------|
D|-5\4-2-2--x-5\4-5\4--2-4---|
A|-3\2-0-0--x-3\2-3\2--0-2-0-|

Verse:
d|------------------------------------------|
a|-12~~~~~~~~~/19~~~~~20~~~/11~~~~~/19~~~17~|
F|------------------------------------------|
C|------------------------------------------|	(Guitar1)
G|------------------------------------------|
D|------------------------------------------|
A|------------------------------------------|

d|---------------------------X------------X-|
a|---------------------------X------------X-|
F|------------------------------------------|
C|------------------------------------------|	(Guitar2)
G|------------------------------------------|
D|-XX---------------------------------------|
A|-XX---------------------------------------|

Fill1:
d|--------|
a|-12--12-|
F|-14^----|
C|--------|
G|--------|
D|--------|
A|--------|

Chorus:(Guitar1 & Guitar2)
d|---------------------------|
a|---------------------------|
F|---------------------------|
C|---------------------------|
G|---------------------------|
D|-5\4-2-2--x-5\4-5\4--2-4---|
A|-3\2-0-0--x-3\2-3\2--0-2-0-|

Verse:
d|------------------------------------------|
a|-12~~~~~~~~~/19~~~~~20~~~/11~~~~~/19~~~17~|
F|------------------------------------------|
C|------------------------------------------|	(Guitar1)
G|------------------------------------------|
D|------------------------------------------|
A|------------------------------------------|

d|---------------------------X------------X-|
a|---------------------------X------------X-|
F|------------------------------------------|
C|------------------------------------------|	(Guitar2)
G|------------------------------------------|
D|-XX---------------------------------------|
A|-XX---------------------------------------|

Fill1:
d|--------|
a|-12--12-|
F|-14^----|
C|--------|
G|--------|
D|--------|
A|--------|

Chorus:(Guitar1 & Guitar2)
d|---------------------------|
a|---------------------------|
F|---------------------------|
C|---------------------------|
G|---------------------------|
D|-5\4-2-2--x-5\4-5\4--2-4---|
A|-3\2-0-0--x-3\2-3\2--0-2-0-|

Repeat intro:
d|---------21----------------------19-----|
a|-----19------19------19------19------19-|
F|-20--------------20------20-------------|
C|----------------------------------------|	(Guitar1)
G|----------------------------------------|
D|----------------------------------------|
A|----------------------------------------|

Bridge1:
(Guitar1)
d|-19--20-19-19-----|-----------------18-|-19--20-19-19----|------------|
a|--------------19--|--20-19--19---------|--------------19-|--20--18-19-|
F|------------------|------------17-17---|-----------------|------------|
C|------------------|--------------------|-----------------|------------|
G|------------------|--------------------|-----------------|------------|
D|------------------|--------------------|-----------------|------------|
A|------------------|--------------------|-----------------|------------|

(Guitar2 with volume pedal)
d|------------------|--------------------|-----------------|------------|
a|------------------|--------------------|-----------------|------------|
F|------------------|-------------8<-----|-----------------|---------8<-|
C|------------------|--------------------|-----------------|------------|
G|------------------|--------------------|-----------------|------------|
D|------------------|--------------------|-----------------|------------|
A|------------------|--------------------|-----------------|------------|

Bridge2:
d|-----0-------0-------0-------0--|
a|-----0-------0-------0-------0--|
F|-4---4---5---5---4---4---6---6--|
C|--------------------------------|	(Guitar2)
G|-2-------3-------2-------4------|
D|--------------------------------|
A|--------------------------------|

d|------------|
a|------------|
F|------------|
C|-4--6--4--7-|	(Guitar1)
G|-4--6--4--7-|
D|-2--4--2--5-|
A|------------|

Bridge3:(Guitar1 & Guitar2)
d|---------------|
a|---------------|
F|---------------|
C|---------------|
G|-3-3----4-4----|
D|-3-3----4-4----|
A|-1-1-0--2-2--0-|

Outro:
d|-----------|
a|-----------|
F|-----------|
C|-----------|	(Guitar2)
G|-4~~~~~~~~~|
D|-4~~~~~~~~~|
A|-2~~~~~~~~~|

d|---------21----------------------19-----|
a|-----19------19------19------19------19-|
F|-20--------------20------20-------------|
C|----------------------------------------|	(Guitar1)
G|----------------------------------------|
D|----------------------------------------|
A|----------------------------------------|

KoRn - Children Of The KoRn - Follow The Leader

Tabbed by Elvisz (elvisz@kornkids.com)
Tuning : 7 String Tuned Low to High (A D G C F a d)

Intro:
d|-14---15--------|---20--21--19-|--14---15-------|---20--21--19-|
a|----------------|--------------|----------------|--------------|
F|------------15--|--------------|------------15--|--------------|
C|----------------|--------------|----------------|--------------| (Guitar1)
G|----------------|--------------|----------------|--------------| (w. effect)
D|----------------|--------------|----------------|--------------|
A|----------------|--------------|----------------|--------------|

d|-12--12---------|--------------|----------------|------12------|
a|---------11-----|--------------|----------------|--------------|
F|------------9-8-|-7--------7-8-|--9---------9-8-|--7-----------|
C|----------------|--------------|----------------|--------------| (Guitar2)
G|----------------|--------------|----------------|--------------| (w. effect)
D|----------------|--------------|----------------|--------------|
A|----------------|--------------|----------------|--------------|

Chorus:(Guitar1 & Guitar2)
d|-------------------------|
a|-------------------------|
F|-------------------------|
C|-------------------------|
G|-3--3--3-3-3-3--3-3-3----|
D|-3--3--3-3-3-3--3-3-3----|
A|-1--1--1-1-1-1--1-1-1--0-|

Verse1:
d|------------------------------------------------------------15|
a|-14---15-14---13-12-13-12------14---15-14---13-12-13-12-------|
F|---------------------------12----------------------------12---|
C|--------------------------------------------------------------| (Guitar1)
G|--------------------------------------------------------------|
D|--------------------------------------------------------------|
A|--------------------------------------------------------------|

d|--------------------------------------------------------------|
a|--------------------------------------------------------------|
F|--------------------------------------------------------------|
C|--------------------------------------------------------------| (Guitar2)
G|-7----7-6-------------------9--7----7-6---------------------9-|
D|-7----7-6-------------------9--7----7-6---------------------9-|
A|-5----5-4-------------------7--5----5-4---------------------7-|

Chorus:(Guitar1 & Guitar2)
d|-------------------------|
a|-------------------------|
F|-------------------------|
C|-------------------------|
G|-3--3--3-3-3-3--3-3-3----|
D|-3--3--3-3-3-3--3-3-3----|
A|-1--1--1-1-1-1--1-1-1--0-|

Intro again:
d|-14---15--------|---20--21--19-|--14---15-------|---20--21--19-|
a|----------------|--------------|----------------|--------------|
F|------------15--|--------------|------------15--|--------------|
C|----------------|--------------|----------------|--------------| (Guitar1)
G|----------------|--------------|----------------|--------------| (w. effect)
D|----------------|--------------|----------------|--------------|
A|----------------|--------------|----------------|--------------|

d|-12--12---------|--------------|----------------|------12------|
a|---------11-----|--------------|----------------|--------------|
F|------------9-8-|-7--------7-8-|--9---------9-8-|--7-----------|
C|----------------|--------------|----------------|--------------| (Guitar2)
G|----------------|--------------|----------------|--------------| (w. effect)
D|----------------|--------------|----------------|--------------|
A|----------------|--------------|----------------|--------------|

Verse1:
d|------------------------------------------------------------15|
a|-14---15-14---13-12-13-12------14---15-14---13-12-13-12-------|
F|---------------------------12----------------------------12---|
C|--------------------------------------------------------------| (Guitar1)
G|--------------------------------------------------------------|
D|--------------------------------------------------------------|
A|--------------------------------------------------------------|

d|--------------------------------------------------------------|
a|--------------------------------------------------------------|
F|--------------------------------------------------------------|
C|--------------------------------------------------------------| (Guitar2)
G|-7----7-6-------------------9--7----7-6---------------------9-|
D|-7----7-6-------------------9--7----7-6---------------------9-|
A|-5----5-4-------------------7--5----5-4---------------------7-|

Bridge:

d|-16---(16)-14-16---16---(16)-14-16-|
a|-----------------------------------|
F|-----------------------------------|
C|-----------------------------------|	(Guitar1)
G|-----------------------------------|
D|-----------------------------------|
A|-----------------------------------|

Verse1:
d|------------------------------------------------------------15|
a|-14---15-14---13-12-13-12------14---15-14---13-12-13-12-------|
F|---------------------------12----------------------------12---|
C|--------------------------------------------------------------| (Guitar1)
G|--------------------------------------------------------------|
D|--------------------------------------------------------------|
A|--------------------------------------------------------------|

d|--------------------------------------------------------------|
a|--------------------------------------------------------------|
F|--------------------------------------------------------------|
C|--------------------------------------------------------------| (Guitar2)
G|-7----7-6-------------------9--7----7-6---------------------9-|
D|-7----7-6-------------------9--7----7-6---------------------9-|
A|-5----5-4-------------------7--5----5-4---------------------7-|

KoRn - B.B.K.(Big Black Kock) - Follow The Leader 

Tabbed by Elvisz (elvisz@kornkids.com)
Tuning : 7 String Tuned Low to High (A D G C F a d)

Intro1:(Guitar1 with wah)
d|---------------------------------|
a|-3-3-3-3-3-3-3-3-3-3-4-4-4-4-4-4-|
F|---------------------------------|
C|---------------------------------|
G|---------------------------------|
D|---------------------------------|
A|---------------------------------|

Intro2:(Guitar1 & Guitar2)
d|-6--6--6--6--6--6/18-----19-----|
a|--------------------------------|
F|-3--3--3--3--3--3/15-----16-----|
C|--------------------------------|
G|------------------------------2-|
D|------------------------------2-|
A|------------------------------0-|

Verse:
d|----------------------14------------------|
a|-------17---------------------------------|
F|------------------------------------------|
C|------------------------------------------|	(Guitar1)
G|------------------------------------------|
D|------------------------------------------|
A|------------------------------------------|

d|----0--2------0--2-----|
a|-----------------------|
F|-----------------------|
C|-----------------------|	(Guitar2)
G|-2---------1-----------|
D|-----------------------|
A|-----------------------|

Intro2:(Guitar1 & Guitar2)
d|-6--6--6--6--6--6/18-----19-----|
a|--------------------------------|
F|-3--3--3--3--3--3/15-----16-----|
C|--------------------------------|
G|------------------------------2-|
D|------------------------------2-|
A|------------------------------0-|

Verse:
d|----------------------14------------------|
a|-------17---------------------------------|
F|------------------------------------------|
C|------------------------------------------|	(Guitar1)
G|------------------------------------------|
D|------------------------------------------|
A|------------------------------------------|

d|----0--2------0--2-----|
a|-----------------------|
F|-----------------------|
C|-----------------------|	(Guitar2)
G|-2---------1-----------|
D|-----------------------|
A|-----------------------|

Chorus:
d|--------------------202020191919--------20202020202020202020-|
a|-191919191919191919--------------181818----------------------|
F|--------------------171717161616--------17171717171717171717-|
C|-161616161616161616--------------151515----------------------| (Guitar1)	
G|-------------------------------------------------------------|
D|-------------------------------------------------------------|
A|-------------------------------------------------------------|

                           7X                        
d|--------------------------|-----------------------|
a|--------------------------|-----------------------|
F|--------------------------|-----------------------|
C|----------3--------3--3-4-|----------3--------3---|	(Guitar2)
G|--------------------------|-----------------------|
D|----------1--------1--1-2-|----------1--------1---|
A|-0-0-0-0-----0---0--------|-0-0-0-0-----0---0---0-|

Verse2:
d|--------------------------------------------------------|
a|-7--(7)/19~~~7--(7)/19~~~\17\16--7--(7)/19~~~\12\11---7-|
F|--------------------------------------------------------|
C|--------------------------------------------------------|	(Guitar1)
G|--------------------------------------------------------|
D|--------------------------------------------------------|
A|--------------------------------------------------------|

d|----0--2------0--2-----|
a|--0--------------------|
F|-----------3-----------|
C|-----------------------|	(Guitar2)
G|-----------------------|
D|-----------------------|
A|-----------------------|

Chorus:
d|--------------------202020191919--------20202020202020202020-|
a|-191919191919191919--------------181818----------------------|
F|--------------------171717161616--------17171717171717171717-|
C|-161616161616161616--------------151515----------------------| (Guitar1)	
G|-------------------------------------------------------------|
D|-------------------------------------------------------------|
A|-------------------------------------------------------------|

                           7X                        
d|--------------------------|-----------------------|
a|--------------------------|-----------------------|
F|--------------------------|-----------------------|
C|----------3--------3--3-4-|----------3--------3---|	(Guitar2)
G|--------------------------|-----------------------|
D|----------1--------1--1-2-|----------1--------1---|
A|-0-0-0-0-----0---0--------|-0-0-0-0-----0---0---0-|

Bridge1:
d|-----0--------0--2--|----0-------------|
a|--------3-----------|-------3-------5*-|
F|--------------------|------------------|
C|--------------------|------------------|	(Guitar1)
G|-2---------1--------|-2--------1-------|
D|--------------------|------------------|
A|--------------------|------------------|

Bridge2:(Guitar1 & Guitar2)
d|----------------------|
a|----------------------|
F|----------------------|
C|--------3--------3----|
G|----------------------|
D|--------1--------1----|
A|-0--00----0--000----0-|

Intro2:(Guitar1 & Guitar2)
d|-6--6--6--6--6--6/18-----19-----|
a|--------------------------------|
F|-3--3--3--3--3--3/15-----16-----|
C|--------------------------------|
G|------------------------------2-|
D|------------------------------2-|
A|------------------------------0-|

Outro1:

d|----0--2------0--2-----|
a|-----------------------|
F|-----------------------|
C|-----------------------|	(Guitar1)
G|-2---------1-----------|
D|-----------------------|
A|-----------------------|

d|---------------|
a|---------------|
F|---------------|
C|-----4---3---5-|	(Guitar2)
G|-2---4---3---5-|
D|-2---2---1---3-|
A|-0-------------|

Outro2:
d|--------------------202020191919--------20202020202020202020-|
a|-191919191919191919--------------181818----------------------|
F|--------------------171717161616--------17171717171717171717-|
C|-161616161616161616--------------151515----------------------| (Guitar1)	
G|-------------------------------------------------------------|
D|-------------------------------------------------------------|
A|-------------------------------------------------------------|

d|---------------|
a|---------------|
F|---------------|
C|-----4---3---5-|	(Guitar2)
G|-2---4---3---5-|
D|-2---2---1---3-|
A|-0-------------|

Last:(Guitar1 & Guitar2)
d|-6--6--6--6--6--6/18-----19-----|
a|--------------------------------|
F|-3--3--3--3--3--3/15-----16-----|
C|--------------------------------|
G|------------------------------2-|
D|------------------------------2-|
A|------------------------------0-|

KoRn - Pretty - Follow The Leader 

Tabbed by Elvisz (elvisz@kornkids.com)
Tuning : 7 String Tuned Low to High (A D G C F a d)

Intro:
d|--------------------|
a|--------------------|
F|--------------------|
C|--------------------| (Guitar1 with wah)
G|-9--99-99--9--99-99-|
D|-9--99-99--9--99-99-|
A|-7--77-77--7--77-77-|

d|--------------------|
a|--------------------|
F|--------------------|
C|--------------------| (Guitar1 & Guitar2 with wah)
G|-9--99-99--9--99-99-|
D|-9--99-99--9--99-99-|
A|-7--77-77--7--77-77-|

Verse:
d|-----------------------|
a|-----------------------|
F|-----------------------|
C|-----------------------|	(Guitar2)
G|-------9-7--------9/10-|
D|-----9----------9------|
A|-7-7--------7-7--------|

Chorus:(Guitar2)
d|--------------|
a|--------------|
F|--------------|
C|-2--44--------|
G|-2--44--5--33-|
D|-0--22--5--33-|
A|--------3--11-|

Verse:
d|-----------------------|
a|-----------------------|
F|-----------------------|
C|-----------------------|	(Guitar2)
G|-------9-7--------9/10-|
D|-----9----------9------|
A|-7-7--------7-7--------|

Chorus:(Guitar2)
d|--------------|
a|--------------|
F|--------------|
C|-2--44--------|
G|-2--44--5--33-|
D|-0--22--5--33-|
A|--------3--11-|

Bridge:
d|--------------------|
a|--------------------|
F|--------------------|
C|--------------------| (Guitar1 with wah)
G|-9--99-99--9--99-99-|
D|-9--99-99--9--99-99-|
A|-7--77-77--7--77-77-|

d|--------------------|
a|--------------------|
F|--------------------|
C|--------------------| (Guitar1 & Guitar2 with wah)
G|-9--99-99--9--99-99-|
D|-9--99-99--9--99-99-|
A|-7--77-77--7--77-77-|

Chorus:(Guitar2)
d|--------------|
a|--------------|
F|--------------|
C|-2--44--------|
G|-2--44--5--33-|
D|-0--22--5--33-|
A|--------3--11-|

Fill:(Guitar2)
d|--------|
a|--------|
F|--------|
C|-2--44--|
G|-2--44--|
D|-0--22--|
A|--------|

KoRn - All In The Family - Follow The Leader 

Tabbed by Elvisz (elvisz@kornkids.com)
Tuning : 7 String Tuned Low to High (A D G C F a d)

Intro:
d|-----0-0-------5---|
a|-----7-7-------6-0-|
F|-----------------5-|
C|-------------------|	(Guitar1)
G|-------------------|
D|-2--------2-2------|
A|-0--------0-0------|
   .        . .       . Palm mute

Verse1:(Guitar1 & Guitar2)
d|-----0-0-------5---|
a|-----7-7-------6-0-|
F|-----------------5-|
C|-------------------|
G|-------------------|
D|-2--------2-2------|
A|-0--------0-0------|
   .        . .       . Palm mute

Fill1:(Guitar1 & Guitar2)
d|-----0-0---------|
a|-----7-7---------|
F|-----------------|
C|-----------------|
G|-----------------|
D|-2--------2-2--2-|
A|-0--------0-0--0-|
   .        . .       . Palm mute

Pre-Chorus1:

d|-7(12)---------6(11)-------5(10)--4(9)------|
a|--------5(10)---------4(9)-------------3(8)-|
F|--------------------------------------------|
C|--------------------------------------------|	(Guitar1 with harmonics)
G|--------------------------------------------|
D|--------------------------------------------|
A|--------------------------------------------|

d|----------------------------------|
a|--12-x-x-x----12-x--x-x-x-x--x--x-|
F|--12-x-x-x----12-x--x-x-x-x--x--x-|
C|----------------------------------|	(Guitar2)
G|----------------------------------|
D|----------------------------------|
A|----------------------------------|

Fill2:(Guitar2)
d|-----------------------------|
a|--12-x-x-x----12-12-12-12-12-|
F|--12-x-x-x----12-12-12-12-12-|
C|-----------------------------|
G|-----------------------------|
D|-----------------------------|
A|-----------------------------|

Pre-Chorus2:
d|-----------------------------------|
a|-----------------------19-20-19-20-|
F|-18--18--18--18--18--18------------|
C|-----------------------------------|	(Guitar1)
G|-----------------------------------|
D|-----------------------------------|
A|-----------------------------------|

d|------------------------|
a|------------------------|
F|------------------------|
C|------------------------|	(Guitar2)
G|------------------------|
D|-4--4--4--4--2--2--5--5-|
A|-2--2--2--2--0--0--3--3-|

Pre-Chorus1:

d|-7(12)---------6(11)-------5(10)--4(9)------|
a|--------5(10)---------4(9)-------------3(8)-|
F|--------------------------------------------|
C|--------------------------------------------|	(Guitar1 with harmonics)
G|--------------------------------------------|
D|--------------------------------------------|
A|--------------------------------------------|

d|----------------------------------|
a|--12-x-x-x----12-x--x-x-x-x--x--x-|
F|--12-x-x-x----12-x--x-x-x-x--x--x-|
C|----------------------------------|	(Guitar2)
G|----------------------------------|
D|----------------------------------|
A|----------------------------------|

Fill2:(Guitar2)
d|-----------------------------|
a|--12-x-x-x----12-12-12-12-12-|
F|--12-x-x-x----12-12-12-12-12-|
C|-----------------------------|
G|-----------------------------|
D|-----------------------------|
A|-----------------------------|

Pre-Chorus2:
d|-----------------------------------|
a|-----------------------19-20-19-20-|
F|-18--18--18--18--18--18------------|
C|-----------------------------------|	(Guitar1)
G|-----------------------------------|
D|-----------------------------------|
A|-----------------------------------|

d|------------------------|
a|------------------------|
F|------------------------|
C|------------------------|	(Guitar2)
G|------------------------|
D|-4--4--4--4--2--2--5--5-|
A|-2--2--2--2--0--0--3--3-|

Chorus:(Guitar1 & Guitar2)
d|-----0-0-------5---|
a|-----7-7-------6-0-|
F|-----------------5-|
C|-------------------|
G|-------------------|
D|-2--------2-2------|
A|-0--------0-0------|
   .        . .       . Palm mute

Pre-Chorus2:
d|-----------------------------------|
a|-----------------------19-20-19-20-|
F|-18--18--18--18--18--18------------|
C|-----------------------------------|	(Guitar1)
G|-----------------------------------|
D|-----------------------------------|
A|-----------------------------------|

d|------------------------|
a|------------------------|
F|------------------------|
C|------------------------|	(Guitar2)
G|------------------------|
D|-4--4--4--4--2--2--5--5-|
A|-2--2--2--2--0--0--3--3-|

Pre-Chorus1:

d|-7(12)---------6(11)-------5(10)--4(9)------|
a|--------5(10)---------4(9)-------------3(8)-|
F|--------------------------------------------|
C|--------------------------------------------|	(Guitar1 with harmonics)
G|--------------------------------------------|
D|--------------------------------------------|
A|--------------------------------------------|

d|----------------------------------|
a|--12-x-x-x----12-x--x-x-x-x--x--x-|
F|--12-x-x-x----12-x--x-x-x-x--x--x-|
C|----------------------------------|	(Guitar2)
G|----------------------------------|
D|----------------------------------|
A|----------------------------------|

Chorus:(Guitar1 & Guitar2)
d|-----0-0-------5---|
a|-----7-7-------6-0-|
F|-----------------5-|
C|-------------------|
G|-------------------|
D|-2--------2-2------|
A|-0--------0-0------|
   .        . .       . Palm mute

Pre-Chorus1:

d|-7(12)---------6(11)-------5(10)--4(9)------|
a|--------5(10)---------4(9)-------------3(8)-|
F|--------------------------------------------|
C|--------------------------------------------|	(Guitar1 with harmonics)
G|--------------------------------------------|
D|--------------------------------------------|
A|--------------------------------------------|

d|----------------------------------|
a|--12-x-x-x----12-x--x-x-x-x--x--x-|
F|--12-x-x-x----12-x--x-x-x-x--x--x-|
C|----------------------------------|	(Guitar2)
G|----------------------------------|
D|----------------------------------|
A|----------------------------------|

Pre-Chorus2:
d|-----------------------------------|
a|-----------------------19-20-19-20-|
F|-18--18--18--18--18--18------------|
C|-----------------------------------|	(Guitar1)
G|-----------------------------------|
D|-----------------------------------|
A|-----------------------------------|

d|------------------------|
a|------------------------|
F|------------------------|
C|------------------------|	(Guitar2)
G|------------------------|
D|-4--4--4--4--2--2--5--5-|
A|-2--2--2--2--0--0--3--3-|

Pre-Chorus1:

d|-7(12)---------6(11)-------5(10)--4(9)------|
a|--------5(10)---------4(9)-------------3(8)-|
F|--------------------------------------------|
C|--------------------------------------------|	(Guitar1 with harmonics)
G|--------------------------------------------|
D|--------------------------------------------|
A|--------------------------------------------|

d|----------------------------------|
a|--12-x-x-x----12-x--x-x-x-x--x--x-|
F|--12-x-x-x----12-x--x-x-x-x--x--x-|
C|----------------------------------|	(Guitar2)
G|----------------------------------|
D|----------------------------------|
A|----------------------------------|

Pre-Chorus2:
d|-----------------------------------|
a|-----------------------19-20-19-20-|
F|-18--18--18--18--18--18------------|
C|-----------------------------------|	(Guitar1)
G|-----------------------------------|
D|-----------------------------------|
A|-----------------------------------|

d|------------------------|
a|------------------------|
F|------------------------|
C|------------------------|	(Guitar2)
G|------------------------|
D|-4--4--4--4--2--2--5--5-|
A|-2--2--2--2--0--0--3--3-|

Chorus:(Guitar1 & Guitar2)
d|-----0-0-------5---|
a|-----7-7-------6-0-|
F|-----------------5-|
C|-------------------|
G|-------------------|
D|-2--------2-2------|
A|-0--------0-0------|
   .        . .       . Palm mute

KoRn - Reclaim My Place - Follow The Leader

Tabbed by Elvisz (elvisz@kornkids.com)
Tuning : 7 String Tuned Low to High (A D G C F a d)

Intro:(Guitar2)
d|--------------------|
a|--------------------|
F|--------------------|
C|--------------------|
G|--------10101099988-|
D|--------------------|
A|-00-000-------------|

Chorus:(Guitar1 & Guitar2)
d|-------------------------|
a|-------------------------|
F|-------------------------|
C|-------//1212121111111010|
G|-------------------------|
D|-22-222//101010-9-9-9-8-8|
A|-00-000------------------|

Verse:(Guitar1 & Guitar2)
d|----------------------|
a|----------------------|
F|----------------------|
C|-4-----------4--------|
G|-4--4/5\4\3--4--4/5\3-|
D|-2--4/5\4\3--2--4/5\3-|
A|----2/3\2\1-----2/3\1-|

Chorus:(Guitar1 & Guitar2)
d|-------------------------|
a|-------------------------|
F|-------------------------|
C|-------//1212121111111010|
G|-------------------------|
D|-22-222//101010-9-9-9-8-8|
A|-00-000------------------|

Verse:(Guitar1 & Guitar2)
d|----------------------|
a|----------------------|
F|----------------------|
C|-4-----------4--------|
G|-4--4/5\4\3--4--4/5\3-|
D|-2--4/5\4\3--2--4/5\3-|
A|----2/3\2\1-----2/3\1-|

Chorus:(Guitar1 & Guitar2)
d|-------------------------|
a|-------------------------|
F|-------------------------|
C|-------//1212121111111010|
G|-------------------------|
D|-22-222//101010-9-9-9-8-8|
A|-00-000------------------|

Bridge1:(Guitar2)
d|---------------------------|
a|----13----12----11----10---|
F|------------------------10-|
C|-10----10----10----10------|
G|---------------------------|
D|---------------------------|
A|---------------------------|

Verse:(Guitar1 & Guitar2)
d|----------------------|
a|----------------------|
F|----------------------|
C|-4-----------4--------|
G|-4--4/5\4\3--4--4/5\3-|
D|-2--4/5\4\3--2--4/5\3-|
A|----2/3\2\1-----2/3\1-|

Chorus:(Guitar1 & Guitar2)
d|-------------------------|
a|-------------------------|
F|-------------------------|
C|-------//1212121111111010|
G|-------------------------|
D|-22-222//101010-9-9-9-8-8|
A|-00-000------------------|

Bridge2:(Guitar1)
d|--------------------|
a|--------------------|
F|--------------------|
C|--------------------|
G|--------------------|
D|--------10101099988-|
A|-00-000-------------|

Chorus:(Guitar1 & Guitar2)
d|-------------------------|
a|-------------------------|
F|-------------------------|
C|-------//1212121111111010|
G|-------------------------|
D|-22-222//101010-9-9-9-8-8|
A|-00-000------------------|

Outro:(Guitar1 & Guitar2)
d|-------------------|
a|-------------------|
F|-------------------|
C|-------------------|
G|---------555-444-3-|
D|-22-222--555-444-3-|
A|-00-000--333-222-1-|

KoRn - Justin - Follow The Leader
 
Tabbed by Elvisz (elvisz@kornkids.com)
Tuning : 7 String Tuned Low to High (A D G C F a d)

Intro:(Guitar2 with effect)
d|-----------------------------------------|
a|-----------------------------------------|
F|-----------------------------------------|
C|-----------------------------------------|
G|-----------------------------------------|
D|-----------------------------------------|
A|-15p12--0-12-15p12--0--0--14p11-0--14p11-|

Chorus:(Guitar1 & Guitar2)
d|-----------------------------------------|
a|-----------------------------------------|
F|-----------------------------------------|
C|-----------------------------------------|
G|-----------------------------------------|
D|-----------------------------------------|
A|-0-00-0--0-0-00-0--0-000-00-0-0-00-6-0-6-|
   . .. .  . . .. .  .   .  . . . .. . . .   .Palm Mute

Verse:
d|-21^^-22-21--------------|
a|-------------------------|
F|----------------------14-|
C|------------------11-----|	(Guitar1)
G|-------------------------|
D|-------------4-----------|
A|-------------------------|

d|-----------------------------------------|
a|-----------------------------------------|
F|-----------------------------------------|
C|-----------------------------------------|	(Guitar2)
G|-----------------------------------------|
D|-----------------------------------------|
A|-15p12--0-12-15p12--0--0--14p11-0--14p11-|
    .  .  .  .  .  .  .  .   .  . .   .  .  .Palm Mute

Chorus:(Guitar1 & Guitar2)
d|-----------------------------------------|
a|-----------------------------------------|
F|-----------------------------------------|
C|-----------------------------------------|
G|-----------------------------------------|
D|-----------------------------------------|
A|-0-00-0--0-0-00-0--0-000-00-0-0-00-6-0-6-|
   . .. .  . . .. .  .   .  . . . .. . . .   .Palm Mute

Verse:
d|-21^^-22-21--------------|
a|-------------------------|
F|----------------------14-|
C|------------------11-----|	(Guitar1)
G|-------------------------|
D|-------------4-----------|
A|-------------------------|

d|-----------------------------------------|
a|-----------------------------------------|
F|-----------------------------------------|
C|-----------------------------------------|	(Guitar2)
G|-----------------------------------------|
D|-----------------------------------------|
A|-15p12--0-12-15p12--0--0--14p11-0--14p11-|
    .  .  .  .  .  .  .  .   .  . .   .  .  .Palm Mute

Chorus:(Guitar1 & Guitar2)
d|-----------------------------------------|
a|-----------------------------------------|
F|-----------------------------------------|
C|-----------------------------------------|
G|-----------------------------------------|
D|-----------------------------------------|
A|-0-00-0--0-0-00-0--0-000-00-0-0-00-6-0-6-|
   . .. .  . . .. .  .   .  . . . .. . . .   .Palm Mute

Brdige1:(Guitar1 & Guitar2)
d|---------------------------------------|---------------------------------------|
a|---------------------------------------|---------------------------------------|
F|---------------------------------------|---------------------------------------|
C|---------------------------------------|---------------------------------------|
G|---------------------------------------|---------------------------------------|
D|-2----8--4--5--2-4-5--2-8--7--5--2-4-5-|-2---8--7--5--9-2-9---2-8--7--5--9-2-9-|
A|-0----6--5--3--0-2-3--0-6--5--3--0-2-3-|-0---6--5--3--7-0-7---0-6--5--3--7-0-7-|

Bridge2:(Guitar2 with effect)
d|-----------------------------------------|
a|-----------------------------------------|
F|-----------------------------------------|
C|-----------------------------------------|
G|-----------------------------------------|
D|-----------------------------------------|
A|-15p12--0-12-15p12--0--0--14p11-0--14p11-|

Chorus:(Guitar1 & Guitar2)
d|-----------------------------------------|
a|-----------------------------------------|
F|-----------------------------------------|
C|-----------------------------------------|
G|-----------------------------------------|
D|-----------------------------------------|
A|-0-00-0--0-0-00-0--0-000-00-0-0-00-6-0-6-|
   . .. .  . . .. .  .   .  . . . .. . . .   .Palm Mute

Bridge3:(Guitar1 & Guitar2)
d|-----------------|
a|-----------------|
F|------4^---------|
C|-----------------|
G|---------------3-|
D|---------------3-|
A|-000-----0-000-1-|

Chorus:(Guitar1 & Guitar2)
d|-----------------------------------------|
a|-----------------------------------------|
F|-----------------------------------------|
C|-----------------------------------------|
G|-----------------------------------------|
D|-----------------------------------------|
A|-0-00-0--0-0-00-0--0-000-00-0-0-00-6-0-6-|
   . .. .  . . .. .  .   .  . . . .. . . .   .Palm Mute

Outro:(Guitar1)
d|-21^^-22-21-|-------------|
a|------------|-------------|
F|------------|----------14-|
C|------------|------11-----|	(Guitar1)
G|------------|-------------|
D|------------|-4-----------|
A|------------|-------------|

KoRn - Seed - Follow The Leader 

Tabbed by Elvisz (elvisz@kornkids.com)
Tuning : 7 String Tuned Low to High (A D G C F a d)

Intro:
(Guitar2 with effect)
d|-22^~~21^2122^20~~20^212018~~|
a|-----------------------------|
F|-----------------------------|
C|-----------------------------|
G|-----------------------------|
D|-----------------------------|
A|-----------------------------|

(Guitar1 with vibratio)
d|----------------------------|
a|----------------------------|
F|----9@@@----9@@@--10@-9@-7@-|
C|----------------------------|
G|-7@------7@-----------------|
D|----------------------------|
A|----------------------------|

Chorus:(Guitar1 & Guitar2)
d|------------------------------|
a|------------------------------|
F|------------------------------|
C|------1313\1213------1010\910-|
G|------1313\1213------1010\910-|
D|------1111\1011-------8-8\7-8-|
A|-0-0-------------0-0----------|

Verse:(Guitar1)
d|---------------------------------------|
a|---------------------------------------|
F|-13XX13^X13X13^X13---13XX13^X13X13^X12-| X means scratching
C|---------------------------------------|
G|---------------------------------------|
D|---------------------------------------|
A|---------------------------------------|

Chorus:(Guitar1 & Guitar2)
d|------------------------------|
a|------------------------------|
F|------------------------------|
C|------1313\1213------1010\910-|
G|------1313\1213------1010\910-|
D|------1111\1011-------8-8\7-8-|
A|-0-0-------------0-0----------|

Verse:(Guitar1)
d|---------------------------------------|
a|---------------------------------------|
F|-13XX13^X13X13^X13---13XX13^X13X13^X12-| X means scratching
C|---------------------------------------|
G|---------------------------------------|
D|---------------------------------------|
A|---------------------------------------|

Chorus:(Guitar1 & Guitar2)
d|------------------------------|
a|------------------------------|
F|------------------------------|
C|------1313\1213------1010\910-|
G|------1313\1213------1010\910-|
D|------1111\1011-------8-8\7-8-|
A|-0-0-------------0-0----------|

Bridge1:(Guitar2 with effect)
d|-22^~~21^2122^20~~20^242018~~|
a|-----------------------------|
F|-----------------------------|
C|-----------------------------|
G|-----------------------------|
D|-----------------------------|
A|-----------------------------|

Bridge2:(Guitar1 & Guitar2)
d|-----------|
a|-----------|
F|-----------|
C|-----------|
G|-4--3--6--3|
D|-4--3--6--3|
A|-2--1--4--1|

Bridge1:(Guitar2 with effect)
d|-22^~~21^2122^20~~20^242018~~|
a|-----------------------------|
F|-----------------------------|
C|-----------------------------|
G|-----------------------------|
D|-----------------------------|
A|-----------------------------|

Bridge2:(Guitar1 & Guitar2)
d|-----------|
a|-----------|
F|-----------|
C|-----------|
G|-4--3--6--3|
D|-4--3--6--3|
A|-2--1--4--1|

Chorus:(Guitar1 & Guitar2)
d|------------------------------|
a|------------------------------|
F|------------------------------|
C|------1313\1213------1010\910-|
G|------1313\1213------1010\910-|
D|------1111\1011-------8-8\7-8-|
A|-0-0-------------0-0----------|

Outro:(Guitar1)
d|-----------|
a|-----------|
F|-----------|
C|-----------|
G|-2~~~~~~~~~|
D|-2~~~~~~~~~|
A|-0~~~~~~~~~|

KoRn - Cameltosis - Follow The Leader 

Tabbed by Elvisz (elvisz@kornkids.com)
Tuning : 7 String Tuned Low to High (A D G C F a d)

Intro:
d|-----------|
a|-----------|
F|-----------|
C|-----------|	(Guitar1 sounds like a sitar)
G|-7--7-7--7-|
D|-7--7-7--7-|
A|-5--5-5--5-|

d|--------------|
a|--------------|
F|-5-5------5---|
C|--------4---4-|	(Guitar2 sounds like a sitar)
G|--------------|
D|--------------|
A|--------------|

Verse:(Guitar1)
d|-------------------|-----------------|
a|-------------------|-----------------|
F|-------------------|-----------------|
C|-7~~~11~~~6~~~10~~~|-7~~~11~~~6~~~~~~|
G|-------------------|-----------------|
D|-5~~~9~~~~4~~~8~~~~|-5~~~9~~~~4~~~~~~|
A|-------------------|-----------------|
	
Pre-Chorus:(Guitar2)
d|----------------------|
a|-99999999996666666666-|
F|----------------------|
C|----------------------|
G|----------------------|
D|----------------------|
A|----------------------|

Chorus:(Guitar1 & Guitar2)
d|--------------------------------------|
a|--------------------------------------|
F|----------------------------------20^-|
C|---11-12-----11-12----11-12-----------|
G|-9-11-12--99-11-12--9-11-12--99---17^-|
D|-9--9-10--99--9-10--9--9-10--99-------|
A|-7--------77--------7--------77-------|

Verse:(Guitar1)
d|-------------------|-----------------|
a|-------------------|-----------------|
F|-------------------|-----------------|
C|-7~~~11~~~6~~~10~~~|-7~~~11~~~6~~~~~~|
G|-------------------|-----------------|
D|-5~~~9~~~~4~~~8~~~~|-5~~~9~~~~4~~~~~~|
A|-------------------|-----------------|

Pre-Chorus:(Guitar2)
d|----------------------|
a|-99999999996666666666-|
F|----------------------|
C|----------------------|
G|----------------------|
D|----------------------|
A|----------------------|

Chorus:(Guitar1 & Guitar2)
d|--------------------------------------|
a|--------------------------------------|
F|----------------------------------20^-|
C|---11-12-----11-12----11-12-----------|
G|-9-11-12--99-11-12--9-11-12--99---17^-|
D|-9--9-10--99--9-10--9--9-10--99-------|
A|-7--------77--------7--------77-------|

Verse:(Guitar1)
d|-------------------|-----------------|
a|-------------------|-----------------|
F|-------------------|-----------------|
C|-7~~~11~~~6~~~10~~~|-7~~~11~~~6~~~~~~|
G|-------------------|-----------------|
D|-5~~~9~~~~4~~~8~~~~|-5~~~9~~~~4~~~~~~|
A|-------------------|-----------------|

Chorus:(Guitar1 & Guitar2)
d|--------------------------------------|
a|--------------------------------------|
F|----------------------------------20^-|
C|---11-12-----11-12----11-12-----------|
G|-9-11-12--99-11-12--9-11-12--99---17^-|
D|-9--9-10--99--9-10--9--9-10--99-------|
A|-7--------77--------7--------77-------|

KoRn - My Gift To You - Follow The Leader 

Tabbed by Elvisz (elvisz@kornkids.com)
Tuning : 7 String Tuned Low to High (A D G C F a d)

Intro:

d|-------------|
a|-------------|
F|-------------|
C|-------------|	(Guitar1)
G|--7----8--8--|
D|--7----8--8--|
A|--5----6--6--|

Fill1:(Guitar1 & Guitar2)

d|------------------------|
a|------------------------|
F|------------------------|
C|------------------------|	
G|--4-4-4--4-4-4--4-4-4-4-|
D|--4-4-4--4-4-4--4-4-4-4-|
A|--2-2-2--2-2-2--2-2-2-2-|

Verse:(Guitar1 & Guitar2)

d|---------------|------------|---------------|------------|
a|---------------|------------|---------------|------------|
F|---------------|------------|---------------|------------|
C|---------------|------------|---------------|------------|
G|--4-4-4--4-4-4-|---4-4-4-4--|--4-4-4--4-4-4-|---4-4-4-3--|
D|--4-4-4--4-4-4-|---4-4-4-4--|--4-4-4--4-4-4-|---4-4-4-3--|
A|--2-2-2--2-2-2-|---2-2-2-2--|--2-2-2--2-2-2-|---2-2-2-1--|

Fill2:(Guitar1 & Guitar2)

d|---------|
a|---------|
F|---------|
C|---------|
G|-4-4-3-2-|
D|-4-4-3-2-|
A|-2-2-1-0-|

Chorus:

d|------------------------|--------------------------|
a|----------0-----------0-|----------0------------0--|
F|------4-----------4-----|------4----------4--------|
C|--2-----------2---------|--3-----------0-----3-----|	(Guitar1)
G|------------------------|--------------------------|
D|------------------------|--------------------------|
A|------------------------|--------------------------|

d|------------------------|--------------------------|
a|------------------------|--------------------------|
F|------------------------|--------------------------|
C|------------------------|--------------------------|	(Guitar2)
G|--7---------------------|--8-----------5-----8-----|
D|--7---------------------|--8-----------5-----8-----|
A|--5---------------------|--6-----------3-----6-----|

Verse:(Guitar1 & Guitar2)

d|---------------|------------|---------------|------------|
a|---------------|------------|---------------|------------|
F|---------------|------------|---------------|------------|
C|---------------|------------|---------------|------------|
G|--4-4-4--4-4-4-|---4-4-4-4--|--4-4-4--4-4-4-|---4-4-4-3--|
D|--4-4-4--4-4-4-|---4-4-4-4--|--4-4-4--4-4-4-|---4-4-4-3--|
A|--2-2-2--2-2-2-|---2-2-2-2--|--2-2-2--2-2-2-|---2-2-2-1--|

Fill2:(Guitar1 & Guitar2)

d|---------|
a|---------|
F|---------|
C|---------|
G|-4-4-3-2-|
D|-4-4-3-2-|
A|-2-2-1-0-|

Chorus:

d|------------------------|--------------------------|
a|----------0-----------0-|----------0------------0--|
F|------4-----------4-----|------4----------4--------|
C|--2-----------2---------|--3-----------0-----3-----|	(Guitar1)
G|------------------------|--------------------------|
D|------------------------|--------------------------|
A|------------------------|--------------------------|

d|------------------------|--------------------------|
a|------------------------|--------------------------|
F|------------------------|--------------------------|
C|------------------------|--------------------------|	(Guitar2)
G|--7---------------------|--8-----------5-----8-----|
D|--7---------------------|--8-----------5-----8-----|
A|--5---------------------|--6-----------3-----6-----|

Bridge1:

d|-------------------|-----------------------|
a|-------------------|-----------------------|
F|-------------------|-----------------------|
C|-------4--------4--|-------4------4-----4--|	(Guitar1)
G|-------------------|-----------------------|
D|--2---------2------|--3--------0-----3-----|
A|-------------------|-----------------------|

d|--*7-----------|---------------|---------------|-----------*12-|
a|---------------|------------*7-|--*7-----------|---------------|
F|---------------|--------*5-----|---------------|---------------|
C|---------------|---------------|---------------|---------------| (Guitar2)
G|---------------|---------------|---------------|---------------|
D|---------------|---------------|---------------|---------------|
A|---------------|---------------|---------------|---------------|

Bridge2:

d|---------------|---------------|--------------|-------------|
a|---------------|---------------|--------------|-------------|
F|--13-----------|--14-----11----|--13----------|--14----/18--|
C|---x-----------|---x------x----|---x----------|---x------x--|	(Guitar1)
G|--11-----------|--12------9----|--11----------|--12----/16--|
D|---------------|---------------|--------------|-------------|
A|---------------|---------------|--------------|-------------|

d|---------------|---------------|--------------|-------------|
a|---------------|---------------|--------------|-------------|
F|---------------|---------------|--------------|-------------|
C|---------------|---------------|--------------|-------------|	(Guitar2)
G|--7------------|--8-----5--5-8-|--7-----------|--8----5-5-8-|
D|--7------------|--8-----5--5-8-|--7-----------|--8----5-5-8-|
A|--5------------|--6-----3--3-6-|--5-----------|--6----3-3-6-|

Fill3:

d|---------------|---------------|--------------|-------------|
a|---------------|---------------|--------------|-------------|
F|--10~~~~~~~~~--|---------------|--10~~~~~~~~--|-------------|
C|---x-----------|---------------|---x----------|-------------|	(Guitar1)
G|---8~~~~~~~~~--|---------------|---8~~~~~~~~--|-------------|
D|---------------|---------------|--------------|-------------|
A|---------------|---------------|--------------|-------------|

d|---------------|---------------|--------------|-------------|
a|---------------|---------------|--------------|-------------|
F|---------------|---------------|--------------|-------------|
C|--8-----8-8--8-|-9-----6-6-9-9-|--8----8-8--8-|-9---6-6-9-9-|	(Guitar2)
G|--7-----7-7--7-|-8-----5-5-8-8-|--7----7-7--7-|-8---5-5-8-8-|
D|--6-----6-6--6-|-7-----4-4-7-7-|--6----6-6--6-|-7---4-4-7-7-|
A|--5-----5-5--5-|-6-----3-3-6-6-|--5----5-5--5-|-6---3-3-6-6-|

Fill4:(Guitar1 & Guitar2)

d|---------------|-----------|
a|---------------|-----------|
F|---------------|-----------|
C|---------------|-----------|
G|--2-2-2--2-2-2-|---2-2-2-3-|
D|--2-2-2--2-2-2-|---2-2-2-3-|
A|--0-0-0--0-0-0-|---0-0-0-1-|

Verse:(Guitar1 & Guitar2)

d|---------------|------------|---------------|------------|
a|---------------|------------|---------------|------------|
F|---------------|------------|---------------|------------|
C|---------------|------------|---------------|------------|
G|--4-4-4--4-4-4-|---4-4-4-4--|--4-4-4--4-4-4-|---4-4-4-3--|
D|--4-4-4--4-4-4-|---4-4-4-4--|--4-4-4--4-4-4-|---4-4-4-3--|
A|--2-2-2--2-2-2-|---2-2-2-2--|--2-2-2--2-2-2-|---2-2-2-1--|

Chorus:

d|------------------------|--------------------------|
a|----------0-----------0-|----------0------------0--|
F|------4-----------4-----|------4----------4--------|
C|--2-----------2---------|--3-----------0-----3-----|	(Guitar1)
G|------------------------|--------------------------|
D|------------------------|--------------------------|
A|------------------------|--------------------------|

d|------------------------|--------------------------|
a|------------------------|--------------------------|
F|------------------------|--------------------------|
C|------------------------|--------------------------|	(Guitar2)
G|--7---------------------|--8-----------5-----8-----|
D|--7---------------------|--8-----------5-----8-----|
A|--5---------------------|--6-----------3-----6-----|

Fill5:(Guitar1)

d|-------------------------|------------------|
a|----------0-----------0--|--0~--------------|
F|------4-----------4------|--4~--------------|
C|--2-----------2----------|--3~--------------|
G|-------------------------|------------------|
D|-------------------------|------------------|
A|-------------------------|------------------|

KoRn - Earache My Eye - Follow The Leader 

Tabbed by Elvisz (elvisz@kornkids.com)
Tuning : 7 String Tuned Low to High (A D G C F a d)

Intro:
d|------------------------|
a|------------------------|
F|-----------------4-4----|
C|-5-4--3--5-4--3--2-2--5-|	(Guitar1)
G|-4-3--2--4-3--2-------4-|
D|------------------------|
A|------------------------|
   . .  .  . .  .  . .  .  .Palm Mute

d|-------------------------------|
a|-15-14--13--15-14--13/18-18-15-|
F|-18-17--16--18-17--16/21-21-18-|
C|-------------------------------|	(Guitar2)
G|-------------------------------|
D|-------------------------------|
A|-------------------------------|

Fill1:
d|---------------------|
a|---------------------|
F|-----------------4-4-|
C|-5-4--3--5-4--3--2-2-|	(Guitar1)
G|-4-3--2--4-3--2------|
D|---------------------|
A|---------------------|
   . .  .  . .  .  . .  .Palm Mute

d|----------------------------|
a|-15-14--13--15-14--13/18-18-|
F|-18-17--16--18-17--16/21-21-|
C|----------------------------|	(Guitar2)
G|----------------------------|
D|----------------------------|
A|----------------------------|

Chorus:(Guitar1 & Guitar2)
d|----------------------|
a|----------------------|
F|----------------------|
C|---------------2-2----|
G|-4-3-2--4-3-2--2-2--4-|
D|-4-3-2--4-3-2--0-0--4-|
A|-2-1-0--2-1-0-------2-|

Fill2:(Guitar2)
d|------------------------------------------------------------13-|
a|-13\12-x-x-------------12\11-x-x----------------------------17-|
F|-16\15-x-x--12\11-x-x--15\14-x-x--11\10-x-x--10/11-12-12-------|
C|------------16\15-x-x-------------15\14-x-x--14/15-16-16-------|
G|---------------------------------------------------------------|
D|---------------------------------------------------------------|
A|---------------------------------------------------------------|

Verse:
d|----------------------|
a|----------------------|
F|----------------------|
C|---------------2-2--5*|	(Guitar1)
G|-4-3-2--4-3-2--2-2--4*|
D|-4-3-2--4-3-2--0-0--4*|
A|-2-1-0--2-1-0-------2*|

d|-------------------------|
a|-------------------------|
F|-------------------------|
C|-----------------6--6----|	(Guitar2)
G|-7-6--5--7-6--5--------7-|
D|-------------------------|
A|-------------------------|

Fill3:(Guitar2)
d|---------------------------------------------------------|
a|-9---10---(10)--9---/15---(15)-\-9---10---(10)--9----/15-|
F|12---13---(13)-12---/18---(18)-\12---13---(13)-12----/18-|
C|---------------------------------------------------------|
G|---------------------------------------------------------|
D|---------------------------------------------------------|
A|---------------------------------------------------------|

Chorus:(Guitar1 & Guitar2)
d|----------------------|
a|----------------------|
F|----------------------|
C|---------------2-2----|
G|-4-3-2--4-3-2--2-2--4-|
D|-4-3-2--4-3-2--0-0--4-|
A|-2-1-0--2-1-0-------2-|

Fill3:(Guitar2)
d|---------------------------------------------------------|
a|-9---10---(10)--9---/15---(15)-\-9---10---(10)--9----/15-|
F|12---13---(13)-12---/18---(18)-\12---13---(13)-12----/18-|
C|---------------------------------------------------------|
G|---------------------------------------------------------|
D|---------------------------------------------------------|
A|---------------------------------------------------------|

Chorus:(Guitar1 & Guitar2)
d|----------------------|
a|----------------------|
F|----------------------|
C|---------------2-2----|
G|-4-3-2--4-3-2--2-2--4-|
D|-4-3-2--4-3-2--0-0--4-|
A|-2-1-0--2-1-0-------2-|

Bridge1:

d|------------------------------------------|
a|-9---10---9---10---9----10---9----10--(10)|
F|-12--13---12--13---12---13---12---13--(13)|
C|------------------------------------------|	(Guitar1)
G|------------------------------------------|
D|------------------------------------------|
A|------------------------------------------|

(Guitar2)
d|--------------------------------------------|
a|--------------------------------------------|
F|--------------------------------------------|
C|--------------------------------------------|
G|--------------------------------------------|
D|---------0------------------0---------------|
A|-2-1-0-2----0-2-2-0-0-2-2-2---0-0-2-2-2---2-|

Solo:(Guitar2)
d|----------------------------------------------------------------------|
a|----------------------------------------------------------------------|
F|------------------------------9--9--9^--(9)--------------------9-9--9-|
C|-12-11-11-11h10p9--12-11h10p9-------11--(11)-12-11--9-12-11--9-----11-|
G|----------------------------------------------------------------------|
D|----------------------------------------------------------------------|
A|----------------------------------------------------------------------|

Chorus:(Guitar1 & Guitar2)
d|----------------------|
a|----------------------|
F|----------------------|
C|---------------2-2----|
G|-4-3-2--4-3-2--2-2--4-|
D|-4-3-2--4-3-2--0-0--4-|
A|-2-1-0--2-1-0-------2-|

Outro:
d|-----------------------|----------------------|---------------------|--------------------10-|
a|-----------------------|----------------------|---------------------|-----------------------|
F|-----------------------|--------------------0-|-0------0----------6-|-----------------------|
C|----------------2-2----|----------------2-2-x-|-x------x------2-2-x-|----------------2-2----|
G|-4-3--2--4-3--2-2-2--4-|-4-3--2--4-3--2-2-2-4-|-4-3--2-4-3--2-2-2-4-|-4-3--2--4-3--2-2-2----|
D|-4-3--2--4-3--2-0-0--4-|-4-3--2--4-3--2-0-0-4-|-4-3--2-4-3--2-0-0---|-4-3--2--4-3--2-0-0----|
A|-2-1--0--2-1--0------2-|-2-1--0--2-1--0-----2-|-2-1--0-2-1--0-------|-2-1--0--2-1--0--------|

Fill4:
d|-------------|
a|-------------|
F|-------------|
C|-----------5-|
G|------4------|
D|-5-----------|
A|-------------|
comments
We did not receive enough feedback on this tab! Please rate:
print report bad tab
1 2 3 4 5
1 comment total.
0 reply
~dEaD bRaIn~ wrote on October 3 2003, 12:00 am

man this is awesome...i dont know about the other tabs but reclaim my place is very well done

I want to post or [tab]
guest
You may want to rate the tab now too:
select rating
Please do not post tabs as comments. Select "correction" instead!