Oops, an error
Loading. Please wait.

Follow The Leader Tab

by Korn
ver2
ver2

Album

More versions @911Tabs.com
10,424 views 12 this week
no commentswrite comment
1 2 3 4 5
excellent!
x 2
add to favorites launch autoscroll
font size
0
reset
Autoscroll
+/-
esc
set tempo
stop
Contributor
WARNING: You are trying to view
                                    content from Ultimate-Guitar.com
                                    in an unauthorized application,
                                    which is prohibited.

                                    Please use an official Ultimate
                                    Guitar Tabs application for iPhone,
                                    iPad or Android to access legitimate
                                    chords, guitar, bass, and drum tabs
                                    from Ultimate-Guitar.com database.

                                    Type "ultimate guitar tabs" in Apple
                                    App Store's or Android Market's
                                    search to find the application.
FOLLOW THE LEADER
1.It's On
2.Freak On A Leash
3.Got The Life
4.Dead Bodies Everywhere
5.Children Of The Korn
6.B.B.K.
7.Pretty
8.All In The Family
9.Reclaim My Place
10.Justin
11.Seed
12.Cameltosis
13.My Gift To You

1.It's On

7-string guitar tuned down 1 whole step (low to high: A D G C F A D)

MAIN RIFF A               
***
Rhythm                       Play 6 time               Play last 2 times
||-------------------------------------------|--------------------------
||-------------------------------------------|--------------------------
||-------------------------------------------|--------------------------
||-------------------------------------------|--------------------------
||-------------------------------------------|--------------------------
||-----8p7-----7---------8p7--------7--------|------8p--7-------7-------
||--0-------0-----0--0---------0---------0---|--0-----------0-------0---

----------------------||
----------------------||
----------------------||
----------------------||
----------------------||
-----8p7--------8-----||
--0-------0--0--------||

Lead
||----------------------12------------------12-------------------
||--12--------------13------12----------13------12---------------
||--------12--11----------------12--11--------------12-----------
||---------------------------------------------------------------
||---------------------------------------------------------------
||---------------------------------------------------------------
||---------------------------------------------------------------

----------12------------------------||
------13------12--------------------||
--11--------------12--11--10--------||
------------------------------------||
------------------------------------||
------------------------------------|| 
------------------------------------||

MAIN RIFF B
*** 
Both guitars (fully distorted)
||------------------------------------------------||
||------------------------------------------------||
||------------------------------------------------||
||------------------------------------------------|| Play 8
||-----10/9-----9--------10/9--------10-----------|| times
||------8/7------7---------8/7-----------8--------||
||--0--------0-----0--0---------0--0--------------||

Repeat Main Riff A 8 times
Repeat Main Riff B 8 times

CHORUS RIFF
***
Rhythm (I'm not too sure on this part.  I think they're holding 
fifths like Dino from Fear Factory does, but I can't be certain.  
It's a pretty hard part to figure out, maybe you can do better than 
me.)
||----------------------------------------------||
||----------------------------------------------||
||----------------------------------------------||
||----------------------------------------------|| Play 4 times             
||----------------------------------------------||
||--7--7--3----3--2----7--9--3----3--2--||
||--5--4--1----1--0----5--7--1----1--0--||

Lead
||--12--10----12--13--10--12--||
||-------------------------------------||
||-------------------------------------||
||-------------------------------------|| Play 4 times
||-------------------------------------||
||-------------------------------------||
||-------------------------------------||

2.Freak On a Leash

Munky           Head
D||--------19------||---------24----||
A||-17--------18---||-----22--------||
F||----------------||-21------------||
C||----------------||---------------||
G||----------------||---------------||
D||----------------||---------------||
A||----------------||---------------||

D||---------18------||---------24-||
A||-17---------19---||-----22-----||
F||-----------------||-21---------||
C||-----------------||------------||
G||-----------------||------------||
D||-----------------||------------||
A||-----------------||------------||

D||----------------------------------------||
A||----------------------------------------||
F||-13/-14\-13---13---13/-14\-13---13--10--||
C||----------------------------------------||
G||-11/-12\-11---11---11/-12\-11---11---8--||
D||------------0-----------------0---------||
A||----------------------------------------||

D||-------------------||
A||-------------------||
F||-13/-14\-13---13---||
C||-------------------||
G||-11/-12\-11---11---||
D||------------0------||
A||-------------------||

D||------------------------------||
A||------------------------------||
F||------------------------------||
C||-9-9-9-9-9-9-9-9--------------||
G||-9-9-9-9-9-9-9-9-9-9-9-10--8--||
D||-7-7-7-7-7-7-7-7-9-9-9-10--8--||
A||-----------------7-7-7--8--6--||

D||----------10-10------------10-10p9h10p9--||
A||-----------------------------------------||
F||-----------------------------------------||
C||-----------------------------------------||
G||-----------------------------------------||
D||----9--9-----------9--9------------------||
A||-----------------------------------------||

D||----------10-10------------10-10p9h10p9--||
A||-----------------------------------------||
F||-----------------------------------------||
C||-----------------------------------------||
G||-----------------------------------------||
D||----9--9-----------9--9------------------||
A||-----------------------------------------||

D||----------------||
A||----------------||
F||----------------||
C||----------------||
G||-4-5-6-7--------||
D||-4-5-6-7--------||
A||-2-3-4-5--------||

D||-------------||
A||-------------||
F||-------------||
C||-------------||
G||-4-5-4-3-----||
D||-4-5-4-3-----||
A||-2-3-2-1-----||

D||---------------------------||
A||---------------------------||
F||---------------------------||
C||-9-9---9---9-9-9-9---------||
G||-9-9---9---9-9-9-9-9-10-8--||
D||-7-7---7---7-7-7-7-9-10-8--||
A||-------------------7--8-6--||


D||--7---------/19----\7--|---------8-----5--||
A||-----------------------|------------------||
F||-----------------------|------------------||
C||-----------------------|------------------||
G||-----------------------|------------------||
D||-----------------------|------------------||
A||-----------------------|------------------||

3.Got The Life

Intro:
D|------------------------------------------------------------------------|
A|-7-7-7-7-7-7-7-7-7-7-7---5-5-5-5-5/8-8-8-8-8/14-14-14-14-14-14-15-------|
F|-x-x-x-x-x-x-x-x-x-x-x---x-x-x-x-x/x-x-x-x-x/-x--x--x--x--x--x--x-------|
C|-4-4-4-4-4-4-4-4-4-4-4---2-2-2-2-2/5-5-5-5-5/11-11-11-11-11-11-12-------|
G|------------------------------------------------------------------------|
D|------------------------------------------------------------------------|
A|------------------------------------------------------------------------|
Intro (cont'd):
D|------------------------------------------------------------------------------|
A|--7-7-7-7-7-7-7-7-7--5-5-5-5-5/8-8-8/15-15-15-15-15-15-15\7-7-7-7-7-7-7-------|
F|--x-x-x-x-x-x-x-x-x--x-x-x-x-x/x-x-x/-x--x--x--x--x--x--x\x-x-x-x-x-x-x-------|
C|--4-4-4-4-4-4-4-4-4--2-2-2-2-2/5-5-5/12-12-12-12-12-12-12\4-4-4-4-4-4-4-------|
G|------------------------------------------------------------------------------|
D|------------------------------------------------------------------------------|
A|------------------------------------------------------------------------------|
Intro (cont'd):
D|--------------------------------------------------------------------------------------------|
A|--5-5-5--5/8-8-8-8-8/14-14-14-14-14-14-15---7-7-7-7-7-7-7-7-7--5-5-5-5-5--8-8-8-8-8-8-8-8-8-|
F|--x-x-x--x/x-x-x-x-x/-x--x--x--x--x--x--x---x-x-x-x-x-x-x-x-x--x-x-x-x-x--x-x-x-x-x-x-x-x-x-|
C|--2-2-2--2/5-5-5-5-5/11-11-11-11-11-11-12---4-4-4-4-4-4-4-4-4--2-2-2-2-2--5-5-5-5-5-5-5-5-5-|
G|--------------------------------------------------------------------------------------------|
D|--------------------------------------------------------------------------------------------|
A|--------------------------------------------------------------------------------------------|
Verse:
D|-14-------15-----19----14-------3--3--3--3--3--3--------14-----------19----14--14---15---19-14-|
A|--------------------------------5--5--5--5--5--5--------------17-------------------------------|
F|--------------------------------4--4--4--4--4--4-----------------------------------------------|
C|-----------------------------------------------------------------------------------------------|
G|-----------------------------------------------------------------------------------------------|
D|-----------------------------------------------------------------------------------------------|
A|-----------------------------------------------------------------------------------------------|
"Get your boogie on!":
D|----------------------------------------|
A|----------------------------------------|
F|----------------------------------------|
C|----------------------------------------|
G|--4-4-x-x-2-2-4-4-x-x-x-x-4-4-x-x-------|
D|----------------------------------------|
A|----------------------------------------|
Chorus:
D|---------------------------------------------------------------|
A|-12--12-12-12-12----12--12-12-12-12----------------------------|
F|---------------------------------------------------------------|
C|---------------------------------------------------------------|
G|---------------------------------------------------------------|
D|---------------------------------------------------------------|
A|---------------------------------------------------------------|
Bridge:
D|-------------------|
A|-------8------10---|
F|--8-------9--------|
C|-------------------|
G|-------------------|
D|-------------------|
A|-------------------|
"Dance with me":
D|--13b(13)--13b---13b(13)--13----------------------------------------------------|
A|-------------------------------12b(12)-----12b(12)-----12b(12)-----12b(12)------|
F|----------------------------------------0-----------0-----------0-----------0---|
C|----------------------------------------3-----------3-----------3-----------3---|
G|--------------------------------------------------------------------------------|
D|--------------------------------------------------------------------------------|
A|--------------------------------------------------------------------------------|

4.Dead Bodies Everywhere

TUNING: A, D, G, C, F, A, D (low to high)

Intro/Pre-Bridge (Head):
D-------21----------------19----
A----19----19----19----19----19-
F-20----------20----20----------
C-------------------------------
G-------------------------------
D-------------------------------
A-------------------------------

Intro/Pre-Bridge (Munky):
D---
A---
F---
C---
G-2-
D-2-
A-0-
This is the chord, but Munky is actually using a talk box.

Chorus:
D------------------
A------------------
F------------------
C------------------
G------------------
D-5/3-2--5/3-2-2-2-
A-3/1-0--3/1-0-0-0-

Verse:
D--------------------
A-12-19-20--11-19-17-
F--------------------
C--------------------
G--------------------
D--------------------
A--------------------

Bridge:
Part I:                     Part II:
D-19-20-19----------------  D-19-20-17-
A----------19-20-19-------  A----------
F-------------------17-17-  F----------
C-------------------------  C----------
G-------------------------  G----------
D-------------------------  D----------
A-------------------------  A----------
Play Part II the last time right before the next riff.

Bridge (cont.):
D---0-----0---
A---0-----0---
F-4---5-4---6-
C-------------
G-2---3-2---4-
D-------------
A-------------

Outro:
D-------------------
A-------------------
F-------------------
C-------------------
G-3-3-3-3-3-4-4-2-2-
D-3-3-3-3-3-4-4-2-2-
A-1-1-1-1-1-2-2-0-0-

Last Chord:
D-0-
A-0-
F-0-
C---
G-3-
D-3-
A---

5.Children Of The Korn

 Verse/Jonathan's part

A:-2-3- - - - -2- - -3- - - - - - 
E:- - - - - - - - - - - - - - - - - -
A:- - - - - - - - - - - - - - - - - 
D:- - - - - - - - - - - - - - - - -
G:- - - - - - - - - - - - - - - - - 

           Ice Cube's part

A:-3-2-3- - - 2-3- - -
E:- - - - - - - - - - - - -
A:- - - -- - - - - - - - - 
D- - - - - - - - - - - - -
G:- - - - - - - - - - - - 

             Chorus
    t  t  t  t  t  t  t  t                                      t=thumb slap
A:1-1-2-2-2-1-1-2
E:- - - - - - - - - - -
A:- - - - - - - - - - -

         Bridge
                                                              P=pull off
A:-4p3-2- - - 4-3p2
E:- - - - - - - - - - - - 
A:- - - - - - - - - - - -

6.B.B.K.

Intro:
   OOOOOOOOOO CCCCCC
D-------------------------------------|
A-------------------------------------|
F--3333333333-444444------------------|
G-------------------------------------|
C-------------------------------------|
D-------------------------------------|
A-------------------------------------|X4
Intro (cont'd):
D-----666666/18--19-----------------------|
A-----xxxxxx-xx--xx-----------------------|
F-----333333/15--16-----------------------|
G-----------------------------------------| 
C-2---------------------------------------|
D-2---------------------------------------|
A-0-----------------0---------------------|
(2-2-0 only played first time)
Verse 1&2:
D--------14-------------------------------------------|
A---17---17-------------------------------------------|
F---16-------------/11----11------11------------------|
G------------------/9------9-------8-----7----------9-|
C---------------------------------------------9-------|
D-----------------------------------------------------|
A-----------------------------------------------------|
Chorus:
D---------------------------------20-20-20-----19-19-19----------------|
A--19-19-19-19-19-19-19-19-19-----x--x--x------x---x--x----------------|
F---x-x--x--x--x--x--x--x--x------17-17-17-----16-16-16----------------|
G--16-16-16-16-16-16-16-16-16------------------------------------------| 
C----------------------------------------------------------------------|
D----------------------------------------------------------------------|
A----------------------------------------------------------------------|
Chorus (cont'd):
D-----------------------------------------------------|
A-----18-18-18----------------------------------------|
F-----x--x--x----17-17-17-17-17-17-17-17-17-17--------|
G-----15-15-15---x--x--x--x--x--x--x--x--x--x---------| 
C----------------15-15-15-15-15-15-15-15-15-15--------|
D-----------------------------------------------------|
A-----------------------------------------------------|
Chorus (cont'd):
D------------------------------------------|
A------------------------------------------|
F------------------------------------------|
G------------------------------------------| 
C------------------------------------------|
D-----------1------------1--2--------------|
A---0---0------0-----0---------------------|
Chorus (cont'd):
D---------------------------------20-20-20-----19-19-------------------|
A--19-19-19-19-19-19-19-19-19-----x--x--x------x---x-------------------|
F---x-x--x--x--x--x--x--x--x------17-17-17-----16-16-------------------|
G--16-16-16-16-16-16-16-16-16------------------------------------------| 
C----------------------------------------------------------------------|
D----------------------------------------------------------------------|
A----------------------------------------------------------------------|
Chorus (cont'd):
D---7-----------8-8-8-8-8-8-8-8-8-8---------|
A---x---6-6-6---x-x-x-x-x-x-x-x-x-x---------|
F---4---x-x-x---5-5-5-5-5-5-5-5-5-5---------|
G-------3-3-3-------------------------------| 
C-------------------------------------------|
D-------------------------------------------|
A------------------------------------------|
Verse 3:
D---------------------------------0---2----------0/1---|
A----------------------------0-------------------------|
F------------------------------------------3-----------|
G----------------------------------------------------3-| 
C------------------------------------------------------|
D-------1-----------1----------------------------------|
A--0-0-----0------0---0--------------------------------|
"Let me be me...":
D-------0-2-------0-1----|
A---0----------3---------|
F------------------------|
G------------------------| 
C------------------------|
D------------------------|
A------------------------|
Bridge ("Taken away....):
D---------------------------0-----------0------------|
A---------------------------3---3-------3-----3------|
F----------------------------------------------------|
G----------------------------------------------------| 
C----------------------2-------------1---------------|
D-----1--------1-------------------------------------|
A-0-0---0----0---0-----------------------------------|
Bridge (cont'd):
D------0--2---------0--2-------|
A------------------------------|
F------------------------------|
G------------------------------| 
C--2-------------1-------------|
D------------------------------|
A------------------------------|
Bridge (cont'd):
D-----0-------------0------------0----------------|
A-----3----3--------3----3-------3----3-----------|
F-------------------------------------------------|
G-------------------------------------------------| 
C--2-------------1------------2-------------------|
D-------------------------------------------------|
A-------------------------------------------------|
Bridge (cont'd):
D-----0---2----------0---2---------0-----2--------|
A-------------------------------------------------|
F-------------------------------------------------|
G-------------------------------------------------| 
C--2-------------1------------2-------------------|
D-------------------------------------------------|
A-------------------------------------------------|
Bridge (cont'd):
D-----0-------------0------------------------0--2------0-2----------|
A-----3----3--------3----3-------5----------------------------------|
F-------------------------------------------------------------------|
G-------------------------------------------------------------------| 
C--1-------------2------------1-----------1---------2---------1-----|
D-------------------------------------------------------------------|
A-------------------------------------------------------------------|
Interlude:
D---------------------------|
A---------------------------|
F---------------------------|
G---------------------------| 
C---------------------------|
D------1--------------------|
A--0-0---0---0-0---0--------|
Chorus:
D-------------------------|
A-------------------------|
F-------------------------|
G------4---3-----5--------| 
C--2---2---1-----3--------|
D--2---2---1-----3--------|
A--0----------------------|
Outro:
D---6-6-6-6-6-6/18--18--18----|
A---x-x-x-x-x-x/-x---x---x----|
F---3-3-3-3-3-3/15--15--15----|
G-----------------------------| 
C-----------------------------|
D-----------------------------|
A-----------------------------|

7.Pretty

Use a wammy pedal when u get to the 88  8 and the 9 9

F|------------------------------------10-10
C|----------------------9-9---9------9---9
G|-8-8---8---8-8-----8-8---8------------  do this 4x the both guitars join and  
D|-7-7---7---7-7--------------------------  both guitar 8x

Guitar 1 Verse
F|-----------------4-----2-| then do this        F|----------------5-----------
C|-------------------------|                    C|----------------------------
G|-------2-----------------|                     G|-------2--------------------
D|-------------------------|                     D|----------------------------
A|---0---------------------|                     A|----0-----------------------

I think this is head but im not sure if this is right but o well
D|--15--------------14-----------16---------------------17--------------------
A|--------------------------------------15-----------------------14 --------
F|------------------------------------------------------------------------------14

Chorus:
G|----4-----6-6-------2------3
D|----5-----7-7-------3------1
A|----------0-0----------------

8.All In The Family

guitar is tunned ADGCfad
             
 P.M          [-P.M-]             P.M           [-P.M-]
-------0--0-------------0-------I-------0--0-------------0-------I
-------7--7-------------6-----0-I-------7--7-------------6-----0-I
------------------------------5-I------------------------------5-I
--------------------------------I--------------------------------I
--------------------------------I--------------------------------I
--2-------------2--2------------I--2-------------2--2------------I
--0-------------0--0------------I--0-------------0--0------------I


 P.M          [-P.M-]             P.M          [-P.M-]
-------0--0-------------0-------I-------0--0-------------0-------I
-------7--7-------------6-----0-I-------7--7-------------6-----0-I
------------------------------5-I------------------------------5-I
--------------------------------I--------------------------------I
--------------------------------I--------------------------------I
--2-------------2--2------------I--2-------------2--2------------I
--0-------------0--0------------I--0-------------0--0------------I

P.M                         [---P.M---]
--------------0-----0-----------------------I
--------------7-----7-----------------------I
--------------------------------------------I
--------------------------------------------I
--------------------------------------------I
-2----------------------------2-----2-----2-I
-0----------------------------0-----0-----0-I

A.H_________________________________________________________________________]
~~~~~~~~~~~~~~~~   ~~~~~~~~~~~~~    ~~~~~~~~~  ~~~~~~~~   ~~~~~~~ ~~~~~~~ ~~~~~~
-7(12)-------------6(11)---------------------I------------5(10)----4(9)-------------I
------------------------------------5(10)----I-4(9)------------------------3(8)-----I
---------------------------------------------I--------------------------------------I
---------------------------------------------I--------------------------------------I
---------------------------------------------I--------------------------------------I
---------------------------------------------I--------------------------------------I
---------------------------------------------I--------------------------------------I

---------------------------------------------------------------I
--12---X----X----X-----------12---X----X----X---X--X---X-----X-I
--12---X----X----X-----------12---X----X----X---X--X---X-----X-I
---------------------------------------------------------------I
---------------------------------------------------------------I
---------------------------------------------------------------I
---------------------------------------------------------------I

------------------------------------------
---12---12-------12---12------------------
---12---12-------12---12------------------
------------------------------------------
------------------------------------------
------------------------------------------
------------------------------------------
WITH PITCH SHIFTING EFFECT
    ~~~~~  ~~~~~   ~~~~~  ~~~~~  ~~~~  ~~~~~~                 
-------------------------------------------------------------I
----------------------------------------------19--20--19--20-I
----18-----18-----18-----18-----18-----18--------------------I
-------------------------------------------------------------I
-------------------------------------------------------------I
-------------------------------------------------------------I
-------------------------------------------------------------I

    ~~~~~  ~~~~~   ~~~~~  ~~~~~  ~~~~  ~~~~~~                 
-------------------------------------------------------------I
----------------------------------------------19--20--19--20-I
----18-----18-----18-----18-----18-----18--------------------I
-------------------------------------------------------------I
-------------------------------------------------------------I
-------------------------------------------------------------I
-------------------------------------------------------------I

-------------------------------------------------------------------------------I
-------------------------------------------------------------------------------I
-------------------------------------------------------------------------------I
-------5------(5)-/-6-\-5---------5-/-17-\-15--\-5----(5)-/-6-\-5-----(5)-/-17-I
--------------(-)-------------------------------------(-)-------------(-)------I
-------5------(5)-/-6-\-5---------5-/-17-\-15--\-5----(5)-/-6-\-5-----(5)-/-16-I
-------------------------------------------------------------------------------I

 P.M                 P.M-------------]        1/2     1/2     1/2  1/2     1/2  1/2     1/2      
---------0------0------------------------------^-------^-------^---^--------^---^--------^---------------I
---------7------7------------------------------7------(7)-----(7)-(7)------(7)-(7)------(7)----------(7)-I
---------------------------------------------------------------------------------------------------------I
---------------------------------------------------------------------------------------------------------I
---------------------------------------------------------------------------------------------------------I
--2--------------------2-----2-----2---------------------------------------------------------------------I
--0--------------------0-----0-----0---------------------------------------------------------------------I

9.Reclaim My Place

Intro/Chorus-

d------------10-10/9/8/7-------||
a--------------------------------||
f-------------7--7/6/5/4--------||
C-----9--9----------------------||
G-----9--9----------------------||
D-----7--7----------------------||


Verse-

d-------------------------------------------------||
a-------------------------------------------------||
f----11------------------11----------------------||
C---10------------------10----------------------||
G----9--11/12--10/9----9--11/12---9----------||
D---------9/10---8/7---------9/10---7----------||


Interlude-

d----------14---------13---------12---------11----------||
a----------------------------------------------------------||
f------9---------9-----------9----------9-----------------||
C----------------------------------------------------------||
G----------------------------------------------------------||
D----------------------------------------------------------||


Outro-

d----------------------------||
a----------------------------||
f--------7--6--5-----9------||
C---9---7--6--5-----9------||
G---9---5--4--3-----7------||
D---7------------------------||

10.Justin

Tuning: 7 String Standard A one step down (A D G C F A D)

Intro
|-------------------------------|
|-------------------------------|
|-------------------------------|
|-------------------------------|
|-------------------------------|
|-10p7----10p7------9p6----9p6--|
|------0-------0--0------0------| (repeat 7 Times)

 gtr.1&2
|-----------------------------------------------|
|-----------------------------------------------|
|-----------------------------------------------|
|-----------------------------------------------|
|-----------------------------------------------|
|-----------------------------------------------|
|--0-0--0--0-0-0--0--0-0-0-0--0--0-0-0--0-6-0-6-|(Repeat 3 Times) 

Verse

 gtr.1
|-------------------------------|
|-------------------------------|
|-------------------------------|
|-------------------------------|
|-------------------------------|
|-10p7-7--10p7-7--7-9p6--6-9p6--|
|-------------------------------|
|gtr.2 w/high octave pedal      |
|-21~/24\21---------------------|
|-------------------------------|
|-------------------------------|
|-------------------------------|
|-------------------------------|
|-------------------------------|
|-------------------------------|

 gtr.1
|-------------------------------|
|-------------------------------|
|-------------------------------|
|-------------------------------|
|-------------------------------|
|-10p7-7--10p7-7--7-9p6--6-9p6--|
|-------------------------------|
|gtr.2 w/echo                   |
|-------------------------------|
|----------11~------\10~--------|
|-------------------------------|
|-12~---------------------------|
|-------------------------------|
|-------------------------------|
|-------------------------------| (Repeat 2 Times)

Chorus

 gtr.1&2
|-----------------------------------------------|
|-----------------------------------------------|
|-----------------------------------------------|
|-----------------------------------------------|
|-----------------------------------------------|
|-----------------------------------------------|
|--0-0--0--0-0-0--0--0-0-0-0--0--0-0-0--0-6-0-6-|

Bridge

 gtr.1&2
|-----------------------------------------|
|-----------------------------------------|
|-----------------------------------------|
|---0-0~-------------0-0~-----------------|
|---0-0~-------------0-0~-----------------|
|---9-8~-------------9-8~-----------------|
|-0-7-6~--0-6-0-6--0-7-6~-0-6-0-6--0-0-0--| (Repeat 3 Times)

 gtr.1&2
|---------------------------------|
|---------------------------------|
|---------------------------------|
|---0-0~-------------0-0~---------|
|---0-0~-------------0-0~---------|
|---9-8~-------------9-8~---------|
|-0-7-6~--0-6-0-6--0-7-6~-0-6-0-6-| 

 gtr.1&2
|-----------------------------------------------|
|-----------------------------------------------|
|-----------------------------------------------|
|-----------------------------------------------|
|-----------------------------------------------|
|-----------------------------------------------|
|--0-0--0--0-0-0--0--0-0-0-0--0--0-0-0--0-6-0-6-|(Repeat again) 

 gtr.1&2
|-----------------------|
|--------0--------------|
|--------4hb^-----------|
|-----------------------|
|-----------------------|
|--------------------3--|
|-0-0-0-----0--0-0-0-1--|(Repeat 3 Times)
                     pm 


Outro

 gtr.1&2
|-----------------------------------------------|
|-----------------------------------------------|
|-----------------------------------------------|
|-----------------------------------------------|
|-----------------------------------------------|
|-----------------------------------------------|
|--0-0--0--0-0-0--0--0-0-0-0--0--0-0-0--0-6-0-6-|(Repeat 3 Times) 

 gtr.1
|-21~/24\21----------------------|
|---------------------11~--10~---|
|--------------------------------|
|---------------12~--------------|
|--------------------------------|
|--------------------------------|
|--------------------------------|

 gtr.1
|-21~/24\21-----------------------------------|
|--------------------------11~--10~-----------|
|---------------------------------------------|
|--------------------12~----------------------|
|---------------------------------------------|
|---------------------------------------------|
|---------------------------------------------|
|gtr.2                                        |
|------------24\16/23-16-16-23\16/24-16-23\16-|
|---------------------------------------------|
|---------------------------------------------|
|---------------------------------------------|
|---------------------------------------------|
|---------------------------------------------|
|---------------------------------------------|

11.Seed

Riff 1
|| ---------------------------------------------------------------
|| ---------------------------------------------------------------
|| ---------------------------------------------------------------
|| ---------------------------------------------------------------
|| --------13--13--12--13-------------10-10--9-10-----------------
|| -2--2--11--11--10--11----2--2----8---8--7--8-------------------
|| -0--0--------------------------0--0----------------------------

Riff 2
|| -------------------------------------
|| -------------------------------------
|| -------------------------------------
|| -------------------------------------
|| --4--3--6--3--4--3--6--4-------------
|| --4--3--6--3--4--3--6--4-------------
|| --2--1--4--1--2--1--4--2-------------

12.Cameltosis

Tuning (EEADGbe) 

Intro-clean (gtr 1) (sitar arr for guitar) 
g---12b----12b-12b 

Gtr 2-clean (sitar arr for guitar) 
d---------------8------8-8--------8----- 
a-------------7---7--------7----7---7--- 
e---0----0-0--------0------0-0---------- 

Intro pt 2-tremolo (these are 24's and etc...) 
e---2324232423242324232422232223p22--- 

Verse-pitchshifter+tremolo effect 
f---5--5-55--/9---4--4-44--/7---5--5-55--/9---4-444--4--4--- 

Prechorus-clean 
e---14-1414--14141414-1414--1414-11-1111--11111111-1111--1111 

Chorus-dist. (gtr.1) 
e------------------------------13--- 
b----------------------------------- 
g----------------------------------- 
d----------------------------------- 
a-----2-3-----2-3-----2-3----------- 
e----------------------------------- 
E---0-----0-0-----1-0-----0--0------ 

Gtr.2-tremolo 
a-------------------------6--- 
f----5--5--5--5--4--4--4------

13.My Gift To You

7 string tuned whole step down

Intro w/bagpipes
||---------------|---------------|---------------|---------------|
||---------------|---------------|---------------|---------------|
||---------------|---------------|---------------|---------------|
||---------------|---------------|---------------|---------------|
||--7------------|---------------|---------------|---------8--8--|
||--7------------|---------------|---------------|---------8--8--|
||--5------------|---------------|---------------|---------6--6--|

Fill 1
||------------------------
||------------------------
||------------------------
||------------------------
||--4-4-4--4-4-4--4-4-4-4-
||--4-4-4--4-4-4--4-4-4-4-
||--2-2-2--2-2-2--2-2-2-2-

Riff 1
||---------------|------------|---------------|------------|
||---------------|------------|---------------|------------|
||---------------|------------|---------------|------------|
||---------------|------------|---------------|------------|
||--4-4-4--4-4-4-|---4-4-4-4--|--4-4-4--4-4-4-|---4-4-4-3--|
||--4-4-4--4-4-4-|---4-4-4-4--|--4-4-4--4-4-4-|---4-4-4-3--|
||--2-2-2--2-2-2-|---2-2-2-2--|--2-2-2--2-2-2-|---2-2-2-1--|

Fill 2
||-----------
||-----------
||-----------
||-----------
||--4-4-3-2--
||--4-4-3-2--
||--2-2-1-0--

Chorus Gtr.1
||------------------------|--------------------------
||----------0-----------0-|----------0------------0--
||------4-----------4-----|------4----------4--------
||--2-----------2---------|--3-----------0-----3-----
||------------------------|--------------------------
||------------------------|--------------------------
||------------------------|--------------------------

Chorus Gtr.2
||------------------------|--------------------------
||------------------------|--------------------------
||------------------------|--------------------------
||------------------------|--------------------------
||--7---------------------|--8-----------5-----8-----
||--7---------------------|--8-----------5-----8-----
||--5---------------------|--6-----------3-----6-----

Interlude Gtr.1 clean tone w/tremolo effect
||-------------------|-----------------------
||-------------------|-----------------------
||-------------------|-----------------------
||-------4--------4--|-------4------4-----4--
||-------------------|-----------------------
||--2---------2------|--3--------0-----3-----
||-------------------|-----------------------

Interlude Gtr.2  *-harmonics
||--*7-----------|---------------|
||---------------|------------*7-|
||---------------|--------*5-----|
||---------------|---------------|
||---------------|---------------|
||---------------|---------------|
||---------------|---------------|

Fill 1
||---------------|-----------*12-|
||--*7-----------|---------------|
||---------------|---------------|
||---------------|---------------|
||---------------|---------------|
||---------------|---------------|
||---------------|---------------|

Riff 10 Gtr.1  vibrato w/bar throughout
||---------------|---------------|--------------|-------------|
||---------------|---------------|--------------|-------------|
||--13-----------|--14-----11----|--13----------|--14----/18--|
||---x-----------|---x------x----|---x----------|---x------x--|
||--11-----------|--12------9----|--11----------|--12----/16--|
||---------------|---------------|--------------|-------------|
||---------------|---------------|--------------|-------------|

Riff 10 Gtr.2
||---------------|---------------|--------------|-------------|
||---------------|---------------|--------------|-------------|
||---------------|---------------|--------------|-------------|
||---------------|---------------|--------------|-------------|
||--7------------|--8-----5--5-8-|--7-----------|--8----5-5-8-|
||--7------------|--8-----5--5-8-|--7-----------|--8----5-5-8-|
||--5------------|--6-----3--3-6-|--5-----------|--6----3-3-6-|

Riff 11 Gtr.1 vibrato w/bar
||---------------|---------------|--------------|-------------|
||---------------|---------------|--------------|-------------|
||--10~~~~~~~~~--|---------------|--10~~~~~~~~--|-------------|
||---x-----------|---------------|---x----------|-------------|
||---8~~~~~~~~~--|---------------|---8~~~~~~~~--|-------------|
||---------------|---------------|--------------|-------------|
||---------------|---------------|--------------|-------------|

Riff 11 Gtr.2
||---------------|---------------|--------------|-------------|
||---------------|---------------|--------------|-------------|
||---------------|---------------|--------------|-------------|
||--8-----8-8--8-|-9-----6-6-9-9-|--8----8-8--8-|-9---6-6-9-9-|
||--7-----7-7--7-|-8-----5-5-8-8-|--7----7-7--7-|-8---5-5-8-8-|
||--6-----6-6--6-|-7-----4-4-7-7-|--6----6-6--6-|-7---4-4-7-7-|
||--5-----5-5--5-|-6-----3-3-6-6-|--5----5-5--5-|-6---3-3-6-6-|

Fill 3
||---------------|-----------
||---------------|-----------
||---------------|-----------
||---------------|-----------
||--2-2-2--2-2-2-|---2-2-2-3-
||--2-2-2--2-2-2-|---2-2-2-3-
||--0-0-0--0-0-0-|---0-0-0-1-

Fill 4
||-------------------------|------------------
||----------0-----------0--|--0---------------
||------4-----------4------|--4---------------
||--2-----------2----------|--3---------------
||-------------------------|------------------
||-------------------------|------------------
||-------------------------|------------------


-------------------------------------------------------------------------------------

Transcribed by : ?

6 String Tuned to (A D G C E A)

This transcription is for rythem guitar. Lead requires a 6 string.

Intro
|| -------------------------------------
|| -------------------------------------
|| ---2-------333------2----------------
|| ---2-------333------2----------------
|| ---0-------111------0----------------
|| -------------------------------------

Verse

Those are the notes. Listen to the song to get the rhythm

|| -------------------------------
|| -------------------------------
|| -------------------------------
|| 444--444-444-----4443----------
|| 444--444-444-----4443----------
|| 222--222-222-----2221----------

Refrain
|| ----------------------------
|| ----------------------------
|| ----------------------------
|| ---7---8--5--87-------------
|| ---7---8--5--87-------------
|| ---5---6--3--65-------------

Go back to the verse
Then back to the refrain
Then to the little breakdown part

Breakdown Part (This part is played with some heavy Chorus)

|| -------------------------------
|| -------------------------------
|| -------------------------------
|| -------------------------------
|| ---0-0--0-0-0-0----------------
|| ---5-5--6-3-6-5----------------
comments
We did not receive enough feedback on this tab! Please rate:
print report bad tab
1 2 3 4 5
I want to post or [tab]
guest
You may want to rate the tab now too:
select rating
Please do not post tabs as comments. Select "correction" instead!