Oops, an error
Loading. Please wait.

Greatest Hits Vol 1 Bass Tab

by Korn
6,428 views 9 this week
3 commentsread comments
1 2 3 4 5
excellent!
x 9
Autoscroll
+/-
esc
set tempo
stop
Contributor
Hey! There's an official Ultimate Guitar app which is ideal
for learning songs when you're away from computer. Get the app
WARNING: You are trying to view
                                    content from Ultimate-Guitar.com
                                    in an unauthorized application,
                                    which is prohibited.

                                    Please use an official Ultimate
                                    Guitar Tabs application for iPhone,
                                    iPad or Android to access legitimate
                                    chords, guitar, bass, and drum tabs
                                    from Ultimate-Guitar.com database.

                                    Type "ultimate guitar tabs" in Apple
                                    App Store's or Android Market's
                                    search to find the application.
Band- Korn
Album- Greatest Hits Vol.1

I already tabbed this whole album for guitar, so I thought I'd help out the bass players
out there by also tabing the album for bass.

1.WORD UP

note1: slap all the song exept "p" for pop


Intro
                                         p p
G----------------------------------------4-2----|
D-----------------------------------------------|
A-----------------------------------------------|
E--2--2---2-00--0--0------------2-2-0-2---------|
B--------------------3--35--5-------------------|

Verse

G-----------------------------------------------|
D-----------------------------------------------|
A-----------------------------------------------|
E--2--2---2-00--0--0------------2-2-0-2-2-------|
B--------------------3--35--5-------------------|

                                            p
G-----------------------------------------------|
D-------------------------------------------4---|
A-----------------------------------------------|
E--2--2---2-00--0--0------------2-2-0-2--22-----|
B--------------------3--35--5-------------------|

G-----------------------------------------------|
D-----------------------------------------------|
A----------2------------------------------------|
E--2--2--22--0-0-005-------------2-2-0-2--------|
B---------------------3--35---5-----------------|

G-----------------------------------------------|
D-----------------------------------------------|
A-----------------------------------------------|
E--2--2---2-00--0--0------------2-2-0-2---0-2---|
B--------------------3--35---5------------------|

Chorus

G-----------------------------------------------|
D-----------------------------------------------|
A-----------------------------------------------|
E--2--2---2\----------------2-2-0-2\------------|
B------------5\-3--3-5--5-----------------------|

Interlude

G-----------------------------------------------|
D-----------------------------------------------|
A-----------------------------------------------|
E--222-2-222-22---------------------------------|
B-----------------------------------------------|

for the second verse, follow the timing with the
pattern F# E D E F#

2.ANOTHER BRICK IN THE WALL

Tuning: Dropped-D.


(Scream)
G-|----------------------|
D-|----------------------|
A-|----------------------|
D-|-5--------------------|

We don't need no education

G-|----------------------|
D-|----------------------|
A-|----------------------|
D-|-0--------------------|

We dont need no thoughts control

G-|----------------------------|
D-|----------------------------|
A-|-------3--5---5--3--0---3---|
D-|---0------------------------|

No dark sarcasm in the classroom
G-|--------------------------|
D-|--------------------------|
A-|-----3--5---5--3--0---3---| x2
D-|-0------------------------|

Teachers leave them kids alone
G-|-----------------------------------------------------|
D-|-----------------------------------------------------|
A-|-----3--5---5--3-------------------------------------|
D-|-0----------------7---5---5----5----5--5--5---5--7---|

    Hey! Teachers! Leave them kids alone!
G-|------------------------|
D-|------------------------|
A-|------------------------|
D-|-5----5--5--5---5---7---|

G-|--------------------------|
D-|--------------------------|
A-|-----3--5---5--3--0---3---|
D-|-0------------------------|

All in all it's just another brick in the wall
G-|------------------------------|
D-|------------------------------|
A-|-------------------3----------|
D-|---5---------5/7---------5----|

G-|--------------------------|
D-|--------------------------|
A-|-----3--5---5--3--0---3---|
D-|-0------------------------|

All in all you're just another brick in the wall
G-|-----------------------------|
D-|-----------------------------|
A-|-------------------3---------|
D-|---5---------5/7---------5---|

We don't need no education

G-|----------------------|
D-|----------------------|
A-|----------------------|
D-|-0--------------------|

We dont need no thought control

G-|-------------------|
D-|-------------------|
A-|-------3--5---3/---|
D-|---0---------------|

No dark sarcasm in the classroom
G-|--------------------------|
D-|--------------------------|
A-|-----3--5---5--3--0---3---| x2
D-|-0------------------------|

Teachers leave them kids alone
G-|-----------------------------------------------------|
D-|-----------------------------------------------------|
A-|-----3--5---5--3-------------------------------------|
D-|-0----------------7---5---5----5----5--5--5---5--7---|

Hey! Teachers! Leave them kids alone!
G-|------------------------|
D-|------------------------|
A-|------------------------|
D-|-5----5--5--5---5---7---|

G-|--------------------------|
D-|--------------------------|
A-|--5--3--5---5--3--0---3---|
D-|--------------------------|

All in all you're just another brick in the wall
G-|------------------------------|
D-|------------------------------|
A-|-------------------3----------|
D-|---5---------5/7---------5----|

G-|--------------------------|
D-|--------------------------|
A-|-----3--5---5--3--0---3---|
D-|-0------------------------|

All in all you're just another brick in the wall
G-|-----------------------------|
D-|-----------------------------|
A-|-------------------3---------|
D-|---5---------5/7---------5---|

G-|----------------------------|
D-|----------------------------|
A-|-------3--5---5--3--0---3---|
D-|---0------------------------|

G-|----------------------------|
D-|----------------------------|
A-|---5---3--5---5--3--0---3---|
D-|----------------------------|

G-|------------------------------------------------|
D-|------------------------------------------------|
A-|-------3--5---5--3--5---5--3--5---5--3--0---3---| x7
D-|---0--------------------------------------------|

G-|----------------------------------------------|
D-|----------------------------------------------|
A-|---5--3--5----5-------------------------------|
D-|----------------------------------------------|

3.Y'ALL WANTA SINGLE

Intro - (0:02)
=============
F--------------------------------------------------|
C--------------------------------------------------|
G--------------------------------------------------|
D--------------------------------------------------|
A-1-0----1-0----1-0----1-0----1-0----1-0----1-0----|

Chorus - (0:16)
===============
F---------------------------------|
C---------------------------------|
G---------------------------------|
D---------------------------------|
A-1-0-333322-0-1---1-0-33332-0-1--|

Riff 2 - (0:33)
===============
F-----------------------------------------------------------------------|
C-----------------------------------------------------------------------|
G-----------------------------------------------------------------------|
D-----------------------------------------------------------------------|
A-1-0---0---0---00-1-0---0---0---00-1-0---0---0---00-1-0---0---0---00-1-|

Riff 3 - (0:41)
===============
F-----------------------|
C-----------------------|
G-----------------------|
D-----------------------|
A-0--1-3--3-8--8-7-8-10-|

Main Riff - (0:45)
==================
F--------------------------------------------------|
C--------------------------------------------------|
G--------------------------------------------------|
D--------------------------------------------------|
A-0---0---0---0-0--1-0---0---0---0-0--1------------|
Chorus - (1:05)
===============
F-----------------------------------------------------------------------|
C-----------------------------------------------------------------------|
G-----------------------------------------------------------------------|
D-----------------------------------------------------------------------|
A-0-333322-0-1---1-0-33332-0-1-------1-0-333322-0-1---1-0-33332-0-1-----|

Riff 3 - (1:22)
===============
F-------------------------|
C-------------------------|
G-------------------------|
D-------------------------|
A-1-0--1-3--3-8--8-7-8-10-|

Main Riff - (1:26)
==================
F--------------------------------------------------|
C--------------------------------------------------|
G--------------------------------------------------|
D--------------------------------------------------|
A-0---0---0---0-0--1-0---0---0---0-0--1------------|

Chorus - (1:46)
===============
F-----------------------------------------------------------------------|
C-----------------------------------------------------------------------|
G-----------------------------------------------------------------------|
D-----------------------------------------------------------------------|
A-0-333322-0-1---1-0-33332-0-1-------1-0-333322-0-1---1-0-33332-0-1-----|

Riff 3 - (2:02)
===============
F-------------------------------------------------------|
C-------------------------------------------------------|
G-------------------------------------------------------|
D-------------------------------------------------------|
A-1-0--1-3--3-8--8-7-8-10------0--1-3--3-8--8-7-8-10----|

Riff 4 - (2:19)
===============
F---------------------------|
C---------------------------|
G---------------------------|
D---------------------------|
A-0----1-0----1-0----1-0----|

Riff 5 - (2:26)
===============
F--------------------------------------------------------|
C--------------------------------------------------------|
G--------------------------------------------------------|
D--------------------------------------------------------|
A-1-0---0---1-0---1--1--1-------0---0---1-0---1-1--1-----|

Bridge - (2:44)
===============
F-----------------------------|
C-----------------------------|
G-----------------------------|
D-----------------------------|
A-0-333322-0-1--0-33332-0-1---|

Bridge 2 - (2:52)
=================
F----------------------------------------------------------------|
C----------------------------------------------------------------|
G----------------------------------------------------------------|
D----------------------------------------------------------------|
A-0-333322-0-1---1-0-33332-0-1---1-0-333322-0-1---1-0-33332-0-1--|

Chorus - (3:00)
===============
F----------------------------------------------------------------|
C----------------------------------------------------------------|
G----------------------------------------------------------------|
D----------------------------------------------------------------|
A-0-333322-0-1---1-0-33332-0-1---1-0-333322-0-1---1-0-33332-0-1--|

Outro - (3:08)
==============
F------------------------------|
C------------------------------|
G------------------------------|
D------------------------------|
A-1-0----1-0----1-0----1-0-----|

4.RIGHT NOW

(5-String bass tuned down A,D,G,C,F)

F----
C----
G----
D----
A-0-0

F----------------------------------------|
C----------------------------------------|
G------------5---------4---------3-------|
D----------------------------------------|
A-0-0--1-0--X--0-1-0--X--0-1-0--X--0-1-0-|

F---------------------------------------------|
C---------------------------------------------|
G----------------5---------4---------3--------| X3
D---------------------------------------------|
A-0-0-0-0--1-0--X--0-1-0--X--0-1-0--X--0-1-0--|

F--------------------------|
C--------------------------|
G--------------------------| X8
D--------------------------|
A-0-0--1-0---0-0-0-0--1-0--|

F----------------------------------------|
C----------------------------------------|
G------------5---------4---------3-------|
D----------------------------------------|
A-0-0--1-0--X--0-1-0--X--0-1-0--X--0-1-0-|

F---------------------------------------------|
C---------------------------------------------|
G----------------5---------4---------3--------| X3
D---------------------------------------------|
A-0-0-0-0--1-0--X--0-1-0--X--0-1-0--X--0-1-0--|

F-------------------------|
C-------------------------|
G-------------------------|
D-------------------------|
A-0-0--1-0---0-0-0-0--1-0-|

F--------------------------|
C--------------------------|
G--------------------------| X8
D--------------------------|
A-0-0--1-0---0-0-0-0--1-0--|

F----------------------------------------|
C----------------------------------------|
G------------5---------4---------3-------|
D----------------------------------------|
A-0-0--1-0--X--0-1-0--X--0-1-0--X--0-1-0-|

F---------------------------------------------|
C---------------------------------------------|
G----------------5---------4---------3--------| X3
D---------------------------------------------|
A-0-0-0-0--1-0--X--0-1-0--X--0-1-0--X--0-1-0--|


5.DID MY TIME

5 string bass

Tuning: tuned down one whole step
low to high: (A, D, G, C, F)

bass comes in after guitar plays first 6 measures
F-----------------------------------------------------------------------|
C-----------------------------------------------------------------------|
G-----------------------------------------------------------------------|
D-----------------------------------------------------------------------|
A-3h6-6-6-3h6-6-6-3h6-6-6-3h6-6-6------3h6-6-6-3h6-6-6-3h6-6-6-3h6-6-6--|

(0:31)
F------------------|
C------------------|  X4
G------------------|
D--------3~-----2--|
A-5--0~------3-----|

Verses  (0:52, 1:36)
F---------------------------------------------------------|
C---------------------------------------------------------|  X4
G---------------------------------------------------------|
D---------------------------------------------------------|
A-3-5-5--3-5-5--3-5-5--3-5-5--3-6-6--3-6-6--3-6-6--3-6-6--|

Chorus  (1:15, 1:59, 3:32)
F------------------|
C------------------|  X8
G------------------|
D--------3~-----2--|
A-5--0~------3-----|

Bridge  (2:20)
F-------------------------------7--7-7------|
C----------------12~----12~\-----------6----|
G-----------5/12-------------------------5--|
D-------------------------------------------|
A-3~----3~----------------------------------|

F----7-7-7-7------------------7-7-7----------|
C------------6----------------------6--------|
G--------------5----------------------5------|
D--------------------------------------------|
A-3---------------3~----3~---------------3~--|

F-------7-7-7------------------7-7-7----------|
C-------------6----------------------6--------|
G---------------5----------------------5------|
D---------------------------------------------|
A-3~---------------3~----3~---------------3~--|

F----------------------|
C-----------12~--------|
G------3/12------------|
D----------------------|
A-3~~--------------8\--|

(3:01)
F-------------------------|
C-------------------------|  X4
G-------------------------|
D-------------------------|
A-3--3-4p3--3~-3-3-4p3-1--|

(3:22)
F---------------------------------------------------|
C---------------------------------------------------|  X2
G---------------------------------------------------|
D---------------------------------------------------|
A-1-3-3-1-3-3-1-3-3-1-3-3--1-4-4-1-4-4-1-4-4-1-4-4--|

Outro  (3:52)
F---------------------------------------------------------|
C---------------------------------------------------------|  X2
G---------------------------------------------------------|
D---------------------------------------------------------|
A-3-5-5--3-5-5--3-5-5--3-5-5--3-6-6--3-6-6--3-6-6--3-6-6--|

6.ALONE I BREAK

TUNING EADG


g-----------------------------------------------|
D||-------------------||------------------------|
A||----44----44----44-||-----44------44---------|
E||-44----44----44----||-44------44    (PLAY 15-| TIMES)


G---------------------------------------------------------|
D---------------------------------------------------------|
A-----------------2-2-2-2-2-2-2-0-------------------------|
E-4-4-4-4-4-4-4-4-----------------2-2-2-2-2-2-2-2-0-0-0-0-|

7.HERE TO STAY

Tunning: 5-string Bass
Low to High- (A,D,G,C,F)
tune down one whole step.

(0:11)
F----------------------|
C----------------------|  X2
G----------------------|
D----------------------|
A-0--1--0-0-1-0-0-1-2--|

(0:31)
F-------------------------------------------|
C-------------------------------------------|
G-------------------2--------------------1--|
D-0--1--0-3-1-0-0-1----0--1--0-3-1-0-0-1----|
A-------------------------------------------|

Verses  (0:40, 1:28)
F-------------------------------------------|
C-------------------------------------------|  X4
G-------------------2--------------------1--|
D-0--1--0-3-1-0-0-1----0--1--0-3-1-0-0-1----|
A-------------------------------------------|

Pre-Chorus  (1:00, 1:48, 3:19)
F------------------------------------------------------------------------------------|
C------------------------------------------------------------------------------------|
G------------------------------------------------------------------------------------|
D-3-------------------3----------------------3---------------------3-----------------|
A--2-0-2-3-2-0-2~-0-2----2~-0-2-3-2-0-2~-0-2---2-0-2-3-2-0-2~-0-2----2~-0-2-3-2-0-2~-|

Chorus  (1:09, 1:57, 3:28)
F-----------------------------------------------------|
C-----------------------------------------------------|  X2
G-----------------------------------------------------|
D-------------3-----0-------------------3-----0-------|
A-0-----3--------3-----1---0-----3---------3-----1-1--|

Interlude  (2:16)
F-------------------------------|        this is the slap and pluck technique
C-------------------------------|  X3    Slap- hit string w/ right thumb
G-------------------------------|        Pluck- pull string w/ right finger
D----------3-----0--------------|
A-0---3-------3-----1-----------|

Bridge  (2:35)
F-------------------------------------------------------------------------|
C--r------------------r------------------r--------------------r-----------|
G--e------------------e------------------e--------------------e-----------|
D--s----X---X----X----s----X---X----X----s----X---X----X---X--s----X---X--|
A--t--X---X----X---X--t--X---X----X---X--t--X---X----X---X----t--X---X----|
      S P S P  S P S     S P S P  S P S     S P S P  S P S P     S P S P

F----------------------------------|
C----------------------------------|  X3
G----------------------------------|
D---X---X---X---X---X---X---X---X--|
A-X---X---X---X---X---X---X---X----|
  S P S P S P S P S P S P S P S P

F------------------------|
C------------------------|
G------------------------|
D---X---X---X---X---X----|
A-X---X---X---X---X---X--|
  S P S P S P S P S P S

(2:58)
F-------------------------------------------------------------|
C-------------------------------------------------------------|
G-------------------------------------------------------------|
D-------------------------------------------------------------|
A-0--0--12-0---0-0-0-0--0h1h2h3--0--0--12-0-----0-0-0--0h1h2--|

F-------------------------------------------|
C-------------------------------------------|
G-------------------2--------------------1--|
D-0--1--0-3-1-0-0-1----0--1--0-3-1-0-0-1----|
A-------------------------------------------|

Outro  (3:48)
F----------------------|
C----------------------|  X2
G----------------------|
D----------------------|
A-0--1--0-0-1-0-0-1-2--|

F---------------------------------------|
C---------------------------------------|  X3
G---------------------------------------|
D---------------------------------------|
A-0-0-12-0--0-0-0-0----0-0-12-0--0-0-0--|

F------------------|
C------------------|
G------------------|
D------------------|
A-0-0-12-0--0-0-0--|

8.TRASH

(5-String bass tuned down one whole step A,D,G,C,F)

(Intro)
F-------------------|
C-------------------|
G-------------------|
D-------------------|
A-0~~-1~~-1-2~~-1~~-|

(Verse)
F------------------------------------|
C------------------------------------|
G------------------------------------| X6
D------------------------------------|
A-4-3-2--4--3--2--4-3-2--4--3--2--1--|

(Pre-chorus)
F------------------------|
C------------------------|
G------------------------| X2
D--------4---------------|
A-2-0-2---2--0-2-0-2--3--|

F---------------------|
C---------------------|
G---------------------|
D------4--------------|
A-0-2---2--0-2-0-2--3-|

F-----------------------|
C-----------------------|
G-----------------------|
D--------4--------------|
A-2-0-2---2--0-2-0-2--3-|

(Chorus)
F-----------------------|
C-----------------------|
G-----------------------|
D-----------------------|
A-0~~-1-1~~-2-2~~-1-1~~-|

F-------------------------|
C-------------------------|
G-------------------------|
D-------------------------|
A-0-0~~-1-1~~-2-2~~-1-1~~-|

9.SOMEBODY SOMEONE

Intro
F----------------------------------|
C----------------------------------|
G----------------------------------| X2
D--0--2-0-0-2-0-2------------------|
A----------------------------------|

F----------------------------------|
C----------------------------------|
G----------------------------------| X6
D--0-0-2-0-0-2-0-2-----------------|
A----------------------------------|

Verse
F----------3------------------------------------------------|
C-------------5---------5-----------------------------------|
G--3-3-3-------3-3-3---4------------------------------------|
D-----------------------------------------------------------|
A-----------------------------------------------------------|

Chorus
F---------------------------------|
C---------------------------------|
G---------------------------------|
D--0--2-0-0-2-0-2-----------------|
A---------------------------------|

F----------------------------------|
C----------------------------------|
G----------------------------------| X3
D--0-0-2-0-0-2-0-2-----------------|
A----------------------------------|

F--------------------------------------------------------------------|
C--------------------------------------------------------------------|
G--------------------------------------------------------------------|
D--0-2--2-1--0-2--2-1--0-0-0-0-2---2-1--0-2--2-1---------------------|
A--------------------------------------------------------------------|

Verse
F------------------------------------------------------|
C------------------------------------------------------|
G------------------------------------------------------|
D------------------------------------------------------|
A------------------------------------------------------|

F------------------------------------------------------|
C------------------------------------------------------|
G------------------------------------------------------|
D------------------------------------------------------|
A------------------------------------------------------|

Chorus
F---------------------------------|
C---------------------------------|
G---------------------------------|
D--0--2-0-0-2-0-2-----------------|
A---------------------------------|

F----------------------------------|
C----------------------------------|
G----------------------------------| X3
D--0-0-2-0-0-2-0-2-----------------|
A----------------------------------|

F--------------------------------------------------------------------|
C--------------------------------------------------------------------|
G--------------------------------------------------------------------|
D--0-2--2-1--0-2--2-1--0-0-0-0-2---2-1--0-2--2-1---------------------|
A--------------------------------------------------------------------|

Solo
F--------------------------------------------------------------------|
C--------------------------------------------------------------------|
G--------1-------1--------1--------------1---------------------------|
D-3333---3333---3333----3333---3-------------------------------------|
A--------------------------------------------------------------------|

Ending
F-------------------------------|
C-------------------------------|
G-------------------------- X12-|
D--0--2-0--0-0-0-3-2------------|
A-------------------------------|

F--------------------------|
C--------------------------|
G--------------------------|
D--0-----------------------|
A--------------------------|

10.MAKE ME BAD

Tune Down "b" and "e" strings down a Whole step:
   intro:
 G----------------------------|
 D----------------------------|        repeat intro as many
 A----------------------------|        times as neccesary
 D----------------------------|
 A-1--0-0-X-0--1-1-X----------|

  verse:     repeat as many times as necessary
 G---------------------------------------|
 D--------11-------11------10-------10---|
 A-9--9-9----9--9-9--9--8-8---8--8-8---8-|
 D---------------------------------------|
 A---------------------------------------|

  chorus:  repeat as many times as neccesary
 G------------------------------------|
 D------------------------------------|
 A------------------------------------|
 D----0-0-0-0-0-0-0-------------------|
 A--5-0-0-0-0-0-0-0-4---2-------------|

 bridge:
                        repeat this 4 times
 G-------------------|
 D-------------------|
 A-------------------|
 D-------------------|
 A-1--0-0-X-0--1-1-X-|

 Then after doing the pattern above 4 times then do this 4 times:

 G-----------------|
 D-----------------|
 A-----------------|
 D-----------------|
 A-0-0-XXX-1-1-XXX-|

11.FALLING AWAY FROM ME

Tunning: A,D,G,C,F

Intro
F|----------------|
C|----------------|
G|----------------|
D|----------------|
A|-0-6-0-06-0-6-0-|

Verse
F|----------------------|
C|----------------------|
G|----------------------|With FUZZ distortion
D|----------------------|
A|-1-0--1-0--1-0--1-0-2-|

Chorus
F|-------------------------|
C|-------------------------|
G|-------------------------|
D|----2-----------2--------|
A|-0----3--221-0----3-33/7-|

verse III
F|-----------------|
C|-----------------|
G|-----------------|With FUZZ distortion
D|-----------------|
A|-0/1-0/1-0/1-0/1-|

Bridge
F|-------|
C|-------|
G|-------|
D|-------|
A|-0~~~~-|

F|-------|
C|-------|
G|-------|With Phase
D|-7---5-|
A|-------|

Bridge II (Life's falling away from me)
F|-------------------------------|
C|-------------------------------|
G|-------------------------------|With Fat distortion
D|---2--------2----2---2---------|
A|-0---3--2-0---3----0---3--2-0~-|

Heavy Brdige: Same as Intro

Outro
F|--------|
C|--------|
G|--------|
D|--------|
A|-0~~~~~-|

12.GOT THE LIFE

Tuning: A,D,G,C,F (low to high)

Intro/Corus:
F:------x------x-------x------x-----------|
C:------x-x--x-x-------x-x--x-x-----------|
G:------x-x--x-x-------x-x--x-x-----------|
D:------x-x--x-x-------x-x--x-x--5--------|
A:-0-0--x-x--x-x--0-0--x-x--x-x-----6--4--|
   s s  s s  s s  s s  s s  s s  p  p  p

Verse:
F:-----------------------------------------|
C:-----------------------------------------|
G:-------x-x-------x-x-----------x-x-------|
D:-------x-x-------x-x-----------x-x-------|
A:-1/2-2-x-x-1h2-2-x-x-1/2-2h3-3-x-x-1h2-2-|
   s s s s s s s s s s s s s s s s s s s s

Interlude:
F:---------------------|
C:---------------------|
G:---------------------|
D:--7~---5~------------|
A:-----------6~---4~/--|
    p    p   p    p

13.FREAK ON A LEASH

     s       E  E  h  e     E  E  h  e     E  E  h  e     E  E  e
F-------r--||---------------|--------------|--------------|-------------|
C---4:--e--||---------------|--------------|--------------|-------------|
G---4:--s--||*--------7-----|--------8-----|--------7-----|-------------|
D-------t--||*-----6-----6--|-----7-----7--|-----6-----6--|-----7-------|
A----------||---5-----------|--6-----------|--5-----------|--6-----6----|


             w     H  q     w     E  E  e          s  e  s  e  q e
F--------||--r--|-----r--|--r--|----------------|-----------------------|
C--------||--e--|-----e--|--e--|----------------|-----------------------|
G-------*||--s--|-----s--|--s--|--------8--(8)--|--7-----7-----7/8------|
D-------*||--t--|-----t--|--t--|-----7----------|-----6-----6-----------|
A---(6)\-||-----|--12\---|-----|--6-------------|-----------------------|


    q     Q  q  Q     s  e  s     e  q e  q     E  E  e           s
F------|-----------|-------------------------|----------------||--------|
C------|-----------|-------------------------|----------------||--------|
G------|--------8--|--7-----7--------7/8-----|--------8--(8)--||--7-----|
D---7--|-----7-----|-----6--------6-------7--|-----7----------||--------|
A------|--6--------|-------------------------|--6-------------||--------|


    e  s  e  q e  q     Q  q  Q     s  e  s  e  q e  q     E  E  e
F--------------------|-----------|----------------------|---------------|
C--------------------|-----------|----------------------|---------------|
G------7-----7/8-----|--------8--|--7-----7-----7/8-----|--------8------|
D---6-----6-------7--|-----7-----|-----6-----6-------7--|-----7---------|
A--------------------|--6--------|----------------------|--6------------|


            s  e  s  e  q e  q     Q  q  Q     s  e  s  e  q e  q
F--------|----------------------|-----------|-------------------r--|----|
C--------|----------------------|-----------|-------------------e--|----|
G---(8)--|--7-----7-----7/8-----|--------8--|--7-----7----------s--|----|
D--------|-----6-----6-------7--|-----7-----|-----6-----6-------t--|----|
A--------|----------------------|--6--------|--------------5/6-----|----|


    E  E  e           w     Q  q  Q     E  s  s s  Q  q    Q  q  Q
F-----------------||-----|-----------|------------------|---------------|
C-----------------||-----|-----------|------------------|---------------|
G---------8--(8)--||-----|-----------|--------5/7--7--7\|---------------|
D------7----------||-----|--------1--|-----7------------|--------1------|
A---6-------------||--5--|--3--1-----|--5---------------|--3--1---------|


       E  s  e  e          Q  q  Q     q  e  e                   q
F---|-------------------|-----------|----------------|------------------|
C---|-------------------|-----------|----------------|------------------|
G---|-------------------|-----------|--------7--(7)--|--(7)--(7)/14-----|
D---|-------------------|--------1--|----------------|------------------|
A---|--5--5--5--5--(5)--|--3--1-----|--5--5----------|------------------|


               Chorus (Slapped)          e  e  e  e  s  s  e  s
F----------||-----------------------||---------r-----r------------------|
C----------||-----------------------||---------e-----e------------------|
G---(14)^--||-----------------------||*--------s-----s------------------|
D----------||-----------------------||*--------t-----t-----------x------|
A----------||-----------------------||---0--0-----0-----0--0--0---------|


             e  e  e  e  s  s  e  q   4x
F---------|--------r-----r------------||--------------------------------|
C---------|--------e-----e------------||--------------------------------|
G---x-----|--------s-----s-----------*||--------------------------------|
D------x--|--2--2--t--3--t--1--1-----*||--------------------------------|
A---------|-----------------------1---||--------------------------------|


    Slight slowdown (not-Slapped)          e  e   e   e   e  e  e  e
F-----------------------------------------------------------------------|
C-----------------------------------------------------------------------|
G-----------------------------------------------------------------------|
D-----------------------------------------------------------------------|
A------------------------------------------0--12--11--10--9--8--7--6----|


             Regular speed     E  E  H  e     E  E  h  e     E  E  h
F---||--||---------------------------------|--------------|-------------|
C---||--||---------------------------------|--------------|-------------|
G---||--||*--------------------------7-----|--------------|--------7----|
D---||--||*-----------------------6-----6--|-----7--------|-----6-------|
A---||--||---------------------5-----------|--6-----6--6--|--5----------|


    e     E  E  e            w     Q  q  Q     E  s  s s  Q  q    Q
F------|-----------------||-----|-----------|------------------|--------|
C------|-----------------||-----|-----------|------------------|--------|
G------|----------------*||-----|-----------|--------5/7--7--7\|--------|
D---7--|-----7----------*||-----|--------1--|-----7------------|--------|
A------|--6-----6--(6)---||--5--|--3--1-----|--5---------------|--3-----|


    q  Q     E  s  e  e          Q  q  Q     q  e  e
F---------|-------------------|-----------|----------------|------------|
C---------|-------------------|-----------|----------------|------------|
G---------|-------------------|-----------|--------7--(7)--|--(7)-------|
D------1--|-------------------|--------1--|----------------|------------|
A---1-----|--5--5--5--5--(5)--|--3--1-----|--5--5----------|------------|


        q                   Chorus (Slapped)     e  e  e  e  s  s  e
F------------------||--||------------------------------r-----r----------|
C------------------||--||------------------------------e-----e----------|
G---(7)/14--(14)^--||--||*-----------------------------s-----s----------|
D------------------||--||*-----------------------------t-----t----------|
A------------------||--||------------------------0--0-----0-----0--0----|


    s              e  e  e  e  s  s  e  q   4x  w       w     w
F---------------|--------r-----r------------||--r--||------|--r---||----|
C---------------|--------e-----e------------||--e--||------|--e---||----|
G---------x-----|--------s-----s-----------*||--s--||*-----|--s--*||----|
D------x-----x--|--2--2--t--3--t--1--1-----*||--t--||*-----|--t--*||----|
A---0-----------|-----------------------1---||-----||---2--|------||----|


    (Slapped)  (with addlibs)    e  s  s  s  s  s  s  s  s  s  s  s
F---||------------------------------------r--------------------r--------|
C---||------------------------------------e--------------------e--------|
G---||*-----------------------------------s--------------------s--------|
D---||*-----------------------------------t--------------------t--------|
A---||---------------------------2--2--2-----2--2--2--2--2--2-----2-----|


    s  E   7x  s  s  s  s  s  s  s  s  s  s  e  q       Q  q  q  e
F----------||--------------------------------------||-------------------|
C----------||--------------------------------------||-------------------|
G---------*||--------------------------------------||*------------------|
D------4--*||--------------------------------------||*------------------|
A---2------||--2--2--2--2--2--2--2--2--2--2--2--2--||---2--3--4--5------|


       Q  q  q  e     Q  q  q  e     Q  q  q  e   4x       (Slapped)
F---|--------------|--------------|---------------||--||----------------|
C---|--------------|--------------|---------------||--||----------------|
G---|--------------|--------------|--------------*||--||*---------------|
D---|--------------|--------------|--------------*||--||*---------------|
A---|--2--3--4--5--|--2--3--4--5--|--2--3--2--1---||--||----------------|


       e  e  e  e  s  s  e  s              e  e  e  E  s  e  q   7x
F------------r-----r--------------------|--------r---------------||-----|
C------------e-----e--------------------|--------e---------------||-----|
G------------s-----s--------------x-----|--------s--------------*||-----|
D------------t-----t-----------x-----x--|--2--2--t--3--1--1-----*||-----|
A------0--0-----0-----0--0--0-----------|--------------------1---||-----|


    e  e  e  e  s  s  e  s              e  e  e  E  s  e  q
F---------r-----r--------------------|--------r--------------|----------|
C---------e-----e--------------------|--------e--------------|----------|
G---------s-----s--------------x-----|--------s--------------|----------|
D---------t-----t-----------x-----x--|--2--2--t--3--1--1--1--|--(1)-----|
A---0--0-----0-----0--0--0-----------|-----------------------|----------|

F---|-------||----------------------------------------------------------|
C---|-------||----------------------------------------------------------|
G---|-------||----------------------------------------------------------|
D---|--(1)--||----------------------------------------------------------|
A---|-------||----------------------------------------------------------|


That's it! have fun playing it!

========================================================================
==                       TABLATURE EXPLANATION                        ==
========================================================================

----------                ----------                ----t---|
----5h8--- Hammeron       ----(8)--- Ghost          ----6---| Tap
----------                ---------- Note           --------|
----5p8--- Pulloff        ----------                --------|

----------                ----------                -----p--|
----5/8--- Slide Up       -----x---- Dead           -----7--| Pop
----------                ---------- Note           --s-----|
----5\8--- Slide Down     ----------                --5-----| Slap

----------                ||------|| Repeat         --------|
----5~~~-- Vibrato        ||*----*||                ---5^---| Bend
----------                ||*----*||                --------|
----------                ||------||                --------|

----------                ----------                --------|
-4:------- Time           ----------                --------|
-4:------- Signature      ----------                --------|
----------                ----------                --------|

14.TWIST

Verse:

G------------------------------------------------------------------------------|
D------------------------------------------------------------------------------|
A------------------------------------------------------------------------------|
E-----000-0000-0-0000�000�000-0----------------------------------|

Play that until the chorus

Then play this on the first chorus:

Chorus 1

G-------------------------------------------------------------------------|
D-------------------------------------------------------------------------|
A-------------------------------------------------------------------------|
E�0-0-0------0-0-0-------------------------------------------------|


Then play this twice or once

Chorus 2/ solo( on live version)

G-------------------------------------------------|
D-------------------------------------------------|
A-------------------------------------------------|
E�0-0-0-----00-0-0�0�00-0-0--|

15.A.D.I.D.A.S.

Verse (Listen song for timin)
F|-------------------------------|
C|-------------------------------|
G|-------------------------------|
D|-------------------------------|
A|-0-XXX-0-00XXXX--0-XXX-0-00-XX-|

Pre - Chorus I
F|--------------------------------------|
C|--------------------------------------|
G|--------------------------------------|
D|-1/2----------------------1/2---------|
A|-----1/2-3/4----1-0-11-0------1/2-3/4-|

Pre - Chorus II
F|---------------------------------------------|
C|---------------------------------------------|
G|---------------------------------------------| ~Let ring
D|-1/2----------------------1/2----------------|
A|-----1/2-3/4----1-0-11-0------1/2-3/4-1-1-0~-|

Chorus
F|------------------|
C|------------------|
G|------------------|Follow the rythm of the drums
D|------------------|
A|-00000000-11111111|

Bridge
F|-------------------------------|
C|-------------------------------|
G|-------------------------------|
D|-------------------------------|
A|-1-00-1-00---1-00-1-00-4\3-3\2-|

Last Chorus
F|-----------|
C|-----------|
G|-----------| x4
D|-----------|
A|-0-0~-1-1~-|

F|------------------|
C|------------------|
G|------------------|x4
D|------------------|
A|-00000000-11111111|

16.CLOWN

Intro
rest for 45 seconds then
F-x4-slapped|-------------x2-not-slapped-------|
C-----------|-----------------|----------------|
G--3-3------|-----------------|----------------|
D-----------|-----------------|----------------|
A-1-1--0----|-3h4-3-2h3-2-3h4-|-3-2h3-2-3h4-2--|
                    not slapped
F-----------------x7----------------|----------------|
C-----------------|-----------------|----------------|
G-----------------|-----------------|----------------|
D-----------------|-----------------|----------------|
A-3h4-3-2h3-2-3h4-|-3-2h3-2-3h4-2-2-|-3-2h3-2-3h4-2--|

Verse x 2
F-----------x3-not-slapped---------|-------------not-slapped----------|
C-----------------|----------------|-----------------|----------------|
G-----------------|----------------|-----------------|----------------|
D-----------------|----------------|-----------------|--------3h4-3---|
A-3h4-3-2h3-2-3h4-|-3-2h3-2-3h4-2--|-3h4-3-2h3-2-3h4-|-3-2h3-2--------|

Chorus x 2
F---slapped-------x7--not-slapped----|-x4-slapped|
C------------------|-----------------|-----------|
G------------------|-----------------|--3-3------|
D---2--------------|-----------------|-----------|
A-0----0---0----0--|-4-3-3-3-2-2-2-1-|-1-1--0----|

Fill
Fnotslapped| rest
C----------| for
G----------| 2 1/2
D----------| measures
A-0-0-0----|

Interlude
F---x6-slapped----|------slapped------|
C-----------------|-------------------|
G-----------------|-------------------|
D-----------------|-------------------|
A-0----0-0--------|-0---0-0-1----2----|

Bridge
F-----------x4-slapped----------------|------------not-slapped-----------|
C-----------------|-------------------|-----------------|----------------|
G-----------------|-------------------|-----------------|----------------|
D-----------------|-------------------|-----------------|----------------|
A-0----0-0--------|-0---0-0-1----2----|-3h4-3-2h3-2-3h4-|-3-2h3-2-3h4-2--|

F----------x2-not-slapped-----------|-----------x2-not-slapped---------|
C-----------------|-----------------|-----------------|----------------|
G-----------------|-----------------|-----------------|----------------|
D-----------------|-----------------|-----------------|----------------|
A-3h4-3-2h3-2-3h4-|-3-2h3-2-3h4-2-2-|-3h4-3-2h3-2-3h4-|-3-2h3-2-3h4-2--|

F---------x2-not-slapped------------|
C-----------------|-----------------|
G-----------------|-----------------|
D-----------------|-----------------|
A-3h4-3-2h3-2-3h4-|-3-2h3-2-3h4-2-2-|

Fill
F---------slapped------------|
C----------------------------|
G----------------------------|
D----------------------------|
A-0--------0--------0--------|

2nd Chorus
F---slapped--|---not-slapped---|
C------------|-----------------|
G------------|-----------------|
D------------|-----------------|
A-0------000-|-4-3-3-3-2-2-2-1-|

F---slapped-------x7--not-slapped----|
C------------------|-----------------|
G------------------|-----------------|
D---2--------------|-----------------|
A-0----0---0----0--|-4-3-3-3-2-2-2-1-|

Outro x 16
F--------------|
C--------------|
G--3-3---------|
D--------------|
A-1-1--0-------|

17.SHOOTS AND LADDERS

Intro
F|--------------|
C|--------------|
G|--------------|
D|--------------|
A|-0-0--00000X--|

Verse
F|------------------|
C|------------------|
G|------------------|
D|------------------|
A|-0-3-X-00000-0000-|

Chorus
F|------------------------|
C|------------------------|
G|--------------| x3------|
D|--------------|      ---|
A|-3--3-5--4-3--|      ---|
                        |----> Play this twice
F|--------|            ---|
C|--------|            ---|
G|--------| x1 -----------|
D|------------------------|
A|-2-1-0------------------|

Bridge I
F|---------------------------|
C|---------------------------|
G|---------------------------|X7
D|------4\3---------4\3------|
A|-3333-----4\3--33-----4\3--|

F|---------------|
C|---------------|
G|---------------|X1
D|------4\3------|
A|-3333-----4\3--|

After this theres a fade out

Bridge 2
F|------------------------|
C|------------------------|
G|------------------------|x4
D|------------------------|
A|-5555-33--1--5555-3--1--|

Outro
F|------------------|
C|------------------|
G|------------------| x3 ^ Bend this ten down.
D|------------------|
A|-0-0--0-0-0-0-10^-|

F|---------------|
C|---------------|
G|---------------|x1
D|---------------|
A|-0-0--0-0-0-0--|

18.BLIND

Intro~~
G|---------------------------------|
D|---------------------------------|
A|----12---------------------------|
D|--0----13-10-0-----0----0--------|

G|---------------------------------|
D|---------------------------------|
A|---------------------------------|
D|--0-2-0-3-0-2-0-3-5-5-5-5--------|

G|---------------------------------|
D|---------------------------------|
A|---------------------------------|
D|--0-0-0-1-1-1-0-0-0-1-1-1--------|
prechorus~
G|------------------|
D|------------------|
A|------------------|
D|--0-1-0-0-1-5-0---|

outro~
G|-------------------------|
D|-------------------------|
A|--13--------12-----------|
D|----13-12------12--13----|

That's it.ENJOY!!BASS PLAYERS!!
comments
print report bad tab
3 comments total.
0 reply
Spl!nTeRgu!tAr wrote on December 17 2004, 12:00 am

pretty good tabs...5 stars man, keep up the good work

0 reply
Andrew Zara wrote on February 20 2005, 12:00 am

thanks bro

0 reply
virtussilex wrote on August 28 2007, 12:48 pm

The only thing that may be wrong is the "another brick in the wall" tab.. but i dunno. Otherwise great tab dude

I want to post or [tab]
guest
You may want to rate the tab now too:
select rating
Please do not post tabs as comments. Select "correction" instead!