Oops, an error
Loading. Please wait.

Greatest Hits Vol 1 Tab

by Korn
13,802 views 12 this week
7 commentsread comments
1 2 3 4 5
accurate
x 15
Autoscroll
+/-
esc
set tempo
stop
Contributor
Hey! There's an official Ultimate Guitar app which is ideal
for learning songs when you're away from computer. Get the app
WARNING: You are trying to view
                                    content from Ultimate-Guitar.com
                                    in an unauthorized application,
                                    which is prohibited.

                                    Please use an official Ultimate
                                    Guitar Tabs application for iPhone,
                                    iPad or Android to access legitimate
                                    chords, guitar, bass, and drum tabs
                                    from Ultimate-Guitar.com database.

                                    Type "ultimate guitar tabs" in Apple
                                    App Store's or Android Market's
                                    search to find the application.
Band- Korn 
Album- Greatest Hits Vol.1

Track Listings:
1.Word Up(2:53)
2.Another Brick In The Wall(Parts 1,2,& 3)(7:08)
3.Y'all Wanta Single(3:18)
4.Right Now(3:15)
5.Did My Time(4:07)
6.Alone I Break(4:16)
7.Here To Stay(4:32)
8.Trash(3:27)
9.Somebody Someone(3:47)
10.Make Me Bad(3:55)
11.Falling Away From Me(4:31)
12.Got The Life(3:48)
13.Freak On A Leash(4:15)
14.Twist(0:49)
15.A.D.I.D.A.S.(2:32)
16.Clown(4:36)
17.Shoots And Ladders(5:23)
18.Blind(4:18)

This is a long album, so it's going to take awhile. Here we go.

1.WORD UP

Gt.1                                      x5
PM------------------------------------------
|-------------------------------------------|
|-------------------------------------------|
|-11-11-9-9-7-7-7-9-7-9-9-7-9-9-9-9---------|
|-11-11-9-9-7-7-7-9-7-9-9-7-9-9-9-9---------|
|-------------------------------------------|
|-------------------------------------------|
On the second time guitar two comes in

Gt.2                                      x4
Pm-------------------------------------------
|-------------------------------------------|
|-------------------------------------------|
|-------------------------------------------| 
|-------------------------------------------|
|-4--4---4--4---4--44---444-44--------------|
|-2--2---2--2---2--22---222-22--------------|

Chorus    Let each one ring              x2
|-------------------------------------------|
|-4~-----4~------2~--4~--2~--4~-------------|
|-4~-----4~------2~--4~--2~--4~-------------| 
|-4~-----4~------2~--4~--2~--4~-------------|
|-2~-----2~------0~--2~--0~--2~-------------|
|-------------------------------------------| 

Gt.1                                      x4
PM---------------------------------
|-------------------------------------------|
|-------------------------------------------|
|-11-11-9-9-7-7-7-9-7-9-9-7-9-9-9-9---------|
|-11-11-9-9-7-7-7-9-7-9-9-7-9-9-9-9---------|
|-------------------------------------------|
|-------------------------------------------|

Gt.2                                      x4
Pm-----------------------------
|-------------------------------------------|
|-------------------------------------------|
|-------------------------------------------| 
|-------------------------------------------|
|-4--4---4--4---4--44---444-44--------------|
|-2--2---2--2---2--22---222-22--------------|

Chorus                                    x2
|-------------------------------------------|
|-4~-----4~------2~--4~--2~--4~-------------|
|-4~-----4~------2~--4~--2~--4~-------------| 
|-4~-----4~------2~--4~--2~--4~-------------|
|-2~-----2~------0~--2~--0~--2~-------------|
|-------------------------------------------| 

Break Down
|-------------------------------------------|
|-------------------------------------------|
|-------------------------------------------| 
|------------------2-44-22-44---------------|
|-2-44-22-44—(x4)--2-44-22-44---(x4)--------|
|-0-22-00-22-------0-22-00-22---------------|

Chorus                                    x4
|-------------------------------------------|
|-4~-----4~------2~--4~--2~--4~-------------|
|-4~-----4~------2~--4~--2~--4~-------------| 
|-4~-----4~------2~--4~--2~--4~-------------|
|-2~-----2~------0~--2~--0~--2~-------------|
|-------------------------------------------| 

Outro 
PM------------------------------------     
|-------------------------------------------|
|-------------------------------------------|
|-------------------------------------------|
|-------------------------------------------|
|-44--4-44--4-44--4-44--4-44----------------|
|-22--2-22--2-22--2-22--2-22----------------|

2.ANOTHER BRICK IN THE WALL(PARTS 1,2,& 3)

Guitar 1: Head
Guitar 2: Munky


Intro:
    Guitar 2: Munky
D|-------------------------------------------------------------|
A|-------------------------------------------------------------|
F|-------------------------------------------------------------|
C|-------------------------------------------------------------|
G|-------------------------------------------------------------|
C|5555555555555555555555555555555555555555555555555555555555555|
  .............................................................
  \_________________________  ________________________________/
                            \/
			PALM MUTING

D|---------------------------------|
A|---------------------------------|
F|---------------------------------|
C|---------------------------------|
G|---------------------------------|
C|11111111111111111111111111111111-|
  ................................
  \_________  __________________/
            \/
	PALM MUTING








D|----------------------------------------------------------------|      
A|----------------------------------------------------------------|
F|----------------------------------------------------------------|
C|----------------------------------------------------------------| x2
G|----------------------------------------------------------------|
C|555555555555555500000000000000022222222222222222222222222222222-|
  ...............................................................
  \_____________________________  ______________________________/
                                \/
	                    PALM MUTING



Guitar 1: Head
Clean Guitar

D|--------------------------------|
A|--------------------------------|
F|--------------------------------|
C|-5~~~~~~---0~~~~~~---2~~~~~~----| x2
G|-5~~~~~~---0~~~~~~---2~~~~~~----|
C|-5~~~~~~---0~~~~~~---2~~~~~~----|

Head & Munky

 w/ heavy distorsion pedal

D|--------------------------------|
A|--------------------------------|
F|--------------------------------|
C|-2----222-----0-2---2-----------| x14
G|-2----222-----0-2---2-----------|
C|-2----222-----0-2---2-----------|

 Head:
D|--------------------------------------------------------------|
A|--------------------------------------------------------------|
F|--------------------------------------------------------------|
C|-777777777777777777777777777777777777777777777777777777777777-|
G|-777777777777777777777777777777777777777777777777777777777777-|
C|-777777777777777777777777777777777777777777777777777777777777-|

Munky:

D|--------------------------------------------------------------|
A|--------------------------------------------------------------|
F|-222222222222222222222222222222222222222222222222222222222222-|
C|--------------------------------------------------------------|
G|--------------------------------------------------------------|
C|--------------------------------------------------------------|


D|---------------|
A|---------------|
F|---------------|
C|-0---1---2-----|
G|-0---1---2-----|
C|-0---1---2-----|

					     
D|----------------------------|      ......|				           
A|----------------------------|		   |        
F|----------------------------|            |	
C|-2----222-----0-2---2-------| x2	   |	
G|-2----222-----0-2---2-------|	           |	
C|-2----222-----0-2---2-------|		   |
					   |
					    \  Repeat this 2 times
					    /
D|----------------------------------|	   |
A|----------------------------------|	   |
F|----------------------------------|	   |
C|-5~~~~~~---0~~~~~~---0---1---2----|	   |
G|-5~~~~~~---0~~~~~~---0---1---2----|	   |
C|-5~~~~~~---0~~~~~~---0---1---2----|  ....|



D|-----------------------------------|
A|-----------------------------------|
F|-----------------------------------|
C|-2----222-----0-2---2--------------| x12
G|-2----222-----0-2---2--------------|
C|-2----222-----0-2---2--------------|


 Head:
D|--------------------------------------------------------------|
A|--------------------------------------------------------------|
F|--------------------------------------------------------------|
C|-777777777777777777777777777777777777777777777777777777777777-|
G|-777777777777777777777777777777777777777777777777777777777777-|
C|-777777777777777777777777777777777777777777777777777777777777-|

Munky:

D|--------------------------------------------------------------|
A|--------------------------------------------------------------|
F|-222222222222222222222222222222222222222222222222222222222222-|
C|--------------------------------------------------------------|
G|--------------------------------------------------------------|
C|--------------------------------------------------------------|

D|-----------------|
A|-----------------|
F|-----------------|
C|-0---1---2-------|
G|-0---1---2-------|
C|-0---1---2-------| 


D|----------------------------|      ......|				           
A|----------------------------|		   |        
F|----------------------------|            |	
C|-2----222-----0-2---2-------| x2	   |	
G|-2----222-----0-2---2-------|	           |	
C|-2----222-----0-2---2-------|		   |
					   |
					    \  Repeat this 2 times
					    /
D|----------------------------------|	   |
A|----------------------------------|	   |
F|----------------------------------|	   |
C|-5~~~~~~---0~~~~~~---0---1---2----|	   |
G|-5~~~~~~---0~~~~~~---0---1---2----|	   |
C|-5~~~~~~---0~~~~~~---0---1---2----|  ....|
		

Munky

D|-----------------------------|
A|-----------------------------|
F|-----------------------------|
C|-2----222-----0-2---2--------| x32
G|-2----222-----0-2---2--------|
C|-2----222-----0-2---2--------|

Head
Solo:

D|--------------------12---------------------|
A|-15p12----12-----------15(17)--12-12-12----|
F|-------14----14(16)------------12-12-12----|
C|-------------------------------------------|
G|-------------------------------------------|
C|-------------------------------------------|


D|-------------------------------------------|
A|--14(16)-14(17)14-15p12--------------------|
F|--------------------------14-14(16)--------|
C|-------------------------------------------|
G|-------------------------------------------|
C|-------------------------------------------|





D|----------------------------------------------------|
A|-------------------12---12-12---12-12---12-14-12----|
F|-12p11--11------14---12---12-12---12-12---12-14-12--|
C|-----12-12/14---14---14------14------14-------------|
G|----------------------------------------------------|
C|----------------------------------------------------|

D|-------15(17)-15-15-------------------------------|
A|-----x--------------15(17)(19)(20)(15)(17)--------|
F|---x----------------------------------------------|
C|-x------------------------------------------------|
G|--------------------------------------------------|
C|--------------------------------------------------|

D|---------12--------------------------------------------------------------------------------|
A|-------12--15p12---------------------------------------------------------------------------|
F|14(16)----------14-14(16)14p12-14p12--12---------------------------------------------------|
C|------------------------------------14--14--14p12---12-------------------------------------|
G|--------------------------------------------------14--14/12p10-12p10-10--------------------|
C|------------------------------------------------------------------12-10-12---12-12/4-------|

D|------------------------------------------------|
A|------------------------------------------------|
F|---------12p11---------------------------12-----|
C|------12------14-14p12----8/12-14-14p12---------|
G|-10/14------------------14----------------------|
C|------------------------------------------------|

D|----------------------17(19)15------------15-17v(19)17-----|
A|-15(17)-15(17)(19)---x--------17--11/15-17--------------17-|
D|--------------------x--------------------------------------|
C|-------------------x---------------------------------------|
G|-----------------------------------------------------------|
C|-----------------------------------------------------------|

                   
D|-19-19--21(23)-21p19-21p19--------------------|
A|---------------------------12-12-12/14\12-----|
F|------------------------------------------14--|
C|----------------------------------------------|
G|----------------------------------------------|
C|----------------------------------------------|


D|------------------x-x--x----------------------------|
A|--9/13----12-10---x-x--13p10-----x-x----------------|
F|--9/13----12-10---x-x--x---------x-x----------------|
C|-------12---------x-x--------12--x-x---5-5p3---3----|
G|---------------------------------x-x---------5---5--|
C|----------------------------------------------------|



D|-----------------------|
A|-----------------------|
F|-----------------------|
C|-2~~~~~~---0---5-------| x3
G|-2~~~~~~---0---5-------|
C|-2~~~~~~---0---5-------|


D|------------|
A|------------|
F|------------|
C|-2~~~~~~----| x1
G|-2~~~~~~----|
C|-2~~~~~~----|

Head:
D|--------------------------------------------------------------|
A|--------------------------------------------------------------|
F|--------------------------------------------------------------|
C|-777777777777777777777777777777777777777777777777777777777777-|
G|-777777777777777777777777777777777777777777777777777777777777-|
C|-777777777777777777777777777777777777777777777777777777777777-|

Munky:

D|--------------------------------------------------------------|
A|--------------------------------------------------------------|
F|-222222222222222222222222222222222222222222222222222222222222-|
C|--------------------------------------------------------------|
G|--------------------------------------------------------------|
C|--------------------------------------------------------------|

Outro:

D|---------------|
A|---------------|
F|---------------|
C|-2~~~~~~~------|
G|-2~~~~~~~------|
C|-2~~~~~~~------|

D|-----------------------|
A|-----------------------|
F|-----------------------|
C|-X---X---2~~~~~~~------|
G|-X---X---2~~~~~~~------|
C|-X---X---2~~~~~~~------|

D|---------------------------------------------|	
A|---------------------------------------------|
F|---------------------------------------------|
C|-5~~~~~~---0~~~~~~---0---1---2~~~~~~~~~~~----| x2
G|-5~~~~~~---0~~~~~~---0---1---2~~~~~~~~~~~----|
C|-5~~~~~~---0~~~~~~---0---1---2~~~~~~~~~~~----|

3.Y'ALL WANTA SINGLE

Tuning - A, B, A - (only the three thickest strings need to be tuned)
   : = stop(pause)

Intro - (0:02)
A-1-0:---1-0:---1-0:---1-0:---1-0:---1-0:---1-0:---|
B-1-0:---1-0:---1-0:---1-0:---1-0:---1-0:---1-0:---|
A-1-0:---1-0:---1-0:---1-0:---1-0:---1-0:---1-0:---| x1

Chorus - (0:16)
A-1-0-333322-0-1:--1-0-33332-0-1:-|
B-1-0-333322-0-1:--1-0-33332-0-1:-|
A-1-0-333322-0-1:--1-0-33332-0-1:-| x4

Riff 2 - (0:33)
A-1-0:--0:--0:--00-1-0:--0:--0:--00-1-0:--0:--0:--00-1-0:--0:--0:--00-1-|
B-1-0:--0:--0:--00-1-0:--0:--0:--00-1-0:--0:--0:--00-1-0:--0:--0:--00-1-|
A-1-0:--0:--0:--00-1-0:--0:--0:--00-1-0:--0:--0:--00-1-0:--0:--0:--00-1-|x1

Riff 3 - (0:41)
A-0--1-3--3-8--8-7-8-10-|
B-0--1-3--3-8--8-7-8-10-|
A-0--1-3--3-8--8-7-8-10-| x1

Main Riff - (0:45)
A-0:--0:--0:--00-1----|-5:--5:--5:--5-7-3:--3:--3:--3-5----|-0:--0:--0:--00-1----|-5:--5:--5:--5-7-3:--3:--3:--3-5----|
B-0:--0:--0:--00-1----|-5:--5:--5:--5-7-3:--3:--3:--3-5----|-0:--0:--0:--00-1----|-5:--5:--5:--5-7-3:--3:--3:--3-5----|
A-0:--0:--0:--00-1--x4|-5:--5:--5:--5-7-3:--3:--3:--3-5--x1|-0:--0:--0:--00-1--x2|-5:--5:--5:--5-7-3:--3:--3:--3-5--x1|

Chorus - (1:05)
A-0-333322-0-1:--1-0-33332-0-1:----|-1-0-333322-0-1:--1-0-33332-0-1:----|
B-0-333322-0-1:--1-0-33332-0-1:----|-1-0-333322-0-1:--1-0-33332-0-1:----|
A-0-333322-0-1:--1-0-33332-0-1:--x1|-1-0-333322-0-1:--1-0-33332-0-1:--x3|

Riff 3 - (1:22)
A-1-0--1-3--3-8--8-7-8-10-|
B-1-0--1-3--3-8--8-7-8-10-|
A-1-0--1-3--3-8--8-7-8-10-|

Main Riff - (1:26)
A-0:--0:--0:--00-1----|-5:--5:--5:--5-7-3:--3:--3:--3-5----|-0:--0:--0:--00-1----|-5:--5:--5:--5-7-3:--3:--3:--3-5----|
B-0:--0:--0:--00-1----|-5:--5:--5:--5-7-3:--3:--3:--3-5----|-0:--0:--0:--00-1----|-5:--5:--5:--5-7-3:--3:--3:--3-5----|
A-0:--0:--0:--00-1--x4|-5:--5:--5:--5-7-3:--3:--3:--3-5--x1|-0:--0:--0:--00-1--x2|-5:--5:--5:--5-7-3:--3:--3:--3-5--x1|

Chorus - (1:46)
A-0-333322-0-1:--1-0-33332-0-1:----|-1-0-333322-0-1:--1-0-33332-0-1:----|
B-0-333322-0-1:--1-0-33332-0-1:----|-1-0-333322-0-1:--1-0-33332-0-1:----|
A-0-333322-0-1:--1-0-33332-0-1:--x1|-1-0-333322-0-1:--1-0-33332-0-1:--x3|

Riff 3 - (2:02)
A-1-0--1-3--3-8--8-7-8-10----|-0--1-3--3-8--8-7-8-10----|
B-1-0--1-3--3-8--8-7-8-10----|-0--1-3--3-8--8-7-8-10----|
A-1-0--1-3--3-8--8-7-8-10--x1|-0--1-3--3-8--8-7-8-10--x3|

Riff 4 - (2:19)
A-0----1-0----1-0----1-0----|
B-0----1-0----1-0----1-0----|
A-0----1-0----1-0----1-0----| x1

Riff 5 - (2:26)
A-1-0---0:--1-0---1:-1:-1:----|-0---0:--1-0---1:-1:-1:----|
B-1-0---0:--1-0---1:-1:-1:----|-0---0:--1-0---1:-1:-1:----|
A-1-0---0:--1-0---1:-1:-1:--x1|-0---0:--1-0---1:-1:-1:--x3|

Bridge - (2:44)
A-0-333322-0-1--0-33332-0-1----|
B-0-333322-0-1--0-33332-0-1----|
A-0-333322-0-1--0-33332-0-1-x4|

Bridge 2 - (2:52)
A-0-333322-0-1:---0-33332-0-1:----33332-0-1:---0-33332-0-1:-|
B-0-333322-0-1:---0-33332-0-1:----33332-0-1:---0-33332-0-1:-|
A-0-333322-0-1:---0-33332-0-1:----33332-0-1:---0-33332-0-1:-| x1

Chorus - (3:00)
A-0-333322-0-1:--1-0-33332-0-1:--1-0-333322-0-1:--1-0-33332-0-1:-|
B-0-333322-0-1:--1-0-33332-0-1:--1-0-333322-0-1:--1-0-33332-0-1:-|
A-0-333322-0-1:--1-0-33332-0-1:--1-0-333322-0-1:--1-0-33332-0-1:-| x1

Outro - (3:08)
A-1-0----1-0----1-0----1-0----:|
B-1-0----1-0----1-0----1-0----:|
A-1-0----1-0----1-0----1-0----:| x1


4.RIGHT NOW

A,D,G,C,F,A,D,   LOW TO HIGH

8:4 timing
4:4 timing
tempo 105

MUNKY intro  x2                         8:4 timing
|----------------------------------------------------|
|----------------------------------------------------|
|----------------------------------------------------|
|----------------------------------------------------|
|--------------5-------------4-----------3-----------|
|----------------------------------------------------|
|-0--0--1-0--0----0-0-1-0--0-----0-0-1-0----0-0-1-0--|

HEAD and MUNKY   chorus  x4             8:4 timing		
|----------------------------------------------------|
|----------------------------------------------------|
|----------------------------------------------------|
|----------------------------------------------------|
|--------------5-------------4-----------3-----------|
|----------------------------------------------------|
|-0--0--1-0--0----0-0-1-0--0-----0-0-1-0----0-0-1-0--|
				
Head and MUNKY verse  x8 4:4 timing
|-----------------------------|
|-----------------------------|
|-----------------------------|
|-----------------------------|
|-----------------------------|
|-----------------------------|
|-0--0--1-0----0-0-0-0-1-0----|

HEAD and MUNKY   chorus  x4             4:4 timing
|----------------------------------------------------|
|----------------------------------------------------|
|----------------------------------------------------|
|----------------------------------------------------|
|--------------5-------------4-----------3-----------|
|----------------------------------------------------|
|-0--0--1-0--0----0-0-1-0--0-----0-0-1-0----0-0-1-0--|

MUNKY bridge  x1     4:4 timing
|-----------------------------|
|-----------------------------|
|-----------------------------|
|-----------------------------|
|-----------------------------|
|-----------------------------|
|-0--0--1-0----0-0-0-0-1-0----|
             |^^BASS HERE^^|                     
Head and MUNKY verse  x8  4:4 timing
|-----------------------------|
|-----------------------------|
|-----------------------------|
|-----------------------------|
|-----------------------------|
|-----------------------------|
|-0--0--1-0----0-0-0-0-1-0----|

HEAD and MUNKY   chorus  x4             4:4 timing
|----------------------------------------------------|
|----------------------------------------------------|
|----------------------------------------------------|
|----------------------------------------------------|
|--------------5-------------4-----------3-----------|
|----------------------------------------------------|
|-0--0--1-0--0----0-0-1-0--0-----0-0-1-0----0-0-1-0--|

MUNKY bridge  x1          4:4 timing
|----|
|----| then munky does some wierd volume swirls n effect's
|----|
|----|
|----|
|-6~-|
|-4~-|

HEAD bridge x8 wierd effect  4:4 timing
|----------------------------|
|----------------------------|
|----------------------------|
|----------------------------|
|----------------------------|
|----------------------------|
|-4--4--5-4-----4--4--5-4----|

HEAD and MUNKY  x8   4:4 timing
|-----------------------------|
|-----------------------------|
|-----------------------------|
|-----------------------------|
|-----------------------------|
|-2--2--3-2~~~-2-2-2-2-3-2~~~-|
|-0--0--1-0~~~-0-0-0-0-1-0~~~-|

MUNKY intro  x2                           8:4 timing
|----------------------------------------------------|
|----------------------------------------------------|
|----------------------------------------------------|
|----------------------------------------------------|
|--------------5-------------4-----------3-----------|
|----------------------------------------------------|
|-0--0--1-0--0----0-0-1-0--0-----0-0-1-0----0-0-1-0--|

HEAD and MUNKY   chorus  x4               8:4 timing		
|----------------------------------------------------|
|----------------------------------------------------|
|----------------------------------------------------|
|----------------------------------------------------|
|--------------5-------------4-----------3-----------|
|----------------------------------------------------|
|-0--0--1-0--0----0-0-1-0--0-----0-0-1-0----0-0-1-0--|

HEAD and MUNKY  x4   muted  4:4 timing
|-------------------------------|
|-------------------------------|
|-------------------------------|
|-------------------------------|
|-------------------------------|
|-2-2-2-2-3-2----2-2-2-2-3-2----|
|-0-0-0-0-1-0----0-0-0-0-1-0----|

HEAD and MUNKY  x3   4:4 timing
|-----------------------------|
|-----------------------------|
|-----------------------------|
|-----------------------------|
|-----------------------------|
|-2--2--3-2~~~-2-2-2-2-3-2~~~-|
|-0--0--1-0~~~-0-0-0-0-1-0~~~-|

HEAD and MUNKY  x1   muted  4:4 timing
|-------------------------------|
|-------------------------------|
|-------------------------------|
|-------------------------------|
|-------------------------------|
|-2-2-2-2-3-2----2-2-2-2-3-2----|
|-0-0-0-0-1-0----0-0-0-0-1-0----|
 
5.DID MY TIME

intro : first guitarist(play till pre-chorus
-------------------------
-------------------------
-------------------------
-------------------------
-------------------------
-10--h12--12--12---------
-------------------------


then when drums play the crashes 
second guitaris play this

-------------------------
-------------------------
-------------------------
-------------------------
-------------------------
-------------------------
-3--h6--6--6-------------

then when drums play hard.second guitrist play this
-------------------------
-------------------------
-------------------------
-------------------------
-5/-8-8-8----------------
-5/-8-8-8----------------
-3/-6-6-6----------------


pre-chorus..only first guitarist
---------------------------------------
---------------------------------------
---------------------------------------
-2-2-2---------------------------------
-------2-2-2---------------------------
-------------3-3-3---------2-2-2-------
-------------------4-4-4-4-------------


chorus: both guitarist play this

---------------------------------------
---------------------------------------
---------------------------------------
-2-2-2---------------------------------
-------2-2-2---------------------------
-------------3-3-3---------2-2-2-------
-------------------4-4-4-4-------------


verse:

-------------------------
-------------------------
-------------------------
-------------------------
-------------------------
-------------------------
-2--h4--4------------- x4

then........

-------------------------
-------------------------
-------------------------
-------------------------
-------------------------
-------------------------
-2--h5--5------------- x4

pre-chorus..only first guitarist
---------------------------------------
---------------------------------------
---------------------------------------
-2-2-2---------------------------------
-------2-2-2---------------------------
-------------3-3-3---------2-2-2-------
-------------------4-4-4-4-------------


chorus: both guitarist with hgh dist.

---------------------------------------
---------------------------------------
---------------------------------------
-2-2-2---------------------------------
-------2-2-2---------------------------
-------------3-3-3---------2-2-2-------
-------------------4-4-4-4-------------


interlude:
------------------------------------------------------
------------------------------------------------------
----------------------------------------------------5-
---3-2----------3-2--------------3-2-------3-2--------
---------------------3--------------------------------
------------------------------------------------------
-4--------4------------------4---------4--------------

interlude 2: (heavy part)

------------------------------------ 
------------------------------------ 
------------------------------------
------------------------------------
-5--5-6-5--5--5--5-6-5-3------------
-5--5-6-5--5--5--5-6-5-3------------
-3--3-4-3--3--3--3-4-3-1------------

Interlude 3: the one that sounds like the verse
-----------|---------
-----------|---------
-----------|---------
-----------|---------
-----------|---------
-3-h5-5----|-3-h6-6--
-1-h3-3----|-1-h4-4--

ending:
-------------------
-------------------
-------------------
-------------------
-------------------
5-h6-6-------------
5-h6-6-----------x4

-------------------
-------------------
-------------------
-------------------
-------------------
5-h7-7-------------
5-h7-7-----------x4

6.ALONE I BREAK

Tuning: 7 string 1 1/2 down  G# C# F# B E G# C#

Intro: 
C#|-----------------------------------------------------------------------|
G#|-----------------------------------------------------------------------|
E |-----------------------------------------------------------------------|
B |-----------------------------------------------------------------------|
F#|--------7--7--------7--7--------8--8-----7---7-7-------7--7-------8--8-|
C#|-----------------------------------------------------------------------|
G#|--0--0--------0--0--------0--0--------0-----------0--0-------0--0------|
pm.........................................................................

Verse:
C#|--------------------------------------------------|
G#|------0------------------------0------------------|
E |----------------5----------------------5----------|
B |--------------------------------------------------|
F#|--5--------3----------0----5--------3-------0-----|
C#|--------------------------------------------------|
G#|--------------------------------------------------|

Pre-Chorus:
C#|------------------------------------------------------------------------|
G#|------------------------------------------------------------------------|
E |------------------------------------------------------------------------|
B |------------------------------------------------------------------------|
F#|------------------------------------------------------------------------|
C#|-----------5--5--6--7--------7--7----5-----------5-5-6-7--------7-7---5-|
G#|-0-0---0---------------0--0--------------0-0--0-----------0--0----------|

C#|-------------------------------------------------------------------|
G#|-------------------------------------------------------------------|
E |-------------------------------------------------------------------|
B |-------------------------------------------------------------------|
F#|-------------------------------------------------------------------|
C#|-----------5--5--6--7--------7--7---5--------5-5-6-7------5-5-7-7--|
G#|-0---0--0--------------0--0-----------0-0-0-----------0-0----------|

C#|---------------------------------------------------------------------|
G#|---------------------------------------------------------------------|
E |--4--4--4--4--4---4--4---4--4---4------------------------------------|
B |-------------------------------------7--7--7--7--7---7--7---7--7---7-|
F#|--2--2--2--2--2---2--2---2--2---2------------------------------------|
C#|-------------------------------------5--5--5--5--5---5--5---5--5---5-|
G#|---------------------------------------------------------------------|

C#|---------------------------------------------------------------------|
G#|---------------------------------------------------------------------|
E |--4--4--4--4--4---4--4---4--4---4------------------------------------|
B |-------------------------------------7--7--7--7--7---7--7---7--7---7-|
F#|--2--2--2--2--2---2--2---2--2---2------------------------------------|
C#|-------------------------------------5--5--5--5--5---5--5---5--5---5-|
G#|---------------------------------------------------------------------|

Chorus: Guitar 1
C#|---------------------------------------------------------------------|
G#|---------------------------------------------------------------------|
E |--4--4--4--4--4---4--4---4--4---4----7--7--7--7--7---7--7---7--7---7-|
B |---------------------------------------------------------------------|
F#|--2--2--2--2--2---2--2---2--2---2----5--5--5--5--5---5--5---5--5---5-|
C#|---------------------------------------------------------------------|
G#|---------------------------------------------------------------------|

        Guitar 2
C#|-----------------------12--------------12---------12------10----9----10---|
G#|-12-----------------------------------------------------------------------|
E |--------------------------------------------------------------------------|
B |--------------------------------------------------------------------------|
F#|--------------------------------------------------------------------------|
C#|--------------------------------------------------------------------------|
G#|--------------------------------------------------------------------------|

Chorus: (continued) Guitar 1
C#|--------------------------------------------------------------------------|
G#|--------------------------------------------------------------------------|
E |--------------------------------------------------------------------------|
B |--7--7--7--7--7----7--7----7--7-----7----5--5--5--5--5----5--5---5--5---5-|
F#|--------------------------------------------------------------------------|
C#|--5--5--5--5--5----5--5----5--5-----5----3--3--3--3--3----3--3---3--3---3-|
G#|--------------------------------------------------------------------------|

Bridge: Guitar 1
C#|--14------------------------------12-----11-------|
G#|--12----------7-----5-------------13-----12-------|
E |--13----------4-----4-------------12-----11-------|
B |--14----------------------------------------------|
F#|--------------------------------------------------|
C#|--------------------------------------------------|
G#|--------------------------------------------------|

Bridge: Guitar 2
C#|------------------------10/12---------------------|
G#|------------------------10/12---------------------|
E |--------------------------------------------------|
B |--------------------------------------------------|
F#|--------------------------------------------------|
C#|--------------------------------------------------|
G#|--------------------------------------------------|

7.HERE TO STAY

Intro/out brake(D)
)-----------------
)-----------------
)-----------------
)-----------------
)-----------------
)-----------------
)0-1-0-3-1-0-0-1-2

Verse 1/2 (D)
)-----------------------------------
)-----------------------------------
)-----------------------------------
)-----------------------------------
)-----------------------------------
)----------------2-----------------1
)0-1-0-3-1-0-0-1---0-1-0-3-1-0-0-1--

Pre-choris (first and third play normal speed secound and forth play faster)(D)
)-----------------
)-----------------
)-----------------
)-----------------
)-----------------
)3----------------
)--2-0-2-3-0-0-2-2

choris(dont slide)(D)
)-----------------------
)-----------------------
)-----------------------
)----5-----------5------
)2-5-5-5-0-3-2-5-5-5-0-3
)2-5-3-5-0-3-2-5-3-5-0-3
)0-3---3-0-1-0-3---3-0-1

Verse(D)
Pre Choris(D)
Choris(D)

brige(C)
)-----------------------------------------------
)-----------------------------------------------
)-----------------------------------------------
)-----------------------------------------------
)--16------14------16------18------20------22---
)14---14-12---12-14---14-16---16-18---18-20---20
)-----------------------------------------------

im here to stay riff(D)
)----------------
)----------------
)----------------
)----------------
)----------------
)----------------
)0-0-12-0-1-1-1-1

break it down riff(unleash the beast)(D)
)-------------------------
)-------------------------
)-------------------------
)-------------------------
)-------------------------
)-------------------------
)0-0-12-0-0-0-0-0-12-13-14

8.TRASH

intro/chorus(w/whammy pedal):
D|
A|-----/7--------5------/10------8-----7----5--/7--------5-----/10--12-8--|
F|
C|
G|
D|
A|

verse(w/whammy pedal):
D|-9------11------------------9---------9--|-9------11-----------------------9------|
A|-------------------10------------10------|-------------------10-------9--------9--|
F|
C|
G|
D|
A|

outro is the same as the intro

Munky's parts:


intro/chorus:


D|
A|
F|---------4---4----------4---4------4---4------4---4----|
C|------4---4----------4---4-------4---4------4---4------|
G|--2--------------3------------4----------3-------------|
D|--2--------------3------------4----------3-------------|
A|--0--------------1------------2----------1-------------|

verse(w/whammy pedal):
D|
A|-7----------|-6-------------|-7------------|-6--------10---------|
F|
C|
G|
D|
A|

outro
D|
A|
F|
C|
G|--2---------------3------------4----------3-------------|
D|--2---------------3------------4----------3-------------|
A|--0---------------1------------2----------1-------------|


both play interlude/pre-chorus and bridge which is


interlude
D|
A|
F|
C|
G|--4-2-4--2-4---2-4-2-4-----5--|
D|--4-2-4--2-4---2-4-2-4-----5--| 4x
A|--2-2-2--2-2---2-2-2-2-----3--|

bridge:
D|
A|
F|
C|
G|--4-2-4--2-4---2-4--2-4----2-3--|
D|--4-2-4--2-4---2-4--2-4----2-3--|
A|

9.SOMEBODY SOMEONE

Intro and verse 
D|---------------1---------------3-0
A|-----3-----3-------3------3------
F|---2----2--------2-----2---------

Intro: 2 and Pre-Chorus
C|------------------------------------------------------7-7/8
G|--------------------5/6\5-----------------5/6\5------------
D|-----------------------------------------------------------
A|---3----------3--------------3------3----------------------

Verse: Munky  
G|------------3^-------------3----------------3^----------3^--x
D|------------------------------------------------------------x
A|---1---1--------1---1-------------1---1--------1---1---------

Chorus:
G|---5----9---8-6---5----9---8-4-----5-6-5---9---8-6---5----9---8-4
D|---5----9---8-6---5----9---8-4-----5-6-5---9---8-6---5----9---8-4
A|---3----7---6-4---3----7---6-2-----3-4-3---7---6-4---3----7---6-2

Interlude
D|-0-0-1-1-4-4-1-1-----0-0-1-1-4-4-1-1----0-0-1-1-4-4-1-1---0-0-4-4-0-0-4-4

Outro:
D|-0-1-0--0-0-0-4-1
A|-0-1-0--0-0-0-4-1


10.MAKE ME BAD

Tuning: 7 string guitars tuned ADGCFAD

Intro/verse: w/whammy pedal
D|-14--|------------15---14-------------------14-||
A|-----|---12-----------------12-----------------||
F|-----|-----------------------------------------||
C|-----|o----------------------------------------||o
G|-----|o----------------------------------------||o
D|-----|-----------------------------------------||
A|-----|-----------------------------------------||

w/dist
D|------------------------------------------------------|
A|------------------------------------------------------|
F|--5-\4-----4-----5------5\4--5\4-----4-----5-----5\4--|
C|--x--x-----x-----x------x-x--x-x-----x-----x-----x-x--|
G|--3-\2-----2-----3------3\2--3\2-----2-----3-----3\2--|
D|------------------------------------------------------|
A|--------0-----0-------------------0------0------------|

Chorus:
D|--------------------------------------------------------------------|
A|--------------------------------------------------------------------|
F|--------------------------------------------------------------------|
C|--2------3--3----2------------------2/3---2-----3--3----2-----------|
G|--2------3--3----2------3-----2-----2/3---2-----3--3----2---3-----2-|
D|--0------1--1----0------3-----2-----0-----0-----1--1----0---3-----2-|
A|------------------------1-----0-----------------------------1-----0-|

Interlude:
D|--8-------------8----------8---------8---------------|
A|--8-------------8----------8---------8---------------|
F|--5----5--------5----5-----5----5----5-----5-\4-/5---|
C|-----------------------------------------------------|
G|-------3-------------3----------3----------3-\2-/3---|
D|-----------------------------------------------------|
A|-----------------------------------------------------|

11.FALLING AWAY FROM ME

Tuning: 7 string tuned down a step  A D G C F A D

Intro: clean
D|-------15--14--------------14-----------15--14-----------14--------14-----|
A|--17------------15------------------17----------15------------14-------14-|
F|---------------------16------------------------------16-------------------|
C|--------------------------------------------------------------------------|
G|--------------------------------------------------------------------------|
D|--------------------------------------------------------------------------|
A|--------------------------------------------------------------------------|

Guitar 1
D|-----------------------------------------------------|
A|--5-------------5-------------5-------5-------5------|
F|-----------------------------------------------------|
C|--3-------------3-------------3----------3----3------|
G|-----------------------------------------------------|
D|-----------------------------------------------------|
A|-----------------------------------------------------|

Guitar 2
D|---------------------------------------------------------------|
A|---------------------------------------------------------------|
F|---------------------------------------------------------------|
C|------3---------3----3-------------3--------3-----3------------|
G|------3---------3----3-------------3--------3-----3------------|
D|------1---------1----1-------------1--------1-----1------------|
A|-0--------0---0----0----0-------0-----0--0-----0-----0------0--|

Verse: Guitar 1 plyas intro
Guitar 2 plays this
D|-----------------------------------------------------|
A|---11^---(11)-----(11)-----(11)-----(11)-----(11)----|
F|-----------------------------------------------------|
C|-----------------------------------------------------|
G|-----------------------------------------------------|
D|-----------------------------------------------------|
A|-----------------------------------------------------|

Chorus: Guitar 1
D|------------------------------------------------------|
A|------------------------------------------------------|
F|------------------------------------------------------|
C|------------------------------------------------------|
G|-2~----9~-----5~-----3-3-----2~----9~-----5~-----8-8--|
D|-2~----9~-----5~-----3-3-----2~----9~-----5~-----8-8--|
A|-0~----7~-----3~-----1-1-----0~----7~-----3~-----6-6--|


Guitar 2
D|-----------------------------------------------------|
A|-----------------------------------------------------|
F|----3^--------(3)-----------3^---------(3)-----------|
C|-----------------------------------------------------|
G|-----------------------------------------------------|
D|-----------------------------------------------------|
A|-----------------------------------------------------|

Fill:
D|--------|
A|--------|
F|--------|
C|--------|
G|--2~----|
D|--2~----|
A|--0~----|

Bridge
D|-2----2------2----------5----2---2---2---------2----0-----0-------|
A|-0----2------3----------5----3---2---3---------0----2-----0-------|
F|-4----4------2----------1----2---2---0---------4----3-----2-------|
C|------------------------------------------------------------------|
G|------------------------------------------------------------------|
D|------------------------------------------------------------------|
A|------------------------------------------------------------------|

D|-0------0-----------|
A|-0------0--0--------|
F|-0------0--8--------|
C|--------------------|
G|-----------9--------|
D|--------------------|
A|--------------------|

Here's an alternate way of playing the hard part
D|-------------------------|
A|-------------------------|
F|-------------------------|
C|-------------------------|
G|-8--------8--8-----------|
D|----7--7--------7--7--7--|
A|-6--0--0--6--6--0--0--0--|


12.GOT THE LIFE

Intro:
D|------------------------------------------------------------------------|
A|-7-7-7-7-7-7-7-7-7-7-7---5-5-5-5-5/8-8-8-8-8/14-14-14-14-14-14-15-------|
F|-x-x-x-x-x-x-x-x-x-x-x---x-x-x-x-x/x-x-x-x-x/-x--x--x--x--x--x--x-------|
C|-4-4-4-4-4-4-4-4-4-4-4---2-2-2-2-2/5-5-5-5-5/11-11-11-11-11-11-12-------|
G|------------------------------------------------------------------------|
D|------------------------------------------------------------------------|
A|------------------------------------------------------------------------|
Intro (cont'd):
D|------------------------------------------------------------------------------|
A|--7-7-7-7-7-7-7-7-7--5-5-5-5-5/8-8-8/15-15-15-15-15-15-15\7-7-7-7-7-7-7-------|
F|--x-x-x-x-x-x-x-x-x--x-x-x-x-x/x-x-x/-x--x--x--x--x--x--x\x-x-x-x-x-x-x-------|
C|--4-4-4-4-4-4-4-4-4--2-2-2-2-2/5-5-5/12-12-12-12-12-12-12\4-4-4-4-4-4-4-------|
G|------------------------------------------------------------------------------|
D|------------------------------------------------------------------------------|
A|------------------------------------------------------------------------------|
Intro (cont'd):
D|--------------------------------------------------------------------------------------------|
A|--5-5-5--5/8-8-8-8-8/14-14-14-14-14-14-15---7-7-7-7-7-7-7-7-7--5-5-5-5-5--8-8-8-8-8-8-8-8-8-|
F|--x-x-x--x/x-x-x-x-x/-x--x--x--x--x--x--x---x-x-x-x-x-x-x-x-x--x-x-x-x-x--x-x-x-x-x-x-x-x-x-|
C|--2-2-2--2/5-5-5-5-5/11-11-11-11-11-11-12---4-4-4-4-4-4-4-4-4--2-2-2-2-2--5-5-5-5-5-5-5-5-5-|
G|--------------------------------------------------------------------------------------------|
D|--------------------------------------------------------------------------------------------|
A|--------------------------------------------------------------------------------------------|
Verse:
D|-14-------15-----19----14-------3--3--3--3--3--3--------14-----------19----14--14---15---19-14-|
A|--------------------------------5--5--5--5--5--5--------------17-------------------------------|
F|--------------------------------4--4--4--4--4--4-----------------------------------------------|
C|-----------------------------------------------------------------------------------------------|
G|-----------------------------------------------------------------------------------------------|
D|-----------------------------------------------------------------------------------------------|
A|-----------------------------------------------------------------------------------------------|
"Get your boogie on!":
D|----------------------------------------|
A|----------------------------------------|
F|----------------------------------------|
C|----------------------------------------|
G|--4-4-x-x-2-2-4-4-x-x-x-x-4-4-x-x-------|
D|----------------------------------------|
A|----------------------------------------|
Chorus:
D|---------------------------------------------------------------|
A|-12--12-12-12-12----12--12-12-12-12----------------------------|
F|---------------------------------------------------------------|
C|---------------------------------------------------------------|
G|---------------------------------------------------------------|
D|---------------------------------------------------------------|
A|---------------------------------------------------------------|
Bridge:
D|-------------------|
A|-------8------10---|
F|--8-------9--------|
C|-------------------|
G|-------------------|
D|-------------------|
A|-------------------|
"Dance with me":
D|--13b(13)--13b---13b(13)--13----------------------------------------------------|
A|-------------------------------12b(12)-----12b(12)-----12b(12)-----12b(12)------|
F|----------------------------------------0-----------0-----------0-----------0---|
C|----------------------------------------3-----------3-----------3-----------3---|
G|--------------------------------------------------------------------------------|
D|--------------------------------------------------------------------------------|
A|--------------------------------------------------------------------------------|

13.FREAK ON A LEASH

Munky           Head
D||--------19------||---------24----||
A||-17--------18---||-----22--------||
F||----------------||-21------------||
C||----------------||---------------||
G||----------------||---------------||
D||----------------||---------------||
A||----------------||---------------||

D||---------18------||---------24-||
A||-17---------19---||-----22-----||
F||-----------------||-21---------||
C||-----------------||------------||
G||-----------------||------------||
D||-----------------||------------||
A||-----------------||------------||

D||----------------------------------------||
A||----------------------------------------||
F||-13/-14\-13---13---13/-14\-13---13--10--||
C||----------------------------------------||
G||-11/-12\-11---11---11/-12\-11---11---8--||
D||------------0-----------------0---------||
A||----------------------------------------||

D||-------------------||
A||-------------------||
F||-13/-14\-13---13---||
C||-------------------||
G||-11/-12\-11---11---||
D||------------0------||
A||-------------------||

D||------------------------------||
A||------------------------------||
F||------------------------------||
C||-9-9-9-9-9-9-9-9--------------||
G||-9-9-9-9-9-9-9-9-9-9-9-10--8--||
D||-7-7-7-7-7-7-7-7-9-9-9-10--8--||
A||-----------------7-7-7--8--6--||

D||----------10-10------------10-10p9h10p9--||
A||-----------------------------------------||
F||-----------------------------------------||
C||-----------------------------------------||
G||-----------------------------------------||
D||----9--9-----------9--9------------------||
A||-----------------------------------------||

D||----------10-10------------10-10p9h10p9--||
A||-----------------------------------------||
F||-----------------------------------------||
C||-----------------------------------------||
G||-----------------------------------------||
D||----9--9-----------9--9------------------||
A||-----------------------------------------||

D||----------------||
A||----------------||
F||----------------||
C||----------------||
G||-4-5-6-7--------||
D||-4-5-6-7--------||
A||-2-3-4-5--------||

D||-------------||
A||-------------||
F||-------------||
C||-------------||
G||-4-5-4-3-----||
D||-4-5-4-3-----||
A||-2-3-2-1-----||

D||---------------------------||
A||---------------------------||
F||---------------------------||
C||-9-9---9---9-9-9-9---------||
G||-9-9---9---9-9-9-9-9-10-8--||
D||-7-7---7---7-7-7-7-9-10-8--||
A||-------------------7--8-6--||


D||--7---------/19----\7--|---------8-----5--||
A||-----------------------|------------------||
F||-----------------------|------------------||
C||-----------------------|------------------||
G||-----------------------|------------------||
D||-----------------------|------------------||
A||-----------------------|------------------||

14.TWIST

Verse - Munky                    x8
D|--------------------------------|
A|-------10/11/12--------12/11/10-|
F|--------------------------------|
C|--------8/9-/10--------10/9-/8--|
G|--------------------------------|
D|--------------------------------|
A|-0-0-0------------0-0-0---------|

Verse - Head                                       x4
D|--------------------18----------------------------|
A|-------10/11/12--------17---------10/11/12--14^~^-|
F|------------------15------------------------------|
C|--------8/9-/10--------------------8/9-/10--------|
D|--------------------------------------------------|
G|--------------------------------------------------|
A|-0-0-0----------------------0-0-0-----------------|

Chorus                        
D|-----------------------------|
A|-----9------9--------9-------|
F|-----------------------------|
C|-----7------7--------7-------|
G|-----------------------------|
D|-----------------------------|
A|-00----000-----0-00-----0000-|

Verse - Munky                    x8
D|--------------------------------|
A|-------10/11/12--------12/11/10-|
F|--------------------------------|
C|--------8/9-/10--------10/9-/8--|
G|--------------------------------|
D|--------------------------------|
A|-0-0-0------------0-0-0---------|

Verse - Head                                       x4
D|--------------------18----------------------------|
A|-------10/11/12--------17---------10/11/12--14^~^-|
F|------------------15------------------------------|
C|--------8/9-/10--------------------8/9-/10--------|
D|--------------------------------------------------|
G|--------------------------------------------------|
A|-0-0-0----------------------0-0-0-----------------|

Outro
D|-----------------------------|
A|-----9------9--------9-------|
F|-----------------------------|
C|-----7------7--------7-------|
G|-----------------------------|
D|-----------------------------|
A|-00----000-----0-00-----0000-|


15.A.D.I.D.A.S.

7-string guitar tuned down a full step

Intro-verse
------------------------
------------------------
------------------------
-8^--8^--8---8^--8^---8-
------------------------
--------------------6---
------------------------

Chorus
-------------------------------
-------------------------------
-------------------------------
-------------------------------
-------------------------------
-8----3-----5/6\5-5--5-5/6\5-3-
-6----1-----3/4\3-3--3-3/4\3-3-

Chorus 2
-----------------------------------
-----------------------------------
-----------------------------------
-----------------------------------
-----------------------------------
-2-2-2-2-2-2-2-2--3-3-3-3-3-3-3-3--
-0-0-0-0-0-0-0-0--1-1-1-1-1-1-1-1--

Bridge
----------------------------------
----------------------------------
---9-8---8/9\8----10-9----9-10/12-
-9-----9-------10------10---------
----------------------------------
----------------------------------
----------------------------------

Bridge 2
-------------------
-------------------
-------------------
-------------------
-------------------
-2-2--2-2--2--2-2--
-0-0--0-0--0--0-0--

Outro
-----------23-23-23-
--------------------
--------------------
--------------------
--------------------
--------------------
--------------------

16.CLOWN

Intro                                x1
D|------------------------------------| 
A|------------------------------------|
F|-------4^------3^------3^------3~~^-|
C|------------------------------------|
G|------------------------------------|
D|--0000----0000----0000----0000------| 
A|--0000----0000----0000----0000------|

Interlude - Head           x1
D|--------------------------|
A|--------------------------|
F|--------------------------|
C|--------------------------|
G|--------------------------|
D|-565454-565454-565454-564-|
A|-343232-343232-343232-342-|

Main - Head and Munky      x4                      x4
D|--------------------------|-----------------------|
A|--------------------------|-----------------------|
F|--------------------------|-----------------------|
C|--------------------------|-----------------------|
G|--------------------------|-----------------------|
D|-565454-565454-565454-564-|-5/6-4/5-5/6-4/5-5/6\4-|
A|-343232-343232-343232-342-|-3/4-2/3-3/4-2/3-3/4\2-|

Verse                                   x8
D|---------------------------------------|
A|---16------15------16------15-------14-|
F|-19---19-18---18-19---19-18---18-19-17-|
C|---------------------------------------|
G|---------------------------------------|
D|---------------------------------------|
A|---------------------------------------|

Chorus - Head           x8
D|-----------------------|
A|-----------------------|
F|-----------------------|
C|-----------------------|
G|-----------------------|
D|-2--22--22-6\555\444\3-|
A|-0--00--00-4\333\222\1-|

Chorus - Munky               x8
D|----------------------------|
A|----------------------------|
F|----------------------------|
C|----------------------------|
G|-----------13\121212\111\10-|
D|-2--22--22-11\101010\999\8--| 
A|-0--00--00------------------|

Intro                           x1
D|-------------------------------| 
A|-------------------------------|
F|-------4^------3^------3^------|
C|-------------------------------|
G|-------------------------------|
D|--0000----0000----0000----0000-| 
A|--0000----0000----0000----0000-|

Verse                                   x8
D|---------------------------------------|
A|---16------15------16------15-------14-|
F|-19---19-18---18-19---19-18---18-19-17-|
C|---------------------------------------|
G|---------------------------------------|
D|---------------------------------------|
A|---------------------------------------|

Chorus - Head           x8
D|-----------------------|
A|-----------------------|
F|-----------------------|
C|-----------------------|
G|-----------------------|
D|-2--22--22-6\555\444\3-|
A|-0--00--00-4\333\222\1-|

Chorus - Munky               x8
D|----------------------------|
A|----------------------------|
F|----------------------------|
C|----------------------------|
G|-----------13\121212\111\10-|
D|-2--22--22-11\101010\999\8--| 
A|-0--00--00------------------|

Interlude - Head
D|---------|    |-------|
A|---------|    | ------|
F|------5^-|    |-------|
C|---------| x7 |-------|
G|---------|    |-------|
D|-0-------|    |-2-3-4-|
A|-0-00----|    |-0-1-2-|

Interlude - Munky
D|------8^-|    |-------|
A|---------|    |-------|
F|---------|    |-------|
C|---------| x7 |-------|
G|---------|    |-------|
D|-0-------|    |-2-3-4-|
A|-0-00----|    |-0-1-2-|

Interlude - Head                 x2
D|--------------------------------|
A|--------------------------------|
F|------5^-----5^------5^---------|
C|--------------------------------|
G|--------------------------------|
D|-0--------------0-----------3-4-|
A|-0-00----000----0-00----000-1-2-|

Interlude - Munky                x2
D|------8^-----8^------8^---------|
A|--------------------------------|
F|--------------------------------|
C|--------------------------------|
G|--------------------------------|
D|-0--------------0-----------3-4-|
A|-0-00----000----0-00----000-1-2-|

Main - Head and Munky      x4                      x4
D|--------------------------|-----------------------|
A|--------------------------|-----------------------|
F|--------------------------|-----------------------|
C|--------------------------|-----------------------|
G|--------------------------|-----------------------|
D|-565454-565454-565454-564-|-5/6-4/5-5/6-4/5-5/6\4-|
A|-343232-343232-343232-342-|-3/4-2/3-3/4-2/3-3/4\2-|

Chorus - Head           x8
D|-----------------------|
A|-----------------------|
F|-----------------------|
C|-----------------------|
G|-----------------------|
D|-2--22--22-6\555\444\3-|
A|-0--00--00-4\333\222\1-|

Chorus - Munky               x8
D|----------------------------|
A|----------------------------|
F|----------------------------|
C|----------------------------|
G|-----------13\121212\111\10-|
D|-2--22--22-11\101010\999\8--| 
A|-0--00--00------------------|

Outro
D|-------------------------------------------------------|
A|-------------------------------------------------------|
F|-------------------------------------------------------|
C|-------------------------------------------------------|
G|-------------------------------------------------------|
D|-0000---0000---0000---0000---0000---0000---0000---0000-|
A|-0000---0000---0000---0000---0000---0000---0000---0000-|


17.SHOOTS AND LADDERS

Intro       x8
D|-----------|
A|-----------|
F|-----------|
C|-----------|
G|-----------|
D|-33--33-33-|
A|-11--11-11-|

Pre-Verse (* = artifical harmonic)
D|-*2*-|
A|-----|
F|-----|
C|-----|
G|-----|
D|-----|
A|-----|

2nd Pre-verse (slowly bend up, and then bring it back down)
D|-----------------------|
A|-----------------------|
F|-0^~--000000--00000000-|
C|-5^~--555555--55555555-|
G|-----------------------|
D|-----------------------|
A|-----------------------|

Verse    x8
D|--------|
A|--------|
F|----0^~-|
C|----5^~-|
G|--------|
D|-5------|
A|-3------|

Chours - Head                    
D|--------------------------------|
A|--------------------------------|
F|--------------------------------|
C|--------------------------------|
G|--------------------------------|
D|5--5-7--6--6-5--5-7--6--5-5-4-3-|
A|3--3-5--4--4-3--3-5--4--3-3-2-1-|

Munky 
D|------------------------14-------14-----14-14-|
A|-15-15-15-15--15-15-15--15-15-15-15--15-15-15-|
F|--x--x--x--x---x--x--x---x--x--x--x---x--x--x-|
C|-12-12-12-12--12-12-12--12-12-12-12--12-12-12-|
G|----------------------------------------------|
D|----------------------------------------------|
A|----------------------------------------------|

D|-----------------------------------------|
A|-15-15-15-15--15--15--15-15-15--15-15-15-|
F|-----------------------------------------|
Cl-12-12-12-12--12--12--12-12-12--12-12-12-|
G|-----------------------------------------|
D|-----------------------------------------|
A|-----------------------------------------|

Verse    x8
D|--------|
A|--------|
F|----0^~-|
C|----5^~-|
G|--------|
D|-5------|
A|-3------|

Chours - Head                    
D|--------------------------------|
A|--------------------------------|
F|--------------------------------|
C|--------------------------------|
G|--------------------------------|
D|5--5-7--6--6-5--5-7--6--5-5-4-3-|
A|3--3-5--4--4-3--3-5--4--3-3-2-1-|

Munky
D|------------------------14-------14-----14-14-|
A|-15-15-15-15--15-15-15--15-15-15-15--15-15-15-|
F|--x--x--x--x---x--x--x---x--x--x--x---x--x--x-|
C|-12-12-12-12--12-12-12--12-12-12-12--12-12-12-|
G|----------------------------------------------|
D|----------------------------------------------|
A|----------------------------------------------|

D|-----------------------------------------|
A|-15-15-15-15--15--15--15-15-15--15-15-15-|
F|-----------------------------------------|
Cl-12-12-12-12--12--12--12-12-12--12-12-12-|
G|-----------------------------------------|
D|-----------------------------------------|
A|-----------------------------------------|

Bridge - Head         x8
D|-----43--------43----|
A|-333----43--33----43-|

Heavy Bridge          x8
D|---------------------|
A|---------------------|
F|---------------------|
C|---------------------|
G|-----65--------65----|
D|-555-43-65--55-43-65-|
A|-333----43--33----43-|

Interlude
D|---------------------|
A|---------------------|
F|---------------------|
C|---------------------|
G|-6--5--4--3--4--4--3-|
D|-6--5--4--3--4--4--3-|
A|-4--3--2--1--2--2--1-|

Verse    x8
D|--------|
A|--------|
F|----0^~-|
C|----5^~-|
G|--------|
D|-5------|
A|-3------|

Chours - Head                    
D|--------------------------------|
A|--------------------------------|
F|--------------------------------|
C|--------------------------------|
G|--------------------------------|
D|5--5-7--6--6-5--5-7--6--5-5-4-3-|
A|3--3-5--4--4-3--3-5--4--3-3-2-1-|

Munky
D|------------------------14-------14-----14-14-|
A|-15-15-15-15--15-15-15--15-15-15-15--15-15-15-|
F|--x--x--x--x---x--x--x---x--x--x--x---x--x--x-|
C|-12-12-12-12--12-12-12--12-12-12-12--12-12-12-|
G|----------------------------------------------|
D|----------------------------------------------|
A|----------------------------------------------|

D|-----------------------------------------|
A|-15-15-15-15--15--15--15-15-15--15-15-15-|
F|-----------------------------------------|
Cl-12-12-12-12--12--12--12-12-12--12-12-12-|
G|-----------------------------------------|
D|-----------------------------------------|
A|-----------------------------------------|

Outro
D|-10^~-|
A|-13^~-|
F|------|
C|------|
G|------|
D|------|
A|------|


18.BLIND

E Tuning Version

Intro: (Flange/Light Distortion)                                     	
E|----6-6-6-6--|           
B|----5-5-5-5--|           
G|----3-3-3-3--|  Repeat 4 Times
D|-------------|    Then....
A|-------------|
E|-------------|

Distortion (.)
Clean (with Flange/Light Distorion) (==)
     ========   .........    =======      =======  .........	
E|----6-6-6-6----------------6-6-6-6------6-6-6-6-------------|        
B|----5-5-5-5----------------5-5-5-5------5-5-5-5-------------|    
G|----3-3-3-3----------------3-3-3-3------3-3-3-3-------------|  
D|---------------10----10----------------------------10---10--|
A|----------------9-----9-----------------------------9----9--|
E|--------------0----0------------------------------0---0-----|

Then....
(Distortion On)
E|---------------------6-6-6-6----|        
B|---------------------5-5-5-5----|    
G|---------------------3-3-3-3----|  
D|--------------------------------|
A|--------------------------------|
E|---0-2-0-3-0-2-0-3--------------|

ARE YOU READY.........|
(Heavy Distortion)
E|-----------------------------|        
B|-----------------------------|    
G|-----------------------------|  
D|--------------------3-3-3-3--|
A|-----4---5---4---5--1-1-1-1--|
E|---0-2-0-3-0-2-0-3-----------|

Fill:
E|-----------------------------|        
B|-----------------------------|    
G|-----------------------------|  
D|-------------------3-3-3-3---|
A|--------5---4---5--1-1-1-1---|
E|-0-0-0--3-0-2-0-3------------|

Verse:
LEt Verse Notes Ring
E|--------------------|---------------------|        
B|--------------------|---------------------|
G|--------------------|-----------------8---|  
D|--2~~~~-3~~~--2~~~--|-----------------6---|
A|--0~~~~-1~~~--0~~~--|--7-7/8\7--7\8/7-----|
E|--------------------|--5-5/6\5--5\6/5-----|

Bridge: (Distortion Still On)  Korn uses a phaser here live.
E|----6-6-6-6--0~---6-6-6-6--|           
B|----5-5-5-5--0~---5-5-5-5--|           
G|----3-3-3-3--0~---3-3-3-3--|  
D|---------------------------|    
A|---------------------------|
E|---------------------------|

Drop D Version

There are only couple differences _ "Are you ready" part and 2nd part of verse

ARE YOU READY.........|
(Heavy Distortion)
E|------------------------------|        
B|------------------------------|    
G|------------------------------|  
D|---------------------3-3-3-3--|
A|---0-2-0-3-0-2-0-3---1-1-1-1--|
D|---0-2-0-3-0-2-0-3------------|


Verse:
LEt Verse Notes Ring
E|--------------------|---------------------|        
B|--------------------|---------------------|
G|--------------------|-----------------8---|  
D|--2~~~~-3~~~--2~~~--|-----------------6---|
A|--0~~~~-1~~~--0~~~--|--5-5/6\5--5\6/5-----|
D|--------------------|--5-5/6\5--5\6/5-----|

That is the WHOLE thing except the remix of Freak On A leash.ENJOY!!!
comments
print report bad tab
7 comments total. Showing first comments.
0 reply
Elvisz wrote on November 23 2004, 12:00 am

don't want to sound mean but i never saw KoRn playing on droppped tunning... i don't think you're using the tunning right(maybe read about it...) but has some good stuff tooo... peace! KoRn rocks!!!

0 reply
cheeseisawsome wrote on November 23 2004, 12:00 am

nice tabs!!!!

0 reply
slipknot182 wrote on November 23 2004, 12:00 am

kool

I want to post or [tab]
guest
You may want to rate the tab now too:
select rating
Please do not post tabs as comments. Select "correction" instead!