Oops, an error
Loading. Please wait.

Issues Tab

by Korn
ver2
ver2

Album

More versions @911Tabs.com
2,296 views 9 this week
no commentswrite comment
1 2 3 4 5
excellent!
x 1
add to favorites launch autoscroll
font size
0
reset
Autoscroll
+/-
esc
set tempo
stop
Contributor
WARNING: You are trying to view
                                    content from Ultimate-Guitar.com
                                    in an unauthorized application,
                                    which is prohibited.

                                    Please use an official Ultimate
                                    Guitar Tabs application for iPhone,
                                    iPad or Android to access legitimate
                                    chords, guitar, bass, and drum tabs
                                    from Ultimate-Guitar.com database.

                                    Type "ultimate guitar tabs" in Apple
                                    App Store's or Android Market's
                                    search to find the application.
ISSUES
1.Dead
2.Falling Away From Me
3.Trash
4.4U
5.Beg For Me
6.Make Me Bad
7.It's Gonna Go Away
8.Wake Up
9.Am I Going Crazy
10.Hey Daddy
11.Somebody Someone
12.No Way
13.Let's Get This Party Started
14.Wish You Could Be Me
15.Counting
16.Dirty

1.Dead

(main riff)
d ||----------------------------|
A ||--6--4--2--7--11--9---------|
F ||----------------------------|
C ||----------------------------|
G ||----------------------------|
D ||----------------------------|

(outra riff)
d ||----------------------------|
A ||--7-------------------------|
F ||-----8--6--4/6--------------|
C ||----------------------------|
G ||----------------------------|
D ||----------------------------|

2.Falling Away From Me

Tuning: 7 string tuned down a step  A D G C F A D

Intro: clean
D|-------15--14--------------14-----------15--14-----------14--------14-----|
A|--17------------15------------------17----------15------------14-------14-|
F|---------------------16------------------------------16-------------------|
C|--------------------------------------------------------------------------|
G|--------------------------------------------------------------------------|
D|--------------------------------------------------------------------------|
A|--------------------------------------------------------------------------|

Guitar 1
D|-----------------------------------------------------|
A|--5-------------5-------------5-------5-------5------|
F|-----------------------------------------------------|
C|--3-------------3-------------3----------3----3------|
G|-----------------------------------------------------|
D|-----------------------------------------------------|
A|-----------------------------------------------------|

Guitar 2
D|---------------------------------------------------------------|
A|---------------------------------------------------------------|
F|---------------------------------------------------------------|
C|------3---------3----3-------------3--------3-----3------------|
G|------3---------3----3-------------3--------3-----3------------|
D|------1---------1----1-------------1--------1-----1------------|
A|-0--------0---0----0----0-------0-----0--0-----0-----0------0--|

Verse: Guitar 1 plyas intro
Guitar 2 plays this
D|-----------------------------------------------------|
A|---11^---(11)-----(11)-----(11)-----(11)-----(11)----|
F|-----------------------------------------------------|
C|-----------------------------------------------------|
G|-----------------------------------------------------|
D|-----------------------------------------------------|
A|-----------------------------------------------------|

Chorus: Guitar 1
D|------------------------------------------------------|
A|------------------------------------------------------|
F|------------------------------------------------------|
C|------------------------------------------------------|
G|-2~----9~-----5~-----3-3-----2~----9~-----5~-----8-8--|
D|-2~----9~-----5~-----3-3-----2~----9~-----5~-----8-8--|
A|-0~----7~-----3~-----1-1-----0~----7~-----3~-----6-6--|


Guitar 2
D|-----------------------------------------------------|
A|-----------------------------------------------------|
F|----3^--------(3)-----------3^---------(3)-----------|
C|-----------------------------------------------------|
G|-----------------------------------------------------|
D|-----------------------------------------------------|
A|-----------------------------------------------------|

Fill:
D|--------|
A|--------|
F|--------|
C|--------|
G|--2~----|
D|--2~----|
A|--0~----|

Bridge
D|-2----2------2----------5----2---2---2---------2----0-----0-------|
A|-0----2------3----------5----3---2---3---------0----2-----0-------|
F|-4----4------2----------1----2---2---0---------4----3-----2-------|
C|------------------------------------------------------------------|
G|------------------------------------------------------------------|
D|------------------------------------------------------------------|
A|------------------------------------------------------------------|

D|-0------0-----------|
A|-0------0--0--------|
F|-0------0--8--------|
C|--------------------|
G|-----------9--------|
D|--------------------|
A|--------------------|

Here's an alternate way of playing the hard part
D|-------------------------|
A|-------------------------|
F|-------------------------|
C|-------------------------|
G|-8--------8--8-----------|
D|----7--7--------7--7--7--|
A|-6--0--0--6--6--0--0--0--|

3.Trash

Head's parts:


intro/chorus(w/whammy pedal):
D|
A|-----/7--------5------/10------8-----7----5--/7--------5-----/10--12-8--|
F|
C|
G|
D|
A|

verse(w/whammy pedal):
D|-9------11------------------9---------9--|-9------11-----------------------9------|
A|-------------------10------------10------|-------------------10-------9--------9--|
F|
C|
G|
D|
A|

outro is the same as the intro

Munky's parts:


intro/chorus:


D|
A|
F|---------4---4----------4---4------4---4------4---4----|
C|------4---4----------4---4-------4---4------4---4------|
G|--2--------------3------------4----------3-------------|
D|--2--------------3------------4----------3-------------|
A|--0--------------1------------2----------1-------------|

verse(w/whammy pedal):
D|
A|-7-----------------------|-6--------------------|-7-----------------------|-6------------------10---------|
F|
C|
G|
D|
A|

outro
D|
A|
F|
C|
G|--2---------------3------------4----------3-------------|
D|--2---------------3------------4----------3-------------|
A|--0---------------1------------2----------1-------------|


both play interlude/pre-chorus and bridge which is


interlude
D|
A|
F|
C|
G|--4-2-4--2-4---2-4-2-4-----5--|
D|--4-2-4--2-4---2-4-2-4-----5--| 4x
A|--2-2-2--2-2---2-2-2-2-----3--|

bridge:
D|
A|
F|
C|
G|--4-2-4--2-4---2-4--2-4----2-3--|
D|--4-2-4--2-4---2-4--2-4----2-3--|
A|

4.4U

NOTE: Tune guitar down 1 whole step A D G C F A D
NOTE: Guitar 2 is synth. guitar but works perfect on normal guitar

Intro (Gtr. 1)
A|----|-------------0------|
F|----|-------------5------|
C|----|--2----------5------|
G|-7--|--2----------3------|
D|-7--|--0-----------------|
A|-5--|--------------------|

Intro (Gtr. 2)
F|----|-1---------|----------|--0--------------|

Verse (Gtr. 1)
A|-------------------|------------------|-0---------------|-----------------|
F|-------------------|------------------|-5---------------|-----------------|
C|--2----------------|------------------|-5---------------|-----------------|
G|--2----------------|------------------|-3---------------|-----------------|
D|--0----------------|------------------|-----------------|-----------------|
     This *** right here.....            I can see you........

Verse (Gtr. 2)
A|------------0----|-%-|------------0----|-%-|
F|----1------------|-%-|----0------------|-%-|

Fill (Gtr. 1)
F|---------------|-0------------|---------------|------------|-----------|
C|---------------|-9------------|---------------|------------|-2---------|
G|-7-------------|-9------------|---------------|------------|-2---------|
D|-7-------------|-7------------|---------------|------------|-0---------|
A|-0-------------|--------------|---------------|------------|-----------|
   I couldn�t have......			          wasn�t          4 U

Fill (Gtr. 2)
F|--1------------|--------------|-1-------------|------------|-----------|
C|---------------|-1------------|---------------|--2---------|-----------|

5.Beg For Me

INTRO/VERSE (CLEAN)
D|-----------------------------------------------------------------|
A|-----------------------------------------------------------------|
F|-----------------------------------------------------------------|
C|-----------------------------------------------------------------| 
G|-----6------6---6--------------6------6---6----------------------|
D|-----------------------------------------------------------------|
A|-4p3---3------3---3--------4p3---3------3---3--------------------|

D|-----------------------------------------------------------------|
A|-----------------------------------------------------------------|
F|-----------------------------------------------------------------|
C|-----------------------------------------------------------------|
G|-----6------6---6--------------6---------------------------------|
D|-----------------------------------------------------------------|
A|-4p3---3------3---3--------4p3---3-------------------------------|

CHORUS (DISTORTION)
D|-----------------------------------------------------------------|
A|-----------------------------------------------------------------|
F|-----------------------------------------------------------------|
C|-----------------------------------------------------------------|
G|-----6---6-----6-----6---6-----------6---6-----6-----6---6-------|
D|-----------------------------------------------------------------|
A|-3-----3---3-----3-----3---3/7---3-----3---3-----3-----3---3/4---|

BRIDGE (DISTORTION)
D|-----------------------------------------------------------------|
A|-----------------------------------------------------------------|
F|------0------------------------------0---------------------------|
C|------6-------------5----------------6-------------5-------------|
G|-3----6---6----5----5---4----2--3----6---6----5----5---4----2----|
D|-3----4---6----5----3---4----2--3----4---6----5----3---4----2----|
A|-1--------4----3--------2----0--1--------4----3--------2----0----|

OUTRO (DISTORTION) 
D|-------------------15-----------------------------15-------------|
A|----------------16-----------------------------16----------------|
F|-5-----------13-----------------5-----------13-------------------|
C|-5------------------------------5--------------------------------|
G|-3------------------------------3--------------------------------|
D|-3------------------------------3--------------------------------|
A|-----------------------------------------------------------------|

6.Make Me Bad

Tuning: 7 string guitars tuned ADGCFAD

Intro/verse: w/whammy pedal
D|-14--|------------15---14-------------------14-||
A|-----|---12-----------------12-----------------||
F|-----|-----------------------------------------||
C|-----|o----------------------------------------||o
G|-----|o----------------------------------------||o
D|-----|-----------------------------------------||
A|-----|-----------------------------------------||

w/dist
D|------------------------------------------------------|
A|------------------------------------------------------|
F|--5-\4-----4-----5------5\4--5\4-----4-----5-----5\4--|
C|--x--x-----x-----x------x-x--x-x-----x-----x-----x-x--|
G|--3-\2-----2-----3------3\2--3\2-----2-----3-----3\2--|
D|------------------------------------------------------|
A|--------0-----0-------------------0------0------------|

Chorus:
D|--------------------------------------------------------------------|
A|--------------------------------------------------------------------|
F|--------------------------------------------------------------------|
C|--2------3--3----2------------------2/3---2-----3--3----2-----------|
G|--2------3--3----2------3-----2-----2/3---2-----3--3----2---3-----2-|
D|--0------1--1----0------3-----2-----0-----0-----1--1----0---3-----2-|
A|------------------------1-----0-----------------------------1-----0-|

Interlude:
D|--8-------------8----------8---------8---------------|
A|--8-------------8----------8---------8---------------|
F|--5----5--------5----5-----5----5----5-----5-\4-/5---|
C|-----------------------------------------------------|
G|-------3-------------3----------3----------3-\2-/3---|
D|-----------------------------------------------------|
A|-----------------------------------------------------|

7.It's Gonna Go away

NOTE: Tune down 1 whole step

Intro/Verse (Gtr. 1) (w/ dist. + feedback)
d|--1h2----------------|-------------------|
F|---------------------|---4p3-------------|

Verse (Gtr. 2) (w/ dist.) (�I don�t want it...�)
G|-------1h2--4-/7---|------6p4-2---4------|----------------------|
D|---2---------------|------------------4^-|---------2p0----------|
					                  ^ full step

Verse (Gtr. 2) (cont.)
G|-------1h2--4-/7---|------6p4-2-----4-----|----------------------|
D|---2---------------|-------------------5^-|---------------2p0----|
					                  ^ full step

Verse (Gtr. 2) (cont.)
G|------1h2--4/11--|-----9p7-6-----------|----------|-------------|
D|-2---------------|--------------9--7^--|----------|--5^--4^-----|
				                   ^ full step       ^----^ full step

Verse (Gtr. 2) (cont.)
G|------1h2--4/11--|-----9p7-6-----------|----------|
D|-2---------------|--------------9--7^--|----------|

Outro (Gtr. 1) (�Go a --- way!..�)
d|--------------------|-------------------2--------2------|

Outro (Gtr. 2)
D|--5^---------4^---|-0----------2----------------------|

8.Wake Up

INTRO/PRE CHORUS (DISTORTION)
D|-----------------------------------------------------------------|
A|-----------------------------------------------------------------|
F|-----------------------------------------------------------------|
C|-----------------------------------------------------------------|
G|-----------------------------------------------------------------|
D|---------------------------3--------------------------------3--2-|
A|-2h3-0-2---0-2h3-0-2---0-3---3-0--2h3-0-2---0-2h3-0-2---0---1--0-|

CHORUS GTR 1 (PHASER?)
D|-----------------------------------------------------------------|
A|-----------------------------------------------------------------|
F|-----------------------------------------------------------------|
C|-----------------------------------------------------------------|
G|-9h10p9h10p9h10p9--------4-----9h10p9h10p9h10p9--------13--------|
D|-----------------------------------------------------------------|
A|-----------------------------------------------------------------|

CHORUS GTR 2 (DISTORTION)
D|-----------------------------------------------------------------|
A|-----------------------------------------------------------------|
F|-----------------------------------------------------------------|
C|-4-------------4-------------------------------------------------|
G|-4-------------4-----------------5------------4--------2---------|
D|-2-------------2-----------------5------------4--------2---------|
A|---------------------------------3------------2--------0---------|

VERSE (CLEAN, PHASER)
D|--------12-------------11-------------8--------------11----------|
A|------9--------------9--------------9--------------9-------------|
F|----9--------------9--------------9--------------9---------------|
C|-11-------------11-------------11-------------11-----------------|
G|-----------------------------------------------------------------|
D|-----------------------------------------------------------------|
A|-----------------------------------------------------------------|

BRIDGE GTR 1 (PHASER?)
D|-----------------------------------------------------------------|
A|---------9/10-22-----------9/10/22--10---------------------------|
F|-----------------------------------------------------------------|
C|-----------------------------------------------------------------|
G|-----------------------------------------------------------------|
D|-----------------------------------------------------------------|
A|-----------------------------------------------------------------|

BRIDGE GTR 2 (DISTORTION)
D|-----------------------------------------------------------------|
A|-----------------------------------------------------------------|
F|-----------------------------------------------------------------|
C|-----------------------------------------------------------------|
G|-----------------------------------------------------------------|
D|-4/5-----4--------4/5-----4------------5---4--------4/5-----4----|
A|-2/3-0-0-2--------2/3-0-0-2------------3-0-2--------2/3-0-0-2----|

D|-----------------------------------------------------------------|
A|-----------------------------------------------------------------|
F|-----------------------------------------------------------------|
C|-----------------------------------------------------------------|
G|-----------------------------------------------------------------|
D|----5---4---------4/5-----4------------5---4--------4/5-----4----|
A|----3-0-2---------2/3-0-0-2------------3-0-2--------2/3-0-0-2----|

OUTRO CHORUS GTR 3 (PHSASER?)
D|-----------------------------------------------------------------|
A|--------------------------------------------------5---4----------|
F|-6-------------6-----------------4-------------------------------|
C|-----------------------------------------------------------------|
G|-----------------------------------------------------------------|
D|-----------------------------------------------------------------|
A|-----------------------------------------------------------------|

9.Am I Going Crazy

E---------------------------------------------
B---------------------------------------------
G---------------------------------------------
D------8----12-11----8----8----12-11-12-11----
A-8-10---10-------10---10---10----------------
E---------------------------------------------

E---------------------------------------------
B---------------------------------------------
G---------------------------------------------
D----8----8----12-11----8----8----12-11-12-11-
A-10---10---10-------10---10---10-------------
E---------------------------------------------

E----------------
B----------------
G----------------
D-12-11--10-9/8--
A----------------
E----------------

E----------------
B----------------
G---------------- (x4)
D-12-11--9-8/7---
A----------------
E----------------

10.Hey Daddy

Tuned Down One Half Whole Step (DGCFAd)


(Intro And Verse)

(Guitar 1)
d ||--------------------------|
A ||--------------------------|
F ||--6--6--7--7--6--7--7--6--|
C ||--6--6--7--7--6--7--7--6--|
G ||--4--4--5--5--4--5--5--4--|
D ||--------------------------|(Clean)
p.m ~ ~ ~ ~ ~ ~ ~ ~ ~ ~ ~ ~

(Guitar 2)
d ||------------|
A ||--6*--9--7--|
F ||------------|
C ||------------|
G ||------------|
D ||------------|(Whammy or Wah Effect)
(note:*= Use Vibrato)

(Chorus)
d ||--------------------------|
A ||--------------------------|
F ||--6--6--6--6--6--7--7--7--|
C ||--6--6--6--6--6--7--7--7--|
G ||--4--4--4--4--4--5--5--5--|
D ||--------------------------|(Heavy Distortion)


(Bridge: Part Where Jon goes..."They say this 
thing inside me...") 

(Guitar 1)
d ||--------------------|
A ||--------------------|
F ||-4--5---------------|
C ||-4--5---------------|
G ||-2--3---------------|
D ||--------------------|
p.m ~ ~ ~ ~ ~ ~ ~ ~ ~ 


This Part uses these two chords as the are palm muted..
figuring out the rythym to this part isnt hard..just listen.

(Guitar 2)
d ||--------------------|
A ||--12/13/12/13-------|
F ||--------------------|
C ||--------------------|
G ||--------------------|
D ||--------------------|

11.Somebody Someone

Intro and verse 
D|---------------1---------------3-0
A|-----3-----3-------3------3------
F|---2----2--------2-----2---------

Intro: 2 and Pre-Chorus
C|------------------------------------------------------7-7/8
G|--------------------5/6\5-----------------5/6\5------------
D|-----------------------------------------------------------
A|---3----------3--------------3------3----------------------

Verse: Munky  
G|------------3^-------------3----------------3^----------3^--x
D|------------------------------------------------------------x
A|---1---1--------1---1-------------1---1--------1---1---------

Chorus:
G|---5----9---8-6---5----9---8-4-----5-6-5---9---8-6---5----9---8-4
D|---5----9---8-6---5----9---8-4-----5-6-5---9---8-6---5----9---8-4
A|---3----7---6-4---3----7---6-2-----3-4-3---7---6-4---3----7---6-2

Interlude
D|-0-0-1-1-4-4-1-1-----0-0-1-1-4-4-1-1----0-0-1-1-4-4-1-1---0-0-4-4-0-0-4-4

Outro:
D|-0-1-0--0-0-0-4-1
A|-0-1-0--0-0-0-4-1

12.No Way

Tuned Down One Half Whole Step (DGCFAd)

(Intro and Verse)

(Guitars 1 and 2)
d ||------15--14----------------|
A ||--12----------11------------|
F ||----------------------------|
C ||----------------------------|
G ||----------------------------|
D ||----------------------------|(With Flanger or Phaser)

(Guitar 1)
d ||----------------------------|
A ||----------------------------|
F ||--5--5--5--5--4-------------|
C ||--5--5--5--5--4-------------|
G ||--3--3--3--3--2-------------|
D ||----------------------------|(Distortion)

(Guitar 2)
d ||--15--15--15--15--14--------|
A ||----------------------------|
F ||--12--12--12--12--11--------|
C ||----------------------------|
G ||----------------------------|
D ||----------------------------|(With Flanger or Phaser)


(Bridge:Part Where Jon Sings..."To live this way...")

(Guitar 1 or 2)
d ||----------------------------||----------------------------|
A ||----------------------------||----------------------------|
F ||--4--9--11--7--12--11--4----||--4--9--11--7--11--12--4----|
C ||----------------------------||----------------------------|
G ||----------------------------||----------------------------|
D ||----------------------------||----------------------------|(Clean)

13.Let's Get This Party Started

NOTE: Tune down one whole step A D G C F A D

Intro/Verse (Gtr. 1) (clean)
A|--------8----------8-------------------
F|----11---11-----11---11------11---11---
C|-9-----------9------------9-----9------

Intro/Verse (cont.)
A|--------8----------8------------------|
F|----11---11-----11---11------11---11--|
C|-8-----------8-----------8------8-----|

Verse (Gtr. 2) (clean w/fast tremelo effect)
d|----------------------|---------------14---------|---------------14-|
a|-15----------------14-|-----------------------15-|------------------|

Verse (cont.)
d|-----------------14--|--------------------|--------------14------|
a|-------------15------|-----------------14-|-------------------15-|

Verse (cont.)
F|----------------------16----|-------------------|

Pre-Chorus (Gtr. 2) (clean) (Trem pik.)
A|---12---------|--13--------------|-12-------------|-------------|
F|--------------|------------------|----------------|--12---------|
C|----9---------|-11---------------|-9--------------|-------------|
G|--------------|------------------|----------------|--10---------|

Pre-Chorus (Gtr. 1) (w/dist.)
F|-------------|-2-----------|-------------|------------0-----|
C|-------------|-2-----------|-------------|--------7---------|
G|-2-----------|-0-----------|-3-----------|---8--------------|
D|-2-----------|-------------|-3-----------|---8--------------|
A|-0-----------|-------------|-1-----------|---6--------------|

Chorus (Gtr. 1) (w/dist.)
A|--13----------12-------------|-------------------------10--|
F|-----------------------------|11-----------10--------------|
C|--10-----------9-------------|--------------------------8--|
G|-----------------------------|-9------------8--------------|

Chorus (Gtr. 2)
C|-------------------------|---------------------8----|
G|-7--7--7--6--6--6--6--6--|-9--9--9--8--8-------8----|
D|-8--8--8--7--7--7--7--7--|-9--9--9--8--8-------6----|
A|-------------------------|-7--7--7--6--6------------|

Interlude (Gtr. 2) (w/ wah as filter)
D|--------------------------------|-2--------------1----|
A|----1----------0----------------|---------------------|

Interlude (Gtr. 1) (clean)
D|-12----------------------12---------12------------12-------------------|
A|-----12------12------12------12---------12-----------12-------12-------|
F|---------14-------14---------------------------14--------14--------14--|

14.Wish You Could Be Me

NOTE: Tune down 1 whole step A D G C F A D

Intro - Drums and sound effects

Verse - Just drums and vocals

Interlude/Verse 2 (clean w/ pitch shifting effect)
a|--8------8-7-----7-8-----8--7---7----8^----7-----------7-7-10-------
F|----------------------------------------------9^-----------------9^-
 All bends full step

Interlude (cont.)
a|---8--8--7-----8--8---7/19\---8-----8---7/11/12--7-7--8---8-7--

Interlude (cont.)
a|-----7-7--------8--------|
F|---------9--9--------10--|

15.Counting

TUNING: standard tuning (B,E,A,D,G,B,E)

              
     INTRO:
              
    E|--------------------------------------------------| 
    B|--------------------------------------------------|  
    G|--------------------------------------------------|  
    D|--4/5--x--5-------4/5--x--5\3---------------------|  
    A|--4/5--x--5-------4/5--x--5\3---------------------|  
    E|--4/5--x--5--2/3--4/5--x--5\3---------------------|  
    B|--------------------------------------------------| 
              
     VERSE:              
              
    E|--------------------------------------------------| 
    B|--------------------------------------------------|  
    G|--------------------------------------------------|  
    D|--------------------------------------------------|  
    A|--4/5--x--5-------4/5--x--5\3---------------------|  
    E|--4/5--x--5-------4/5--x--5\3---------------------|  
    B|--2/3--x--3--0-2--2/3--x--3\1---------------------| 
              
     CHORUS:              
              
    E|--------------------------------------| 
    B|----0-----------0---------------------|  
    G|----3-----------3---------------------|  
    D|----0-----------0---------------------|  
    A|--5---10------4---2-------------------|  
    E|--5----8------4---2-------------------|  
    B|--3----8------2---0-------------------| 
              
     BRIDGE:
                            
    E|-------11~---12-11---------7~---8-7---| 
    B|----------12------------------8-------|  
    G|--------------------------------------|  
    D|-11/12-----------------8-8------------|  
    A|--------------------------------------|  
    E|--------------------------------------|  
    B|--------------------------------------|

16.Dirty

NOTE: Tune down 1 whole step A D G C F A D

Intro (Gtr. 1) (clean w/whammy pedal)
d|-------------------8-|-------------------8-|

Verse (Gtr. 1) (w/whammy pedal)
d|--------|-------------|-----------8--7--|--------------------|
a|--------|-------------|--------10-------|-----8--7-----7--7--|

Verse (Gtr. 2) (clean w/ fast tremelo effect)
d|-15--------|-------------|-------------|---------------|

Pre-Chorus (Gtr. 1) (w/ dist. & wah wah) (�I�m out here, by myself..�)
A|-7---7---7--7--7----7--7^-----7-|-6---6-----6---6-------6--|
                          ^ full step and hold

Pre-Chorus (Gtr. 2) (clean w/ fast tremelo effect)
A|---------------------------------16--|-------------------------------16--|
F|--------16----17----16--------16-----|------16----17----16--------16-----|
C|-14-------------------------14-------|-14----------------------14--------|

Chorus (Both Guitars) (w/ heavy dist.) (�Ready to blow my head off...�)
G|---------12-------------------15----------15--|
D|-12-0-12----11-0-12-0-13-0-13----13-0-13------| 4x

Post-Chorus/Verse 2 (Gtr.1) (After �I just wanna laugh again..�)
D|--0-0--0-0------0-0-0-0-0--|--0-0-----0-0---0-0--|

Post-Chorus/Verse 2 (Gtr. 2)
D|--------------------0--0--|--------0----------0---------|

Post-Chorus 2 (Gtr. 2)
D|-0-0-0-0-0-0-0-0-|-0-0-0-0-0-0----0-0-|

Post-Chorus 2 Part 2 (Gtr. 2)(gradually crescendo)
D|-0-0-0-0-0-0-0-0-0-0-0-0-0-0-0-0--|

Bridge (Gtr. 1) (w/ wah & fast tremelo effect)
d|-14----------------15------------|-------------------------7--|
a|---------------------------------|-0-----------------------0--|

Bridge 2 (Gtr. 2) (Clean)
G|-----------16h17--------19--------17----------16h17-----------16h17--|
D|-------14------------17--------15---------14---------------14--------|
A|---14-------------15--------15---------14---------------14-----------|
comments
We did not receive enough feedback on this tab! Please rate:
1 2 3 4 5
I want to post or [tab]
guest
You may want to rate the tab now too:
select rating
Please do not post tabs as comments. Select "correction" instead!