Oops, an error
Loading. Please wait.

Korn Tab

by Korn
ver1
ver1

Album

Solo

More versions @911Tabs.com
25,375 views 27 this week
1 commentread comment
1 2 3 4 5
excellent!
x 6
add to favorites launch autoscroll
font size
0
reset
Autoscroll
+/-
esc
set tempo
stop
Contributor
WARNING: You are trying to view
                                    content from Ultimate-Guitar.com
                                    in an unauthorized application,
                                    which is prohibited.

                                    Please use an official Ultimate
                                    Guitar Tabs application for iPhone,
                                    iPad or Android to access legitimate
                                    chords, guitar, bass, and drum tabs
                                    from Ultimate-Guitar.com database.

                                    Type "ultimate guitar tabs" in Apple
                                    App Store's or Android Market's
                                    search to find the application.
Band  - Korn
Album - Korn
____________________________________________________


KoRn - Blind - KoRn

Tabbed by Elvisz (elvisz@kornkids.com)
Tuning : 7 String Tuned Low to High (A D G C F a d)

Intro1:

d|----------------2-2-2-2--|
a|----------------5-5-5-5--|
F|----------------3-3-3-3--|
C|----------------2-2-2-2--|	(Guitar2)
G|-------------------------|
D|-------------------------|
A|-------------------------|

d|-------------------------|
a|-------------------------|
F|-------------------------|
C|-------------------------|	(Guitar1)
G|----4---5----------------|
D|--7-4-7-5----------------|
A|--7---7------------------|

Intro2:

d|-----------------2-2-2-2-|
a|-----------------5-5-5-5-|
F|-----------------3-3-3-3-|
C|-----------------2-2-2-2-|	(Guitar2)
G|-------------------------|
D|-------------------------|
A|-------------------------|

d|-------------------------|
a|-------------------------|
F|-------------------------|
C|-------------------------|	(Guitar1)
G|-------------------------|
D|-------------------------|
A|-0-2-0-3-0-2-0-3---------|

Verse:(Guitar1 & Guitar2)

d|-------------------------|
a|-------------------------|
F|-------------------------|
C|-------------------------|
G|-------------------------|
D|----4---5---4---5--8888--|
A|--0-2-0-3-0-2-0-3--6666--|

Fill1:(Guitar1 & Guitar2)

d|-------------------------|
a|-------------------------|
F|-------------------------|
C|-------------------------|
G|-------------------------|
D|--------5---4---5--8888--|
A|--0000--3-0-2-0-3--6666--|

Pre-Chorus:

d|-------------------------|
a|-------------------------|
F|-------------------------|
C|--9----------10----------|	(Guitar1)
G|--7----------8-----------|
D|--7----------8-----------|
A|-------------------------|

d|-------------------------|
a|--12~~~~~~\-----/12------|
F|-------------------------|
C|--9~~~~~~~\-----/9-------|	(Guitar2)
G|-------------------------|
D|-------------------------|
A|-------------------------|

Fill2:(Guitar2)

d|-------------------------|
a|--12~~~~~~\-----/12~~~~~-|
F|-------------------------|
C|--9~~~~~~~\--------------|
G|-------------------------|
D|-------------------------|
A|-------------------------|

Chorus:(Guitar1 & Guitar2)

d|--------------|------------|
a|--------------|------------|
F|--------------|------------|
C|--------------|------------|
G|------------8-|------------|
D|-7-8\77-7-8-6-|-7-8\77-8-6-|
A|-5-6\55-5-6---|-5-6\55-6-4-|

Pre-Chorus:

d|-------------------------|
a|-------------------------|
F|-------------------------|
C|--9----------10----------|	(Guitar1)
G|--7----------8-----------|
D|--7----------8-----------|
A|-------------------------|

d|-------------------------|
a|--12~~~~~~\-----/12------|
F|-------------------------|
C|--9~~~~~~~\-----/9-------|	(Guitar2)
G|-------------------------|
D|-------------------------|
A|-------------------------|

Fill2:(Guitar2)

d|-------------------------|
a|----------------/12~~~~~-|
F|-------------------------|
C|-------------------------|
G|-------------------------|
D|-------------------------|
A|-------------------------|

Chorus:(Guitar1 & Guitar2)

d|--------------|------------|
a|--------------|------------|
F|--------------|------------|
C|--------------|------------|
G|------------8-|------------|
D|-7-8\77-7-8-6-|-7-8\77-8-6-|
A|-5-6\55-5-6---|-5-6\55-6-4-|

Verse:(Guitar1 & Guitar2)

d|-------------------------|
a|-------------------------|
F|-------------------------|
C|-------------------------|
G|-------------------------|
D|----4---5---4---5--8888--|
A|--0-2-0-3-0-2-0-3--6666--|

Fill1:(Guitar1 & Guitar2)

d|-------------------------|
a|-------------------------|
F|-------------------------|
C|-------------------------|
G|-------------------------|
D|--------5---4---5--8888--|
A|--0000--3-0-2-0-3--6666--|

Bridge1:

d|--0*------------2-2-2-2--|
a|--0*------------5-5-5-5--|
F|--0*------------3-3-3-3--|
C|--0*------------2-2-2-2--|	(Guitar2)
G|-------------------------|
D|-------------------------|
A|-------------------------|

d|-------------------------|
a|-------------------------|
F|-------------------------|
C|--9----------10----------|	(Guitar1)
G|--7----------8-----------|
D|--7----------8-----------|
A|-------------------------|

Fill3:(Guitar1)

d|-------------------------|
a|-------------------------|
F|-------------------------|
C|--9-----------7----------|	(Guitar1)
G|--7-----------7----------|
D|--7-----------5----------|
A|--------------5----------|

Verse:

d|-------------------------|
a|-------------------------|
F|-------------------------|
C|-------------------------|	(Guitar1)
G|-------------------------|
D|----4---5---4---5--8888--|
A|--0-2-0-3-0-2-0-3--6666--|

d|-------------------2222--|
a|-------------------5555--|
F|-------------------3333--|
C|-------------------2222--|	(Guitar2)
G|-------------------------|
D|----4---5---4---5--------|
A|--0-2-0-3-0-2-0-3--------|

Outro:

d|--26/28--------26/28-----|
a|--------------------26\--|
F|-------------------------|
C|-------------------------|	(Guitar2)
G|-------------------------|
D|-------------------------|
A|-------------------------|

KoRn - Ball Tongue - KoRn 

Tabbed by Elvisz (elvisz@kornkids.com)
Tuning : 7 String Tuned Low to High (A D G C F a d)

Intro:(Guitar1 & Guitar2)
d|--------------------------|
a|--------------------------|
f|------------------10-9----|
c|------7\6---------10-9----|
g|-8\7--7\6--8\7-xx-8--7----|
D|-8\7--5\4--8\7-xx------xx-|
A|-6\5-------6\5-xx------00-|

Fill1:(Guitar1 & Guitar2 after bass part)
d|----------|
a|----------|
F|----------|
C|-10-----9-|
G|-10-----9-|
D|--8-----7-|
A|----XXX---|

Bridge1:(Guitar1 & Guitar2)
d|-------------------------|--------------------------|
a|-------------------------|--------------------------|
f|-------------------------|------------------10-9----|
c|------7\6-------7\6------|------7\6---------10-9----|
g|-8\7--7\6--8\7--7\6--8\7-|-8\7--7\6--8\7-xx-8--7----|
D|-8\7--5\4--8\7--5\4--8\7-|-8\7--5\4--8\7-xx------xx-|
A|-6\5-------6\5-------6\5-|-6\5-------6\5-xx------00-|

Pre-Verse1:(Guitar1)
d|-12----14--17-|
a|--------------|
F|--------------|
C|--------------|	
G|--------------|
D|--------------|
A|--------------|

Verse:(Guitar1)
d|-19/^----^\19----19/^----^\19-|
a|------------------------------|
F|------------------------------|
C|------------------------------|
G|------------------------------|
D|------------------------------|
A|------------------------------|

Chorus:
d|-----------------|
a|-----------------|
F|-----------------|
C|-----------------|	(Guitar1)
G|-4--4--4-4-44-55-|
D|-4--4--4-4-44-55-|
A|-2--2--2-2-22-33-|

d|-------------------------------------|
a|-------------------------------------|
F|-------------------------------------|
C|-88888888-66666666----------6---9----|	(Guitar2)
G|-66666666-44444444-77777777-4-9-7----|
D|-------------------55555555---7------|
A|-------------------------------------|

Pre-Verse2:(Guitar1)
d|-21--------21-|
a|--------------|
F|--------------|
C|--------------|	
G|--------------|
D|--------------|
A|--------------|

Verse:(Guitar1)
d|-19/^----^\19----19/^----^\19-|
a|------------------------------|
F|------------------------------|
C|------------------------------|
G|------------------------------|
D|------------------------------|
A|------------------------------|

Chorus:
d|-----------------|
a|-----------------|
F|-----------------|
C|-----------------|	(Guitar1)
G|-4--4--4-4-44-55-|
D|-4--4--4-4-44-55-|
A|-2--2--2-2-22-33-|

d|-------------------------------------|
a|-------------------------------------|
F|-------------------------------------|
C|-88888888-66666666----------6---9----|	(Guitar2)
G|-66666666-44444444-77777777-4-9-7----|
D|-------------------55555555---7------|
A|-------------------------------------|

Fill2:
d|------------------|
a|-14^~~~~~~~~~~~~~~|
F|------------------|
C|------------------|	(Guitar1)
G|------------------|
D|------------------|
A|------------------|

d|------------------|
a|---------10^~~~~~~|
F|------------------|
C|------------------|	(Guitar2)
G|------------------|
D|------------------|
A|------------------|

Bridge1:(Guitar1 & Guitar2)
d|-------------------------|--------------------------|
a|-------------------------|--------------------------|
f|-------------------------|------------------10-9----|
c|------7\6-------7\6------|------7\6---------10-9----|
g|-8\7--7\6--8\7--7\6--8\7-|-8\7--7\6--8\7-xx-8--7----|
D|-8\7--5\4--8\7--5\4--8\7-|-8\7--5\4--8\7-xx------xx-|
A|-6\5-------6\5-------6\5-|-6\5-------6\5-xx------00-|

Bridge2:
d|------------------------|
a|-21^----------------21^-|
F|------------------------|
C|------------------------|	(Guitar1 with effect)
G|------------------------|
D|------------------------|
A|------------------------|

d|------------------------|
a|------------------------|
F|-------19----19---------|
C|----------21----21------|	(Guitar2)
G|------------------------|
D|------------------------|
A|------------------------|

Bridge1:(Guitar1 & Guitar2)
d|-------------------------|--------------------------|
a|-------------------------|--------------------------|
f|-------------------------|------------------10-9----|
c|------7\6-------7\6------|------7\6---------10-9----|
g|-8\7--7\6--8\7--7\6--8\7-|-8\7--7\6--8\7-xx-8--7----|
D|-8\7--5\4--8\7--5\4--8\7-|-8\7--5\4--8\7-xx------xx-|
A|-6\5-------6\5-------6\5-|-6\5-------6\5-xx------00-|

Fill3:(Guitar2)
d|-----------------------------------------|
a|-----------------------------------------|
f|-----------------------------------------|
c|-----------------------------------------|
g|-6~~~~~~~~4~~~~~~~~---------4---7~~~~~~~~|
D|-------------------5~~~~~~~~--7----------|
A|-----------------------------------------|

Chorus:
d|-----------------|
a|-----------------|
F|-----------------|
C|-----------------|	(Guitar1)
G|-4--4--4-4-44-55-|
D|-4--4--4-4-44-55-|
A|-2--2--2-2-22-33-|

d|-------------------------------------|
a|-------------------------------------|
F|-------------------------------------|
C|-88888888-66666666----------6---9----|	(Guitar2)
G|-66666666-44444444-77777777-4-9-7----|
D|-------------------55555555---7------|
A|-------------------------------------|

Fill4:(Guitar1)
d|-----------------|
a|-----------------|
F|-----------------|
C|-----------------|	
G|-4--4--4-4-44-55-|
D|-4--4--4-4-44-55-|
A|-2--2--2-2-22-33-|

Chorus:
d|-----------------|
a|-----------------|
F|-----------------|
C|-----------------|	(Guitar1)
G|-4--4--4-4-44-55-|
D|-4--4--4-4-44-55-|
A|-2--2--2-2-22-33-|

d|-------------------------------------|
a|-------------------------------------|
F|-------------------------------------|
C|-88888888-66666666----------6---9----|	(Guitar2)
G|-66666666-44444444-77777777-4-9-7----|
D|-------------------55555555---7------|
A|-------------------------------------|

Fill4:(Guitar1)
d|-----------------|
a|-----------------|
F|-----------------|
C|-----------------|	
G|-4--4--4-4-44-55-|
D|-4--4--4-4-44-55-|
A|-2--2--2-2-22-33-|

Outro:
d|-----------------|
a|-----------------|
F|-----------------|
C|-----------------|	(Guitar1)
G|-4--4--4-4-44-55-|
D|-4--4--4-4-44-55-|
A|-2--2--2-2-22-33-|

d|-------------------------------------|
a|-------------------------------------|
F|-------------------------------------|
C|-88888888-66666666----------6---9----|	(Guitar2)
G|-66666666-44444444-77777777-4-9-7----|
D|-------------------55555555---7------|
A|-------------------------------------|

KoRn - Need To - KoRn 

Tabbed by Elvisz (elvisz@kornkids.com)
Tuning : 7 String Tuned Low to High (A D G C F a d)

Intro1:
d|---------|
a|---------|
F|---------|
C|---------|	(Guitar1)
G|---------|
D|-8---8---|
A|---0---0-|

Intro2:
d|---------|
a|---------|
F|---------|
C|---------|	(Guitar1)
G|---------|
D|-8---8---|
A|---0---0-|

d|---------|
a|---------|
F|---------|
C|-10--10--|	(Guitar2)
G|-9---9---|
D|-8---8---|
A|---0---0-|

Fill1:
d|----------|
a|----------|
F|-99999999-|
C|----------|	(Guitar2)
G|-77777777-|
D|----------|
A|----------|

d|---------|
a|---------|
F|---------|
C|---------|	(Guitar1)
G|---------|
D|-8---8---|
A|---0---0-|

Verse:
d|---------|
a|---------|
F|---------|
C|---------|	(Guitar1)
G|---------|
D|-8---8---|
A|---0---0-|

Pre-Chorus:
d|---------|
a|---------|
F|---------|
C|---------|	(Guitar1)
G|---------|
D|-8---8---|
A|---0---0-|

d|---------|
a|---------|
F|---------|
C|-10--10--|	(Guitar2)
G|-9---9---|
D|-8---8---|
A|---0---0-|

Fill1:
d|----------|
a|----------|
F|-99999999-|
C|----------|	(Guitar2)
G|-77777777-|
D|----------|
A|----------|

d|---------|
a|---------|
F|---------|
C|---------|	(Guitar1)
G|---------|
D|-8---8---|
A|---0---0-|

Verse:
d|---------|
a|---------|
F|---------|
C|---------|	(Guitar1)
G|---------|
D|-8---8---|
A|---0---0-|

Pre-Chorus:
d|---------|
a|---------|
F|---------|
C|---------|	(Guitar1)
G|---------|
D|-8---8---|
A|---0---0-|

d|---------|
a|---------|
F|---------|
C|-10--10--|	(Guitar2)
G|-9---9---|
D|-8---8---|
A|---0---0-|

Chorus:(Guitar1)
d|--------------------|--------------------|--------------------|
a|--------------------|--------------------|--------------------|
F|--------------------|--------------------|--------------------|
C|--------------------|--------------------|--------------------|
G|-2------3--5-4----3-|-2------------5-4-3-|-2-------1-2-5-4--3-|
D|-0----2-1--3-2----1-|-0------------3-2-1-|-0-321-0-----3-2--1-|
A|------0-------------|--------------------|--------------------|

Verse:
d|---------|
a|---------|
F|---------|
C|---------|	(Guitar1)
G|---------|
D|-8---8---|
A|---0---0-|

Bridge:
d|------------------------------------|
a|------------------------------------|
F|------------------------------------|
C|-13\12\11\1010---1010101010101010---| (Guitar2)
G|-12\11\10\ 9 9--- 9 9 9 9 9 9 9 9---|
D|-11\10\ 9\ 8 8--- 8 8 8 8 8 8 8 8---|
A|---------------0------------------0-|

d|---------------------------|
a|---------------------------|
F|---------------------------|
C|---------------------------| (Guitar1)
G|---------------------------|
D|-11\10\ 9\ 8 8------8---8--|
A|---------------0--0---0----|

Chorus:(Guitar1)
d|--------------------|--------------------|--------------------|
a|--------------------|--------------------|--------------------|
F|--------------------|--------------------|--------------------|
C|--------------------|--------------------|--------------------|
G|-2------3--5-4----3-|-2------------5-4-3-|-2-------1-2-5-4--3-|
D|-0----2-1--3-2----1-|-0------------3-2-1-|-0-321-0-----3-2--1-|
A|------0-------------|--------------------|--------------------|

Outro:(Guitar1 & Guitar2)
d|------------|
a|------------|
F|------------|
C|------------|	
G|------------|
D|-8---8---XXX|
A|---0---0-XXX|

KoRn - Clown - KoRn

Tabbed by Elvisz (elvisz@kornkids.com)
Tuning : 7 String Tuned Low to High (A D G C F a d)

Intro1:(Guitar1)
d|----|
a|----|
F|----|
C|----|
G|----|
D|----|
A|-0~-|

Intro2:(Guitar1)
d|----------------------|
a|----------------------|
F|----------------------|
C|----------------------|
G|----------------------|
D|----------------------|
A|-0000----0000----0000-|

Intro3:(Guitar1)
d|---------------------------------|
a|---------------------------------|
F|------4^------3^------3^------3^^|
C|---------------------------------|
G|---------------------------------|
D|---------------------------------|
A|-0000----0000----0000----0000----|

Pre-Verse:(Guitar1)
d|-----------------------------|
a|-----------------------------|
F|-----------------------------|
C|-----------------------------|
G|-----------------------------|
D|-----------------------------|
A|-3h4-4-2h3-3-3h4-4-2h3-3/4-2-|

Verse1:(Guitar1 & Guitar2)
d|-----------------------------|
a|-----------------------------|
F|-----------------------------|
C|-----------------------------|
G|-----------------------------|
D|-5/6-6-4/5-5-5/6-6-4/5-5-6-4-|
A|-3/4-4-2/3-3-3/4-4-2/3-3/4-2-|

Verse2:(Guitar1 & Guitar2)
d|---------------------|
a|---------------------|
F|---------------------|
C|---------------------|
G|---------------------|
D|-3/6-4/5-5/6-4/5-6-4-|
A|-3/4-2/3-3/4-2/3-4-2-|

Pre-Chorus:
d|----------------------------------------|
a|----------------------------------------|
F|----------------------------------------|
C|----------------------------------------|	(Guitar1)
G|----------------------------------------|
D|-10h11-11-9h10-10-10h11-11-9h10-10-11-9-|
A|----------------------------------------|

d|--------------------------X-|
a|-------------------------X--|
F|------------------------X---|
C|-----------------------X----|	(Guitar2)
G|----------------------X-----|
D|-XXX-XXX-XXX-XXX-XX--X------|
A|--------------------X-------|

Chorus:
d|---------------------|
a|---------------------|
F|---------------------|
C|---------------------|	(Guitar1)
G|---------------------|
D|-2-22-2--6\55-5\4\33-|
A|-0-00-0--4\33-3\2\11-|

d|-7-777-77-5-|
a|------------|
F|-4-444-44-2-|
C|------------|	(Guitar2)
G|------------|
D|------------|
A|------------|

Bridge1:(Guitar1)
d|------------------------------|
a|------------------------------|
F|------4^------3^------3^------|
C|------------------------------|
G|------------------------------|
D|------------------------------|
A|-0000----0000----0000----0000-|

Pre-Chorus:
d|----------------------------------------|
a|----------------------------------------|
F|----------------------------------------|
C|----------------------------------------|	(Guitar1)
G|----------------------------------------|
D|-10h11-11-9h10-10-10h11-11-9h10-10-11-9-|
A|----------------------------------------|

d|--------------------------X-|
a|-------------------------X--|
F|------------------------X---|
C|-----------------------X----|	(Guitar2)
G|----------------------X-----|
D|-XXX-XXX-XXX-XXX-XX--X------|
A|--------------------X-------|

Chorus:
d|---------------------|
a|---------------------|
F|---------------------|
C|---------------------|	(Guitar1)
G|---------------------|
D|-2-22-2--6\55-5\4\33-|
A|-0-00-0--4\33-3\2\11-|

d|-7-777-77-5-|
a|------------|
F|-4-444-44-2-|
C|------------|	(Guitar2)
G|------------|
D|------------|
A|------------|

Bridge2:
(Guitar1)
d|----------------|-------------------|
a|----------------|-------------------|
F|------5^-----5^-|------5^-----------|
C|----------------|-------------------|
G|----------------|-------------------|
D|-2--------------|-2-------------3-4-|
A|-0-00----000----|-0-00----000-0-1-2-|

(Guitar2)
d|------8^-----8^-|------8^-----------|
a|----------------|-------------------|
F|----------------|-------------------|
C|----------------|-------------------|
G|----------------|-------------------|
D|-2--------------|-2-------------3-4-|
A|-0-00----000----|-0-00----000-0-1-2-|

Verse1:(Guitar1 & Guitar2)
d|-----------------------------|
a|-----------------------------|
F|-----------------------------|
C|-----------------------------|
G|-----------------------------|
D|-5/6-6-4/5-5-5/6-6-4/5-5-6-4-|
A|-3/4-4-2/3-3-3/4-4-2/3-3/4-2-|

Verse2:(Guitar1 & Guitar2)
d|---------------------|
a|---------------------|
F|---------------------|
C|---------------------|
G|---------------------|
D|-3/6-4/5-5/6-4/5-6-4-|
A|-3/4-2/3-3/4-2/3-4-2-|

Fill1:(Guitar1)
d|-----------|
a|-----------|
F|-----------|
C|-----------|
G|-----------|
D|-2-6\5\4\3-|
A|-0-4\3\2\1-|

Chorus:
d|---------------------|
a|---------------------|
F|---------------------|
C|---------------------|	(Guitar1)
G|---------------------|
D|-2-22-2--6\55-5\4\33-|
A|-0-00-0--4\33-3\2\11-|

d|-7-777-77-5-|
a|------------|
F|-4-444-44-2-|
C|------------|	(Guitar2)
G|------------|
D|------------|
A|------------|

Outro:
d|----------------------|
a|----------------------|
F|----------------------|
C|----------------------|	(Guitar1)
G|----------------------|
D|----------------------|
A|-0000----0000----0000-|

d|-5-|
a|---|
F|-2-|
C|---|	(Guitar2 fade in)
G|---|
D|---|
A|---|

KoRn - Divine - KoRn 

Tabbed by Elvisz (elvisz@kornkids.com)
Tuning : 7 String Tuned Low to High (A D G C F a d)

Intro:(Guitar1)
d|-------------------------------------------------|
a|-------------------------------------------------|
F|-------------------------------------------------|
C|----16-16----16-16----16----16-16----16-16----16-|
G|----15-15----15-15----15----15-15----15-15----15-|
D|----14-14----14-14----14----14-14----14-14----14-|
A|-00-13-13-00-13-13-00-13-00-13-13-00-13-13-00-13-|

Pre-Verse:(Guitar1 & Guitar2)
d|-------------------------------------------------|
a|-------------------------------------------------|
F|-------------------------------------------------|
C|----16-16----16-16----16----16-16----16-16----16-|
G|----15-15----15-15----15----15-15----15-15----15-|
D|----14-14----14-14----14----14-14----14-14----14-|
A|-00-13-13-00-13-13-00-13-00-13-13-00-13-13-00-13-|

d|------------------------------------------------|
a|------------------------------------------------|
F|------------------------------------------------|
C|----16-16----16-16----16----16-16----16-16----4-|
G|----15-15----15-15----15----15-15----15-15----3-|
D|----14-14----14-14----14----14-14----14-14----2-|
A|-00-13-13-00-13-13-00-13-00-13-13-00-13-13-00-1-|

Verse:(Guitar1)
d|-----------------------------------------------------------|
a|-----------------------------------------------------------|
F|-----------------------------------------------------------|
C|--------------------------------------------------------16-|
G|--------------------------------------------------------15-|
D|--------------------------------------------------------14-|
A|-432--321--210--432--321--210--432--321--210--432--321--13-|

Chorus:(Guitar1 & Guitar2)
d|-------------------------------------------------|
a|-------------------------------------------------|
F|-------------------------------------------------|
C|----16-16----16-16----16----16-16----16-16----16-|
G|----15-15----15-15----15----15-15----15-15----15-|
D|----14-14----14-14----14----14-14----14-14----14-|
A|-00-13-13-00-13-13-00-13-00-13-13-00-13-13-00-13-|

d|------------------------------------------------|
a|------------------------------------------------|
F|------------------------------------------------|
C|----16-16----16-16----16----16-16----16-16----4-|
G|----15-15----15-15----15----15-15----15-15----3-|
D|----14-14----14-14----14----14-14----14-14----2-|
A|-00-13-13-00-13-13-00-13-00-13-13-00-13-13-00-1-|

Verse:(Guitar1)
d|-----------------------------------------------------------|
a|-----------------------------------------------------------|
F|-----------------------------------------------------------|
C|--------------------------------------------------------16-|
G|--------------------------------------------------------15-|
D|--------------------------------------------------------14-|
A|-432--321--210--432--321--210--432--321--210--432--321--13-|

Chorus:(Guitar1 & Guitar2)
d|-------------------------------------------------|
a|-------------------------------------------------|
F|-------------------------------------------------|
C|----16-16----16-16----16----16-16----16-16----16-|
G|----15-15----15-15----15----15-15----15-15----15-|
D|----14-14----14-14----14----14-14----14-14----14-|
A|-00-13-13-00-13-13-00-13-00-13-13-00-13-13-00-13-|

d|------------------------------------------------|
a|------------------------------------------------|
F|------------------------------------------------|
C|----16-16----16-16----16----16-16----16-16----4-|
G|----15-15----15-15----15----15-15----15-15----3-|
D|----14-14----14-14----14----14-14----14-14----2-|
A|-00-13-13-00-13-13-00-13-00-13-13-00-13-13-00-1-|

Bridge1:(Guitar1 & Guitar2)
d|-----------------|
a|-----------------|
F|-----------------|
C|-----------------|
G|-----------------|
D|-22-22-22-22-3-3-|
A|-00-00-00-00-1-1-|

Fill1:(Guitar2)
d|-------|
a|-------|
F|-------|
C|-16~~~~|
G|-15~~~~|
D|-14~~~~|
A|-13~~~~|

Bridge2:(Guitar1 & Guitar2)
d|-----------|
a|-----------|
F|-----------|
C|-----------|
G|-----------|
D|-3-3-22-22-|
A|-1-1-00-00-|

Bridge1:(Guitar1 & Guitar2)
d|-----------------|
a|-----------------|
F|-----------------|
C|-----------------|
G|-----------------|
D|-22-22-22-22-3-3-|
A|-00-00-00-00-1-1-|

Fill2:(Guitar2)
d|------------|
a|------------|
F|------------|
C|--------16~~|
G|--------15~~|
D|--------14~~|
A|-001122-13~~|

Pre-Verse:(Guitar1 & Guitar2)
d|-------------------------------------------------|
a|-------------------------------------------------|
F|-------------------------------------------------|
C|----16-16----16-16----16----16-16----16-16----16-|
G|----15-15----15-15----15----15-15----15-15----15-|
D|----14-14----14-14----14----14-14----14-14----14-|
A|-00-13-13-00-13-13-00-13-00-13-13-00-13-13-00-13-|

Outro:(Guitar1 & Guitar2)
d|------------------------|
a|------------------------|
F|------------------------|
C|------------------------|	(Guitar1)
G|------------------------|
D|-2--------2-------2-----|
A|-0--------0-------0-----|

d|------------------------|
a|------------------------|
F|------------------------|
C|---16-16----16-16----16-|	(Guitar2)
G|---15-15----15-15----15-|
D|---14-14----14-14----14-|
A|---13-13----13-13----13-|

KoRn - Faget - KoRn 

Tabbed by Elvisz (elvisz@kornkids.com)
Tuning : 7 String Tuned Low to High (A D G C F a d)

Intro:
(Guitar1)
d|--------------------------|
a|--------------------------|
F|--------------------------|
C|-----------------10101010-|
G|------------------9-9-9-9-|
D|-7-77-7-77-7-7-7X-8-8-8-8-|
A|-0-00-0-00-0-0-0X---------|

(Guitar2 after guitar1 is finished)
d|---------------|
a|---------------|
F|---------------|
C|---------------|
G|---------------|
D|-h7h8---h8h7---|
A|-----h9-----h7-|

Pre-Verse:
d|--------------------------|--------------------------------|
a|--------------------------|--------------------------------|
F|--------------------------|--------------------------------|
C|-----------------10101010-|--------------------------------|	(Guitar1)
G|------------------9-9-9-9-|--------------------------------|
D|-7-77-7-77-7-7-7X-8-8-8-8-|-7-77-7-77-7-7-7X---------------|
A|-0-00-0-00-0-0-0X---------|-0-00-0-00-0-0-0X---------------|

d|--------------------------|--------------------------------|
a|--------------------------|--------------------------------|
F|--------------------------|--------------------------------|
C|-----------------10101010-|--------------------------------|	(Guitar2)
G|------------------9-9-9-9-|--------------------------------|
D|-7-77-7-77-7-7-7X-8-8-8-8-|-7-77-7-77-7-7-7X-h7h8---h8h7---|
A|-0-00-0-00-0-0-0X---------|-0-00-0-00-0-0-0X-----h9-----h7-|

Verse:
d|--------------------|
a|--------------------|
F|--------------------|
C|--------------------|	(Guitar1)
G|--------------------|
D|---------------8888-|
A|-0-00-0-00-000------|

d|----------------7------|----------------7----------0--|
a|-13--11--\4----------6-|-13--11--\4----------6---6--02|
F|-------------7----4----|-------------7----4-----4-----|
C|-----------------------|------------------------------|	(Guitar2)
G|-----------------------|------------------------------|
D|-----------------------|------------------------------|
A|-----------------------|------------------------------|

Chorus:
d|--------------------------|--------------------------------|
a|--------------------------|--------------------------------|
F|--------------------------|--------------------------------|
C|-----------------10101010-|--------------------------------|	(Guitar1)
G|------------------9-9-9-9-|--------------------------------|
D|-7-77-7-77-7-7-7X-8-8-8-8-|-7-77-7-77-7-7-7X---------------|
A|-0-00-0-00-0-0-0X---------|-0-00-0-00-0-0-0X---------------|

d|--------------------------|--------------------------------|
a|--------------------------|--------------------------------|
F|--------------------------|--------------------------------|
C|-----------------10101010-|--------------------------------|	(Guitar2)
G|------------------9-9-9-9-|--------------------------------|
D|-7-77-7-77-7-7-7X-8-8-8-8-|-7-77-7-77-7-7-7X-h7h8---h8h7---|
A|-0-00-0-00-0-0-0X---------|-0-00-0-00-0-0-0X-----h9-----h7-|

Verse:
d|--------------------|
a|--------------------|
F|--------------------|
C|--------------------|	(Guitar1)
G|--------------------|
D|---------------8888-|
A|-0-00-0-00-000------|

d|----------------7------|----------------7----------0--|
a|-13--11--\4----------6-|-13--11--\4----------6---6--02|
F|-------------7----4----|-------------7----4-----4-----|
C|-----------------------|------------------------------|	(Guitar2)
G|-----------------------|------------------------------|
D|-----------------------|------------------------------|
A|-----------------------|------------------------------|

Chorus:
d|--------------------------|--------------------------------|
a|--------------------------|--------------------------------|
F|--------------------------|--------------------------------|
C|-----------------10101010-|--------------------------------|	(Guitar1)
G|------------------9-9-9-9-|--------------------------------|
D|-7-77-7-77-7-7-7X-8-8-8-8-|-7-77-7-77-7-7-7X---------------|
A|-0-00-0-00-0-0-0X---------|-0-00-0-00-0-0-0X---------------|

d|--------------------------|--------------------------------|
a|--------------------------|--------------------------------|
F|--------------------------|--------------------------------|
C|-----------------10101010-|--------------------------------|	(Guitar2)
G|------------------9-9-9-9-|--------------------------------|
D|-7-77-7-77-7-7-7X-8-8-8-8-|-7-77-7-77-7-7-7X-h7h8---h8h7---|
A|-0-00-0-00-0-0-0X---------|-0-00-0-00-0-0-0X-----h9-----h7-|

Chorus-end:(Guitar1 & Guitar2)
d|--------------------------|
a|--------------------------|
F|--------------------------|
C|-----------------10101010-|
G|------------------9-9-9-9-|
D|-7-77-7-77-7X7X7X-8-8-8-8-|
A|-0-00-0-00-0X0X0X---------|

Verse:
d|--------------------|
a|--------------------|
F|--------------------|
C|--------------------|	(Guitar1)
G|--------------------|
D|---------------8888-|
A|-0-00-0-00-000------|

d|----------------7------|----------------7----------0--|
a|-13--11--\4----------6-|-13--11--\4----------6---6--02|
F|-------------7----4----|-------------7----4-----4-----|
C|-----------------------|------------------------------|	(Guitar2)
G|-----------------------|------------------------------|
D|-----------------------|------------------------------|
A|-----------------------|------------------------------|

Chorus:
d|--------------------------|--------------------------------|
a|--------------------------|--------------------------------|
F|--------------------------|--------------------------------|
C|-----------------10101010-|--------------------------------|	(Guitar1)
G|------------------9-9-9-9-|--------------------------------|
D|-7-77-7-77-7-7-7X-8-8-8-8-|-7-77-7-77-7-7-7X---------------|
A|-0-00-0-00-0-0-0X---------|-0-00-0-00-0-0-0X---------------|

d|--------------------------|--------------------------------|
a|--------------------------|--------------------------------|
F|--------------------------|--------------------------------|
C|-----------------10101010-|--------------------------------|	(Guitar2)
G|------------------9-9-9-9-|--------------------------------|
D|-7-77-7-77-7-7-7X-8-8-8-8-|-7-77-7-77-7-7-7X-h7h8---h8h7---|
A|-0-00-0-00-0-0-0X---------|-0-00-0-00-0-0-0X-----h9-----h7-|

Chorus-end:(Guitar1 & Guitar2)
d|--------------------------|
a|--------------------------|
F|--------------------------|
C|-----------------10101010-|
G|------------------9-9-9-9-|
D|-7-77-7-77-7X7X7X-8-8-8-8-|
A|-0-00-0-00-0X0X0X---------|

Bridge1:(Guitar1)
d|-------------------|
a|-------------------|
F|-------------------|
C|-------------------|
G|-------------------|
D|------7-----8----8-|
A|-0000---000---00---|

Bridge2:(Guitar1 & Guitar2)
d|----------------------|
a|----------------------|
F|----------------------|
C|----------------------|
G|-------9-----10----10-|
D|-------7------8-----8-|
A|-0000----000----00----|

Bridge3:
d|----------------|
a|----------------|
F|----------------|
C|----------------|	(Guitar1)
G|----4-----4-5\4-|
D|-2--2--3--2-3\2-|
A|-0-----1--------|

d|------------------------------------------------------|
a|------------------------------------------------------|
F|-9999101010107999912121212109999101010107999910101010-|
C|------------------------------------------------------| (Guitar2)
G|-7777-8-8-8-85777710101010-87777-8-8-8-857777-8-8-8-8-| (and variations...)
D|------------------------------------------------------|
A|------------------------------------------------------|

Verse:
d|--------------------|
a|--------------------|
F|--------------------|
C|--------------------|	(Guitar1)
G|--------------------|
D|---------------8888-|
A|-0-00-0-00-000------|

Chorus:
d|--------------------------|--------------------------------|
a|--------------------------|--------------------------------|
F|--------------------------|--------------------------------|
C|-----------------10101010-|--------------------------------|	(Guitar1)
G|------------------9-9-9-9-|--------------------------------|
D|-7-77-7-77-7-7-7X-8-8-8-8-|-7-77-7-77-7-7-7X---------------|
A|-0-00-0-00-0-0-0X---------|-0-00-0-00-0-0-0X---------------|

d|--------------------------|--------------------------------|
a|--------------------------|--------------------------------|
F|--------------------------|--------------------------------|
C|-----------------10101010-|--------------------------------|	(Guitar2)
G|------------------9-9-9-9-|--------------------------------|
D|-7-77-7-77-7-7-7X-8-8-8-8-|-7-77-7-77-7-7-7X-h7h8---h8h7---|
A|-0-00-0-00-0-0-0X---------|-0-00-0-00-0-0-0X-----h9-----h7-|

Chorus-end:(Guitar1 & Guitar2)
d|--------------------------|
a|--------------------------|
F|--------------------------|
C|-----------------10101010-|
G|------------------9-9-9-9-|
D|-7-77-7-77-7X7X7X-8-8-8-8-|
A|-0-00-0-00-0X0X0X---------|

KoRn - Shoots And Ladders - KoRn

Tabbed by Elvisz (elvisz@kornkids.com)
Tuning : 7 String Tuned Low to High (A D G C F a d)

Intro:(bagpipes)
d|---------------------------------------12~~10~~13~~10~~12~~---15~13~15~|
a|-13~~11~~15~~11~~13~~~~11~~15~~11~~13~~13~~11~~15~~11~~13~~13~---------|
F|-----------------------------------------------------------------------|
C|-----------------------------------------------------------------------|
G|-----------------------------------------------------------------------|
D|-----------------------------------------------------------------------|
A|-----------------------------------------------------------------------|

d|----15~17~15~13~---15~13~15~---13~-------------|------15~|
a|-13~------------13~---------13~---15~13~15~13~~|-13~~~---|
F|-----------------------------------------------|---------|
C|-----------------------------------------------|---------|
G|-----------------------------------------------|---------|
D|-----------------------------------------------|---------|
A|-----------------------------------------------|---------|

Intro:(Guitar1 & Guitar2)
d|----------------|
a|----------------|
F|----------------|
C|----------------|
G|-3-3---3-3--3-3-|
D|-3-3---3-3--3-3-|
A|-1-1---1-1--1-1-|

Pre-Verse:
d|-------------|
a|-------------|
F|-------------|
C|-5^~~~~~~~5^~|	(Guitar1)
G|-------------|
D|-------------|
A|-------------|

d|-------------|
a|-------------|
F|-------------|
C|----------5^~|	(Guitar2)
G|-------------|
D|-------------|
A|-------------|

Verse:(Guitar1 & Guitar2)
d|-------------|
a|-------------|
F|-------------|
C|----------5^~|
G|--5----------|
D|--5----------|
A|--3----------|

Chorus:
d|----------------------------------------------|
a|----------------------------------------------|
F|----------------------------------------------|
C|----------------------------------------------|	(Guitar1)
G|-5-5----------5-5----------5-5----------5-4-3-|
D|-5-5----------5-5----------5-5----------5-4-3-|
A|-3-3--5-4-3-2-3-3--5-4-3-2-3-3--5-4-3-2-3-2-1-|

d|------------------------14-------14-----14-14-------------------------------------------|
a|-15-15-15-15--15-15-15--15-15-15-15--15-15-15-15-15-15-15--15--15--15-15-15--(15)-15-15-|
F|----------------------------------------------------------------------------------------|
C|-12-12-12-12--12-12-12--12-12-12-12--12-12-12-12-12-12-12--12--12--12-12-12--(12)-12-12-|(Guitar2)
G|----------------------------------------------------------------------------------------|
D|----------------------------------------------------------------------------------------|
A|----------------------------------------------------------------------------------------|

Verse:(Guitar1 & Guitar2)
d|-------------|
a|-------------|
F|-------------|
C|----------5^~|
G|--5----------|
D|--5----------|
A|--3----------|

Chorus:
d|----------------------------------------------|
a|----------------------------------------------|
F|----------------------------------------------|
C|----------------------------------------------|	(Guitar1)
G|-5-5----------5-5----------5-5----------5-4-3-|
D|-5-5----------5-5----------5-5----------5-4-3-|
A|-3-3--5-4-3-2-3-3--5-4-3-2-3-3--5-4-3-2-3-2-1-|

d|------------------------14-------14-----14-14-------------------------------------------|
a|-15-15-15-15--15-15-15--15-15-15-15--15-15-15-15-15-15-15--15--15--15-15-15--(15)-15-15-|
F|----------------------------------------------------------------------------------------|
C|-12-12-12-12--12-12-12--12-12-12-12--12-12-12-12-12-12-12--12--12--12-12-12--(12)-12-12-|(Guitar2)
G|----------------------------------------------------------------------------------------|
D|----------------------------------------------------------------------------------------|
A|----------------------------------------------------------------------------------------|

Bridge1:
d|---------------------------|
a|---------------------------|
F|---------------------------|
C|---------------------------|	(Guitar1)
G|---------------------------|
D|-----h4h3---------h4h3-----|
A|-3-33----h4h3--333----h4h3-|

Bridge2:(Guitar1 & Guitar2)
d|---------------------------|
a|---------------------------|
F|---------------------------|
C|---------------------------|
G|------6\4----------6\5-----|
D|-5-55-4\3-6\5--555-4\3-6\5-|
A|-3-33-----4\3--333-----4\3-|

Bridge3:(Guitar1 & Guitar2)
d|------------------------|
a|------------------------|
F|------------------------|
C|------------------------|
G|------------------------|
D|-----4(/5)-3--------5-3-|
A|-44442(/3)-1---4444-3-1-|

Verse:(Guitar1 & Guitar2)
d|-------------|
a|-------------|
F|-------------|
C|----------5^~|
G|--5----------|
D|--5----------|
A|--3----------|

Fill1:(Guitar1 & Guitar2)

d|-----------|
a|-----------|
F|-----------|
C|-----------|
G|--5--4--3--|
D|--5--4--3--|
A|--3--2--1--|

Chorus:
d|----------------------------------------------|
a|----------------------------------------------|
F|----------------------------------------------|
C|----------------------------------------------|	(Guitar1)
G|-5-5----------5-5----------5-5----------5-4-3-|
D|-5-5----------5-5----------5-5----------5-4-3-|
A|-3-3--5-4-3-2-3-3--5-4-3-2-3-3--5-4-3-2-3-2-1-|

d|------------------------14-------14-----14-14-------------------------------------------|
a|-15-15-15-15--15-15-15--15-15-15-15--15-15-15-15-15-15-15--15--15--15-15-15--(15)-15-15-|
F|----------------------------------------------------------------------------------------|
C|-12-12-12-12--12-12-12--12-12-12-12--12-12-12-12-12-12-12--12--12--12-12-12--(12)-12-12-|(Guitar2)
G|----------------------------------------------------------------------------------------|
D|----------------------------------------------------------------------------------------|
A|----------------------------------------------------------------------------------------|

Outro:(Guitar2)
d|--------------------------|
a|------------------15!-----|
F|------------------14!-----|   
C|------------------12!-----|	 
G|--------------------------|  
D|--------------------------|	 
A|--------------------------|

KoRn - Fake - KoRn

Tabbed by Elvisz (elvisz@kornkids.com)
Tuning : 7 String Tuned Low to High (A D G C F a d)

Intro:(Guitar1 & Guitar2)
d|--------------------------|
a|--------------------------|
F|--------------------------|
C|--------------------------|
G|--------------------------|
D|---2-3/4-2-3-3-2-3-3-2----|
A|-0-0-1/2-0-1-1-0-1-1-0--0-|

Fill1:(Guitar1 & Guitar2)
d|---------|
a|---------|
F|---------|
C|---------|
G|---------|
D|---2-3---|
A|-0-0-1/2-|

Verse:(Guitar1)
d|------------------|---------------|
a|------------------|---------------|
F|-11--9----11--9---|-11--9----11---|
C|----------------9-|-------------9-|
G|------------------|---------------|
D|------------------|---------------|
A|------------------|---------------|

Chorus:(Guitar1 & Guitar2)
d|--------------------------|
a|--------------------------|
F|--------------------------|
C|--------------------------|
G|--------------------------|
D|---2-3/4-2-3-3-2-3-3-2----|
A|-0-0-1/2-0-1-1-0-1-1-0--0-|

Chorus-end:(Guitar1 & Guitar2)
d|-----------------------------------------|
a|-----------------------------------------|
F|-----------------------------------------|
C|-----------------------------------------|
G|-----------------------------------------|
D|----13----14----13^------13----14--------|
A|-00----00----00-------00----00----00-/12-|

Fill2:(Guitar1 & Guitar2)
d|-----------------------------------------|
a|-----------------------------------------|
F|-----------------------------------------|
C|-------------------------------------/15-|
G|-------------------------------------/14-|
D|----13----14----13^------13----14----/13-|
A|-00----00----00-------00----00----00-/12-|

Bridge1:
d|----------------------|
a|----------------------|
F|----------------------|
C|-15-------------------|	(Guitar1)
G|-14-------------------|
D|-13-------------------|
A|-12-------------------|

d|----------------------|
a|----------------------|
F|----------------------|
C|----------------------|	(Guitar2)
G|----------------14----|
D|-------------12----12-|
A|-12-------13----------|

Verse:(Guitar1)
d|------------------|---------------|
a|------------------|---------------|
F|-11--9----11--9---|-11--9----11---|
C|----------------9-|-------------9-|
G|------------------|---------------|
D|------------------|---------------|
A|------------------|---------------|

Chorus:(Guitar1 & Guitar2)
d|--------------------------|
a|--------------------------|
F|--------------------------|
C|--------------------------|
G|--------------------------|
D|---2-3/4-2-3-3-2-3-3-2----|
A|-0-0-1/2-0-1-1-0-1-1-0--0-|

Chorus-end:(Guitar1 & Guitar2)
d|-----------------------------------------|
a|-----------------------------------------|
F|-----------------------------------------|
C|-----------------------------------------|
G|-----------------------------------------|
D|----13----14----13^------13----14--------|
A|-00----00----00-------00----00----00-/12-|

Fill2:(Guitar1 & Guitar2)
d|-----------------------------------------|
a|-----------------------------------------|
F|-----------------------------------------|
C|-------------------------------------/15-|
G|-------------------------------------/14-|
D|----13----14----13^------13----14----/13-|
A|-00----00----00-------00----00----00-/12-|

Bridge1:
d|----------------------|
a|----------------------|
F|----------------------|
C|-15-------------------|	(Guitar1)
G|-14-------------------|
D|-13-------------------|
A|-12-------------------|

d|----------------------|
a|----------------------|
F|----------------------|
C|----------------------|	(Guitar2)
G|----------------14----|
D|-------------12----12-|
A|-12-------13----------|

Bridge2:(Guitar2)
d|----------------------|
a|----------------------|
F|----------------------|
C|----------------------|
G|----------------14----|
D|-------------12----12-|
A|-12-------13----------|

Bridge3:
d|----------------------|
a|----------------------|
F|--<<11----------------|
C|--------------<<9-----|	(Guitar1 with volume swell)
G|----------------------|
D|----------------------|
A|----------------------|

d|----------------------|
a|----------------------|
F|----------------------|
C|----------------------|	(Guitar2)
G|----------------14----|
D|-------------12----12-|
A|-12-------13----------|

Bridge4:
d|----------------------|
a|----------------------|
F|----------------------|
C|-15-------------------|	(Guitar1)
G|-14-------------------|
D|-13-------------------|
A|-12-------------------|

d|----------------------|
a|----------------------|
F|----------------------|
C|----------------------|	(Guitar2)
G|--------------14------|
D|-------------12-------|
A|------------13--------|

Chorus:(Guitar1 & Guitar2)
d|--------------------------|
a|--------------------------|
F|--------------------------|
C|--------------------------|
G|--------------------------|
D|---2-3/4-2-3-3-2-3-3-2----|
A|-0-0-1/2-0-1-1-0-1-1-0--0-|

Chorus-end:(Guitar1 & Guitar2)
d|-----------------------------------------|
a|-----------------------------------------|
F|-----------------------------------------|
C|-----------------------------------------|
G|-----------------------------------------|
D|----13----14----13^------13----14--------|
A|-00----00----00-------00----00----00-/12-|

Outro-Chorus:(Guitar1 & Guitar2)
d|-------------------------|
a|-------------------------|
F|-------------------------|
C|-------------------------|
G|-------------------------|
D|---2-3/4-2-33-2X-33X2X---|
A|-0-0-1/2-0-11-0X-11X0X-0X|

KoRn - Predictable - KoRn 

Tabbed by Elvisz (elvisz@kornkids.com)
Tuning : 7 String Tuned Low to High (A D G C F a d)

Intro:(Guitar1)
d|------------------------------|
a|------------------------------|
F|------------------------------|
C|------------------------------|
G|------------------------------|
D|------2\1-------------2\1-----|
A|-0-00-----0-2/3-0-2/3-----2/3-|
     **                           * Palm Mute

Verse:(Guitar1 & Guitar2)
d|------------------------------|
a|------------------------------|
F|------------------------------|
C|------------------------------|
G|------4\3-------------4\3-----|
D|-2----2\1---4/5---4/5-2\1-4/5-|
A|-0-00-----0-2/3-0-2/3-----2/3-|
     **                           * Palm Mute

Fill1:(Guitar1 & Guitar2)
d|-----------------------------|
a|-----------------------------|
F|-----------------------------|
C|--------------------------16-|
G|------4\3-------------4\3-15-|
D|-2----2\1---4/5---4/5-2\1-14-|
A|-0-00-----0-2/3-0-2/3-----13-|
     **                           * Palm Mute

Pre-Chorus:(Guitar1 & Guitar2)
d|-------------------------------------------|
a|-------------------------------------------|
F|-------------------------------------------|
C|-------------------------------------------|
G|-------------------------------------------|
D|-2-2---2---2-2---2---2-2---2---2-2---2-2---|
A|-0-0-X-0---0-0-X-0---0-0-X-0---0-0-x-0--00-|

Chorus:(Guitar1 & Guitar2)
d|----------------------------------------------------------------|
a|----------------------------------------------------------------|
F|----------------------------------------------------------------|
C|----------------------------------------------------------------|
G|-10\9-----9\8-----8\7-----7\6-----------------------------------|
D|--8\7-7-7-7\6-6-6-6\5-5-5-5\4-4X--6\5-----5\4-----4\3-----3\2---|
A|----------------------------------4\3-3-3-3\2-2-2-2\1-1-1-1'0-0-|

Bridge1:(Guitar1 & Guitar2)
d|--------------------------------------|
a|--------------------------------------|
F|--------------------------------------|
C|--------------------------------------|
G|------------------------------------3-|
D|-22X-22X-22X-2--33--22X-22X-22X---331-|
A|-00X-00X-00X-0-011--00X-00X-00X0-0111-|

Bridge2:(Guitar1 & Guitar2)
d|----------------------------------|
a|----------------------------------|
F|----------------------------------|
C|--------------------------3--2----|
G|-2--------5--4-4----5--3--1--0--3-|
D|-0--2--3--3--2-2----3--1--------1-|
A|----0--1--------------------------|

Bridge2:(Guitar1 & Guitar2)
d|--------------------|
a|--------------------|
F|--------------------|
C|------------3--4----|
G|-2----------1--2--3-|
D|-0--2--3----------1-|
A|----0--1------------|

Verse:(Guitar1)
d|------------------------------|
a|------------------------------|
F|------------------------------|
C|------------------------------|
G|------4\3-------------4\3-----|
D|-2----2\1---4/5---4/5-2\1-4/5-|
A|-0-00-----0-2/3-0-2/3-----2/3-|
     **                           * Palm Mute

Pre-Chorus:(Guitar1 & Guitar2)
d|-------------------------------------------|
a|-------------------------------------------|
F|-------------------------------------------|
C|-------------------------------------------|
G|-------------------------------------------|
D|-2-2---2---2-2---2---2-2---2---2-2---2-2---|
A|-0-0-X-0---0-0-X-0---0-0-X-0---0-0-x-0--00-|

Chorus:(Guitar1 & Guitar2)
d|----------------------------------------------------------------|
a|----------------------------------------------------------------|
F|----------------------------------------------------------------|
C|----------------------------------------------------------------|
G|-10\9-----9\8-----8\7-----7\6-----------------------------------|
D|--8\7-7-7-7\6-6-6-6\5-5-5-5\4-4X--6\5-----5\4-----4\3-----3\2---|
A|----------------------------------4\3-3-3-3\2-2-2-2\1-1-1-1'0-0-|

Outro:(Guitar1 & Guitar2)
d|--------------------------------------|
a|--------------------------------------|
F|--------------------------------------|
C|--------------------------------------|
G|------------------------------------3-|
D|-22X-22X-22X-2--33--22X-22X-22X---331-|
A|-00X-00X-00X-0-011--00X-00X-00X0-0111-|

KoRn - Lies - KoRn

Tabbed by Elvisz (elvisz@kornkids.com)
Tuning : 7 String Tuned Low to High (A D G C F a d)

Intro:(Guitar1 & Guitar2)
d|-------------------------------|
a|-------------------------------|
F|-------------------------------|
C|-------------------------------|
G|-4/5-5\4-4\3-3-3/4-4\3-3\2-2-2-|
D|-4/5-5\4-4\3-3-3/4-4\3-3\2-2-2-|
A|-2/3-3\2-2\1-1-1/2-2\1-1`0-0-0-|

Verse:
d|----------------------------|
a|----------------------------|
F|----------------------------|
C|----------------------------|	(Guitar1)
G|-13--14----13--13----13--14-|
D|----------------------------|
A|----------------------------|

Guitar2 does some kind of scratching with wah...

Pre-Chorus1:
(Guitar2)
d|------------------------------------------------------|
a|-20202020202020202020--^22--20202020202020202020--^21-|
F|------------------------------------------------------|
C|------------------------------------------------------|
G|------------------------------------------------------|
D|------------------------------------------------------|
A|------------------------------------------------------|

d|------------------------------------------------------|
a|-20202020202020202020--^18--20202020202020202020--^22-|
F|------------------------------------------------------|
C|------------------------------------------------------|
G|------------------------------------------------------|
D|------------------------------------------------------|
A|------------------------------------------------------|

Chorus:(Guitar1 & Guitar2)
d|-------------------------------|
a|-------------------------------|
F|-------------------------------|
C|-------------------------------|
G|-4/5-5\4-4\3-3-3/4-4\3-3\2-2-2-|
D|-4/5-5\4-4\3-3-3/4-4\3-3\2-2-2-|
A|-2/3-3\2-2\1-1-1/2-2\1-1`0-0-0-|

Verse:
d|----------------------------|
a|----------------------------|
F|----------------------------|
C|----------------------------|	(Guitar1)
G|-13--14----13--13----13--14-|
D|----------------------------|
A|----------------------------|

Pre-Chorus2:
(Guitar2)
d|------------------------------------------------------|
a|-20202020202020202020--^22--20202020202020202020--^24-|
F|------------------------------------------------------|
C|------------------------------------------------------|
G|------------------------------------------------------|
D|------------------------------------------------------|
A|------------------------------------------------------|

Chorus:(Guitar1 & Guitar2)
d|-------------------------------|
a|-------------------------------|
F|-------------------------------|
C|-------------------------------|
G|-4/5-5\4-4\3-3-3/4-4\3-3\2-2-2-|
D|-4/5-5\4-4\3-3-3/4-4\3-3\2-2-2-|
A|-2/3-3\2-2\1-1-1/2-2\1-1`0-0-0-|

Bridge1:(Guitar1 & Guitar2)
d|--------------------------|
a|----------0-------------0-|
F|----------0-----------0---|
C|--------------------------|
G|-6-6-6-5-----5-5-5-4------|
D|-6-6-6-5-----5-5-5-4------|
A|-4-4-4-3-----3-3-3-2------|

Bridge2:(Guitar1 & Guitar2)
d|---------|
a|---------|
F|---------|
C|---------|
G|-2X-2-2X-|
D|-2X-2-2X-|
A|-0X-0-0X-|

Bridge3:
d|--------------------------|
a|----------0-------------0-|
F|----------0-----------0---|
C|--------------------------|	(Guitar1)
G|-6-6-6-5-----5-5-5-4------|
D|-6-6-6-5-----5-5-5-4------|
A|-4-4-4-3-----3-3-3-2------|

d|-------------------------------|
a|-------------------------------|
F|-------------------------------|
C|-------------------------------|	(Guitar2)
G|-4/5-5\4-4\3-3-3/4-4\3-3\2-2-2-|
D|-4/5-5\4-4\3-3-3/4-4\3-3\2-2-2-|
A|-2/3-3\2-2\1-1-1/2-2\1-1`0-0-0-|

Chorus:(Guitar1 & Guitar2)
d|-------------------------------|
a|-------------------------------|
F|-------------------------------|
C|-------------------------------|
G|-4/5-5\4-4\3-3-3/4-4\3-3\2-2-2-|
D|-4/5-5\4-4\3-3-3/4-4\3-3\2-2-2-|
A|-2/3-3\2-2\1-1-1/2-2\1-1`0-0-0-|

Outro:
d|--------------------------|
a|----------0-------------0-|
F|----------0-----------0---|
C|--------------------------|	(Guitar1)
G|-6-6-6-5-----5-5-5-4------|
D|-6-6-6-5-----5-5-5-4------|
A|-4-4-4-3-----3-3-3-2------|

d|-------------------------------|
a|-------------------------------|
F|-------------------------------|
C|-------------------------------|	(Guitar2)
G|-4/5-5\4-4\3-3-3/4-4\3-3\2-2-2-|
D|-4/5-5\4-4\3-3-3/4-4\3-3\2-2-2-|
A|-2/3-3\2-2\1-1-1/2-2\1-1`0-0-0-|

KoRn - Helmet In The Bushes - KoRn 

Tabbed by Elvisz (elvisz@kornkids.com)
Tuning : 7 String Tuned Low to High (A D G C F a d)

Intro:
d|--------------------------------------|
a|--------------------------------------|
F|--------------------------------------|
C|--------------------------------------|	(Guitar1)
G|--------------------------------------|
D|--------------------------------------|
A|-0-0-0-0--2-3-2-1--0-0-0-0-1-2-1-0--0-|

Pre-Verse1:(Guitar1 & Guitar2)
d|-----------------------------------|
a|-----------------------------------|
F|-----------------------------------|
C|-----------------------------------|	(Guitar1)
G|----------4/5\4-3----------3/4\3-2-|
D|-----------------------------------|
A|-0-0-0-0--2-3-2-1--0-0-0-0-1-2-1-0-|

Pre-Verse2:
d|----------------------------|
a|----------------------------|
F|----------------------------|
C|----------------------------|	(Guitar1)
G|-2~~~~~~~~~~~~~~~~~~~~~~~~~~|
D|-2~~~~~~~~~~~~~~~~~~~~~~~~~~|
A|-0~~~~~~~~~~~~~~~~~~~~~~~~~~|

d|-------------------------17^|
a|---17^-(17)^-(17)^-(17)^----|
F|----------------------------|
C|----------------------------|	(Guitar2)
G|----------------------------|
D|----------------------------|
A|----------------------------|

Verse:(Guitar1)
d|-----------------------|
a|-----------------------|
F|-----------------------|
C|---------13------------|
G|---------12------------|
D|---------11------------|
A|-0-0-0-0-10--0-0-0-0-0-|

Pre-Chorus:
d|--------------------|
a|--------------------|
F|--------------------|
C|-13-----------------|	(Guitar1)
G|-12-----------------|
D|-11-----------------|
A|-10-0-0-0-0-0-0-0-0-|

d|-------------------------17^|
a|---17^-(17)^-(17)^-(17)^----|
F|----------------------------|
C|----------------------------|	(Guitar2)
G|----------------------------|
D|----------------------------|
A|----------------------------|

Chorus:(Guitar1 & Guitar2)
d|-----------------------------------|
a|-----------------------------------|
F|-----------------------------------|
C|-----------------------------------|
G|----------4/5\4-3----------3/4\3-2-|
D|-----------------------------------|
A|-0-0-0-0--2-3-2-1--0-0-0-0-1-2-1-0-|

Verse:(Guitar1)
d|-----------------------|
a|-----------------------|
F|-----------------------|
C|---------13------------|
G|---------12------------|
D|---------11------------|
A|-0-0-0-0-10--0-0-0-0-0-|

Pre-Chorus:
d|--------------------|
a|--------------------|
F|--------------------|
C|-13-----------------|	(Guitar1)
G|-12-----------------|
D|-11-----------------|
A|-10-0-0-0-0-0-0-0-0-|

d|-------------------------17^|
a|---17^-(17)^-(17)^-(17)^----|
F|----------------------------|
C|----------------------------|	(Guitar2)
G|----------------------------|
D|----------------------------|
A|----------------------------|

Chorus:(Guitar1 & Guitar2)
d|-----------------------------------|
a|-----------------------------------|
F|-----------------------------------|
C|-----------------------------------|
G|----------4/5\4-3----------3/4\3-2-|
D|-----------------------------------|
A|-0-0-0-0--2-3-2-1--0-0-0-0-1-2-1-0-|

Bridge1:
d|-------------|
a|-------------|
F|-------------|
C|-------------|	(Guitar1)
G|-2~~~~~~~~~~~|
D|-2~~~~~~~~~~~|
A|-0~~~~~~~~~~~|

d|--17^----17^-|
a|-------------|
F|-------------|
C|-------------|	(Guitar2)
G|-------------|
D|-------------|
A|-------------|

Bridge2:

d|--------------------|
a|--------------------|
F|--------------------|
C|--------------------|	(Guitar1)
G|--------------------|
D|--------------------|
A|-0-0---0-0X-0-0-0-0X|

d|--17^----17^-|
a|-------------|
F|-------------|
C|-------------|	(Guitar2)
G|-------------|
D|-------------|
A|-------------|

Bridge3:
d|-----------------------|
a|-----------------------|
F|-----------------------|
C|---------13------------|	(Guitar1)
G|---------12------------|
D|---------11------------|
A|-0-0-0-0-10--0-0-0-0-0-|

d|--17^----17^-|
a|-------------|
F|-------------|
C|-------------|	(Guitar2)
G|-------------|
D|-------------|
A|-------------|

Chorus:(Guitar1 & Guitar2)
d|-----------------------------------|
a|-----------------------------------|
F|-----------------------------------|
C|-----------------------------------|
G|----------4/5\4-3----------3/4\3-2-|
D|-----------------------------------|
A|-0-0-0-0--2-3-2-1--0-0-0-0-1-2-1-0-|

Outro:(Guitar1 & Guitar2)
d|-----------------------------------|
a|-----------------------------------|
F|-----------------------------------|
C|-----------------------------------|
G|----------9/10\9\8---------8/9\8\7-|
D|----------9/10\9\8---------8/9\8\7-|
A|-0-0---0-----------0-0---0---------|

KoRn - Daddy - KoRn

Tabbed by Elvisz (elvisz@kornkids.com)
Tuning : 7 String Tuned Low to High (A D G C F a d)

Intro:(Guitar1)
d|--------------------|
a|----13-----12----12-|
F|-16-----15----15----|
C|--------------------|
G|--------------------|
D|--------------------|
A|--------------------|

Fill1:(Guitar2)
d|---------|
a|---------|
F|---------|
C|-0-----0-|
G|----4----|
D|---------|
A|---------|

Chorus:
(Guitar1)
d|----------------------------------------------|-----------------------------------------------|
a|----------------------------------------------|-----------------------------------------------|
F|----------------------------------------------|-----------------------------------------------|
C|----------------------------------------------|-----------------------------------------------|
G|-5--4-------5--4-------3/4-3-------5--3-------|-4/5-4-------5--4-------3/4-3-------5--3-------|
D|-5--4-------5--4-------3/4-3-------5--3-------|-4/5-4-------5--4-------3/4-3-------5--3-------|
A|-3--2-------3--2-------1/2-1-------3--1-------|-2/3-2-------3--2-------1/2-1-------3--1-------|

(Guitar2)
d|----------------------------------------------|-----------------------------------------------|
a|------0---0------0---0------------------------|-------0---0------0---0------------------------|
F|--------4----------4---------0---0------0---0-|---------4----------4---------0---0------0---0-|
C|-------------------------------3----------3---|--------------------------------3----------3---|
G|----------------------------------------------|-----------------------------------------------|
D|----------------------------------------------|-----------------------------------------------|
A|----------------------------------------------|-----------------------------------------------|

Verse:(Guitar1)
d|--------------------|
a|----13-----12----12-|
F|-16-----15----15----|
C|--------------------|
G|--------------------|
D|--------------------|
A|--------------------|

Chorus:
(Guitar1)
d|----------------------------------------------|-----------------------------------------------|
a|----------------------------------------------|-----------------------------------------------|
F|----------------------------------------------|-----------------------------------------------|
C|----------------------------------------------|-----------------------------------------------|
G|-5--4-------5--4-------3/4-3-------5--3-------|-4/5-4-------5--4-------3/4-3-------5--3-------|
D|-5--4-------5--4-------3/4-3-------5--3-------|-4/5-4-------5--4-------3/4-3-------5--3-------|
A|-3--2-------3--2-------1/2-1-------3--1-------|-2/3-2-------3--2-------1/2-1-------3--1-------|

(Guitar2)
d|----------------------------------------------|-----------------------------------------------|
a|------0---0------0---0------------------------|-------0---0------0---0------------------------|
F|--------4----------4---------0---0------0---0-|---------4----------4---------0---0------0---0-|
C|-------------------------------3----------3---|--------------------------------3----------3---|
G|----------------------------------------------|-----------------------------------------------|
D|----------------------------------------------|-----------------------------------------------|
A|----------------------------------------------|-----------------------------------------------|

Fill2:(Guitar2)
d|------|
a|------|
F|------|
C|----0-|
G|-4--5-|
D|------|
A|------|

Bridge1:
d|-----------------------------------------|
a|-----------------------------------------|
F|-----------------------------------------|
C|-----------------------------------------|	(Guitar1)
G|-----------------------------------------|
D|-2---------2-------------2---------2---3-|
A|-0-0--00-0-0-0-00-(00)---0-0--00-0-0--01-|

d|-------------------18^-------------------|
a|-----------------------------------------|
F|-----------------------------------------|
C|-----------------------------------------|	(Guitar2)
G|-----------------------------------------|
D|-----------------------------------------|
A|-----------------------------------------|

Bridge2:(Guitar1 & Guitar2)
d|----------------------|
a|----------------------|
F|----------------------|
C|----------------------|
G|-4-55-4-8--8-44-5-5-8-|
D|-4-55-4-8--8-44-5-5-8-|
A|-2-33-2-6--6-22-3-2-6-|

Verse:(Guitar1)
d|--------------------|
a|----13-----12----12-|
F|-16-----15----15----|
C|--------------------|
G|--------------------|
D|--------------------|
A|--------------------|

Fill3:
(Guitar1)
d|-------------------------------------------------|-----------------------------------------------|
a|-------------------------------------------------|-----------------------------------------------|
F|-------------------------------------------------|-----------------------------------------------|
C|-------------------------------------------------|-----------------------------------------------|
G|--------4------5--4-------3/4-3-------5--3-------|-4/5-4-------5--4-------3/4-3-------5--3-------|
D|--------4------5--4-------3/4-3-------5--3-------|-4/5-4-------5--4-------3/4-3-------5--3-------|
A|-222333-2------3--2-------1/2-1-------3--1-------|-2/3-2-------3--2-------1/2-1-------3--1-------|

(Guitar2)
d|-------------------------------------------------|-----------------------------------------------|
a|---------0---0------0---0------------------------|-------0---0------0---0------------------------|
F|-----------4----------4---------0---0------0---0-|---------4----------4---------0---0------0---0-|
C|----------------------------------3----------3---|--------------------------------3----------3---|
G|-------------------------------------------------|-----------------------------------------------|
D|-------------------------------------------------|-----------------------------------------------|
A|-------------------------------------------------|-----------------------------------------------|

Fill2:(Guitar2)
d|------|
a|------|
F|------|
C|----0-|
G|-4--5-|
D|------|
A|------|

Chorus:
(Guitar1)
d|----------------------------------------------|-----------------------------------------------|
a|----------------------------------------------|-----------------------------------------------|
F|----------------------------------------------|-----------------------------------------------|
C|----------------------------------------------|-----------------------------------------------|
G|-5--4-------5--4-------3/4-3-------5--3-------|-4/5-4-------5--4-------3/4-3-------5--3-------|
D|-5--4-------5--4-------3/4-3-------5--3-------|-4/5-4-------5--4-------3/4-3-------5--3-------|
A|-3--2-------3--2-------1/2-1-------3--1-------|-2/3-2-------3--2-------1/2-1-------3--1-------|

(Guitar2)
d|----------------------------------------------|-----------------------------------------------|
a|------0---0------0---0------------------------|-------0---0------0---0------------------------|
F|--------4----------4---------0---0------0---0-|---------4----------4---------0---0------0---0-|
C|-------------------------------3----------3---|--------------------------------3----------3---|
G|----------------------------------------------|-----------------------------------------------|
D|----------------------------------------------|-----------------------------------------------|
A|----------------------------------------------|-----------------------------------------------|

Bridge3:(Guitar2)
d|------------------------------------------------------|
a|------------------------------------------------------|
F|-(4)--(3)--4--3--4-----------------4--3--4--3-----0---|
C|--------------------4--5----4--5---------------4--4~~~|
G|------------------------------------------------------|
D|------------------------------------------------------|
A|------------------------------------------------------|

Outro:(Guitar2)
d|-----------------------------------|
a|-----------------------------------|
F|-4-4-4-4-4-4-------------x-x-x-x-x-|
C|-----------------------------------|
G|-----------------------------------|
D|-----------------------------------|
A|-----------------------------------|
comments
print report bad tab
1 comment total.
0 reply
macolicious14 wrote on November 7 2006, 08:51 am

good job man

I want to post or [tab]
guest
You may want to rate the tab now too:
select rating
Please do not post tabs as comments. Select "correction" instead!