Oops, an error
Loading. Please wait.

Life Is Peachy Tab

by Korn
ver2
ver2

Album

More versions @911Tabs.com
1,165 views 3 this week
no commentswrite comment
1 2 3 4 5
worth learning
x 1
Autoscroll
+/-
esc
set tempo
stop
Contributor
Hey! There's an official Ultimate Guitar app which is ideal
for learning songs when you're away from computer. Get the app
WARNING: You are trying to view
                                    content from Ultimate-Guitar.com
                                    in an unauthorized application,
                                    which is prohibited.

                                    Please use an official Ultimate
                                    Guitar Tabs application for iPhone,
                                    iPad or Android to access legitimate
                                    chords, guitar, bass, and drum tabs
                                    from Ultimate-Guitar.com database.

                                    Type "ultimate guitar tabs" in Apple
                                    App Store's or Android Market's
                                    search to find the application.
LIFE IS PEACHY
1.Twist
2.Chi
3.Lost
4.Swallow
5.Porno Creep
6.Good God
7.Mr.Rogers
8.K@#o%!
9.No Place To Hide
10.Wicked
11.A.D.I.D.A.S.
12.Lowrider
13.Ass Itch
14.Kill You

1.Twist

Verse - Munky                    x8
D|--------------------------------|
A|-------10/11/12--------12/11/10-|
F|--------------------------------|
C|--------8/9-/10--------10/9-/8--|
G|--------------------------------|
D|--------------------------------|
A|-0-0-0------------0-0-0---------|

Verse - Head                                       x4
D|--------------------18----------------------------|
A|-------10/11/12--------17---------10/11/12--14^~^-|
F|------------------15------------------------------|
C|--------8/9-/10--------------------8/9-/10--------|
D|--------------------------------------------------|
G|--------------------------------------------------|
A|-0-0-0----------------------0-0-0-----------------|

Chorus                        
D|-----------------------------|
A|-----9------9--------9-------|
F|-----------------------------|
C|-----7------7--------7-------|
G|-----------------------------|
D|-----------------------------|
A|-00----000-----0-00-----0000-|

Verse - Munky                    x8
D|--------------------------------|
A|-------10/11/12--------12/11/10-|
F|--------------------------------|
C|--------8/9-/10--------10/9-/8--|
G|--------------------------------|
D|--------------------------------|
A|-0-0-0------------0-0-0---------|

Verse - Head                                       x4
D|--------------------18----------------------------|
A|-------10/11/12--------17---------10/11/12--14^~^-|
F|------------------15------------------------------|
C|--------8/9-/10--------------------8/9-/10--------|
D|--------------------------------------------------|
G|--------------------------------------------------|
A|-0-0-0----------------------0-0-0-----------------|

Outro
D|-----------------------------|
A|-----9------9--------9-------|
F|-----------------------------|
C|-----7------7--------7-------|
G|-----------------------------|
D|-----------------------------|
A|-00----000-----0-00-----0000-|

2.Chi

7-sting guitar tuned down a full step

Intro
-------
-------
-------
-------
-------feedback
-4\3---
-2\1---

Intro 2
------------------
------------------
------------------
------------------
------------------
-4\3-3\2-2--2-3/4-
-2\1-1\0-0--0-1/2-

Pre-verse
-12---------------
------------------
------------------
------------------
------------------
------------------
------------------

Verse-all natural harmonics
-14---------14--------
-----11--------11-12--
--------11\-----------
----------------------
----------------------
----------------------
----------------------

Chorus same as intro 2

Bridge 1
me entering my head...
-----------------------
-----------------------
-----------------------
-Feedback--------------
-----------------------
-----------------------
-----------------------

Bridge 2
-------------------
-------------------
-------------------
-------------------
-------------------
-2--2-2-2-7-7--3-3-
-0--0-0-0-5-5--1-1-

Bridge 3
---------------------------
---------------------------
---------------------------
---------------------------
---------------------------
-2222--2222--2222-7-7--3-3-
-0000--0000--0000-5-5--1-1-

Outro
Bite!
----------
----------
----------
----------
----------
-5--4\3-2-
-3--2\1-0-

3.Lost

Intro   
D|-------------------------------------| >> = Fade In With
A|-------------------------------------|      Volume Control
F|-------------------------------------|
C|--0>>-------0>>--------0>>-------0>>-|
G|--4>>-------4>>--------4>>-------4>>-|
D|-------------------------------------|
A|-------------------------------------|

Main Riff           x8
D|-------------------|
A|-------------------|
F|-------------------|
C|-----------------0-|
G|-----------------4-|
D|-5\4--4--4\3--3----|
A|-3\2--2--2\1--1----|

Verse                             x2
D|---------------------------------| >> = Fade In With
A|---------------------------------|      Volume Control
F|---------------------------------|
C|--0>>-------0>>--------0>>---0>>-|
G|--4>>-------4>>--------4>>---4>>-|
D|---------------------------------|
A|---------------------------------|

Main Riff           x4
D|-------------------|
A|-------------------|
F|-------------------|
C|-----------------0-|
G|-----------------4-|
D|-5\4--4--4\3--3----|
A|-3\2--2--2\1--1----|

Verse                             x2
D|---------------------------------| >> = Fade In With
A|---------------------------------|      Volume Control
F|---------------------------------|
C|--0>>-------0>>--------0>>---0>>-|
G|--4>>-------4>>--------4>>---4>>-|
D|---------------------------------|
A|---------------------------------|

Main Riff           x8
D|-------------------|
A|-------------------|
F|-------------------|
C|-----------------0-|
G|-----------------4-|
D|-5\4--4--4\3--3----|
A|-3\2--2--2\1--1----|

Interlude                          x4 
D|----------------------------------|
A|----------------------------------|
F|----------------------------------|
C|----------------------------------|
G|--10-10-10\9--10-10-10\9--10-10---|
D|---9--9--9\8---9--9--9\8---9--9---|
A|----------------------------------|

Bridge                                      x4       
D|----------------------------------------19-|
A|-------------------------------------------|
F|-------------------------------------------|
C|-------------------------------------------|
G|-------------------------------------------|
D|-3-------3-------3----3-------3-------3----|
A|---2-2-2---2-2-2---2---2-2-2---2-2-2-------|

Fill 2
D|--19^--|
A|-------|
F|-------|
C|-------|
G|-------|
D|-------|
A|-------|

Verse                             x2
D|---------------------------------| >> = Fade In With
A|---------------------------------|      Volume Control
F|---------------------------------|
C|--0>>-------0>>--------0>>---0>>-|
G|--4>>-------4>>--------4>>---4>>-|
D|---------------------------------|
A|---------------------------------|

Main Riff           x8
D|-------------------|
A|-------------------|
F|-------------------|
C|-----------------0-|
G|-----------------4-|
D|-5\4--4--4\3--3----|
A|-3\2--2--2\1--1----|

Outro                x8
D|--------------------|
A|--------------------|
F|--------------------|
C|--------------------|
G|--------------------|
D|-5\4--4--4\3--3-3-3-|
A|-3\2--2--2\1--1-1-1-|

4.Swallow

Intro                                x2                                  
D|------------------------------------|
A|------------------------------------|
F|------------------------------------|
C|------------------------------------|
G|-4--------4-------------------------|
D|------------------------------------|
A|---2p1h2----2p1h2--2--2h3--1h2--2-2-|

Main Riff                            x8
D|------------------------------------|
A|------------------------------------|
F|------------------------------------|
C|------------------------------------|
G|-4--------4-------------------------|
D|------------------------------------|
A|---2p1h2----2p1h2--2--2h3--1h2--2-2-|

Verse (munky)           x4
D|-----------------------|
A|---15-------------15---|
F|---13-------------13---|
C|-----------------------|
G|-----------------------|
D|-----------------------|
A|-----------------------|

Verse (head)  x4
D|-------------|
A|--/15---15---|
F|-----13---13-|
C|-------------|
G|-------------|
D|-------------|
A|-------------|

Main Riff                            x4
D|------------------------------------|
A|------------------------------------|
F|------------------------------------|
C|------------------------------------|
G|-4--------4-------------------------|
D|------------------------------------|
A|---2p1h2----2p1h2--2--2h3--1h2--2-2-|

Verse (munky)           x2
D|-----------------------|
A|---15-------------15---|
F|---13-------------13---|
C|-----------------------|
G|-----------------------|
D|-----------------------|
A|-----------------------|

Verse (head)  x4
D|-------------|
A|--/15---15---|
F|-----13---13-|
C|-------------|
G|-------------|
D|-------------|
A|-------------|

Main Riff                            x8
D|------------------------------------|
A|------------------------------------|
F|------------------------------------|
C|------------------------------------|
G|-4--------4-------------------------|
D|------------------------------------|
A|---2p1h2----2p1h2--2--2h3--1h2--2-2-|

Interlude                  x8
D|--------------------------|
A|--------------------------|
F|--------------------------|
C|--------------3/4\3---3\2-|
G|--------------2/3\2---2\1-|
D|-2-2---2-2-2--------------|
A|-0-0---0-0-0--------------|

Verse (munky)           x2
D|-----------------------|
A|---15-------------15---|
F|---13-------------13---|
C|-----------------------|
G|-----------------------|
D|-----------------------|
A|-----------------------|

Verse (head)  x4
D|-------------|
A|--/15---15---|
F|-----13---13-|
C|-------------|
G|-------------|
D|-------------|
A|-------------|

Main Riff                           x16
D|------------------------------------|
A|------------------------------------|
F|------------------------------------|
C|------------------------------------|
G|-4--------4-------------------------|
D|------------------------------------|
A|---2p1h2----2p1h2--2--2h3--1h2--2-2-|

5.Porno Creep

Intro

Turn your amp super loud and play with the wah wah until you get it right

Post Intro

e|--(softly)-12-12-12-12-12-12-12-12-12-12-12-12-12-12-12-|

Hip hop Sample Sounding Riff

e|-18--19-17--18--13-///9////5-|

(continued)

e|-18--22--17--22--22^-|

They use a mu-tron bi-phaser for this. if you're like me and don't got one just use a wah wah.

Guitar2 background chords

   g7        D
e|----|   e|-13-|
b|-12-|   b|-15-|
g|-10-|   g|-14-|

You will need a wah wah for this too

Phat-ass bass lick

D|-------------3-|
A|--5--0--3h5----|

6.Good God

Intro
D|-----20------20--------20------20-------20------20-------19------20-----|
A|------------------------------------------------------------------------|
F|------------------------------------------------------------------------|
C|------------------------------------------------------------------------|
G|------------------------------------------------------------------------|
D|------------------------------------------------------------------------|
A|-10------00------1010------00------1010-----00------1010-----00------10-|
   ..      ..      ....      ..      ....     ..      ....     ..      ..

D|-----20------20--------20------20-------20------20-------20------20-----|
A|------------------------------------------------------------------------|
F|------------------------------------------------------------------------|
C|------------------------------------------------------------------------|
G|------------------------------------------------------------------------|
D|------------------------------------------------------------------------|
A|-10------00------1010------00------1010-----00------1010-----00------10-|
   ..      ..      ....      ..      ....     ..      ....     ..      ..

Verse                                              x3  
D|--------------------------------------------------|
A|--------(7)-----(7)-------------(7)-----(7)-------|
F|----(5)-------------(7)-----(5)------------(7)----|
C|----------------------------------------------(7)-|
G|--------------------------------------------------|
D|-32---------32-----------32---------32------------|
A|-10---------10-----------10---------10------------|


Pre-Chorus
D|-----20------20--------20------20-------20------20-------20------20-----|
A|------------------------------------------------------------------------|
F|------------------------------------------------------------------------|
C|------------------------------------------------------------------------|
G|------------------------------------------------------------------------|
D|------------------------------------------------------------------------|
A|-10------00------1010------00------1010-----00------1010-----00------10-|
   ..      ..      ....      ..      ....     ..      ....     ..      ..

Chorus (head)          
D|---------------------|
A|---------------------|
F|---------------------| ( this bit is really low
C|---------------------|   and hard to hear. So you
G|-------------------7-|   cant get this right try 
D|-2------8-----7----5-|   munkys part )
A|-0------6-----5------|

Chorus (munky)
D|-7-(tremolo-this-until-----1010101010/12121212121212121212-|
A|----Jon-says-"feel-the-------------------------------------|
F|-4--pain-of-your-needles")-7-7-7-7-7-/9-9-9-9-9-9-9-9-9-9--|
C|-----------------------------------------------------------| 
G|-----------------------------------------------------------|
D|-----------------------------------------------------------|
A|-----------------------------------------------------------|
 
Verse                                              x3  
D|--------------------------------------------------|
A|--------(7)-----(7)-------------(7)-----(7)-------|
F|----(5)-------------(7)-----(5)------------(7)----|
C|----------------------------------------------(7)-|
G|--------------------------------------------------|
D|-32---------32-----------32---------32------------|
A|-10---------10-----------10---------10------------|

Pre-Chorus
D|-----20------20--------20------20-------20------20-------20------20-----|
A|------------------------------------------------------------------------|
F|------------------------------------------------------------------------|
C|------------------------------------------------------------------------|
G|------------------------------------------------------------------------|
D|------------------------------------------------------------------------|
A|-10------00------1010------00------1010-----00------1010-----00------10-|
   ..      ..      ....      ..      ....     ..      ....     ..      ..

Chorus (head)          
D|---------------------|
A|---------------------|
F|---------------------| ( this bit is really low
C|---------------------|   and hard to hear. So you
G|-------------------7-|   cant get this right try 
D|-2------8-----7----5-|   munkys part )
A|-0------6-----5------|

Chorus (munky)
D|-7-(tremolo-this-until-----1010101010/12121212121212121212-|
A|----Jon-says-"feel-the-------------------------------------|
F|-4--pain-of-your-needles")-7-7-7-7-7-/9-9-9-9-9-9-9-9-9-9--|
C|-----------------------------------------------------------| 
G|-----------------------------------------------------------|
D|-----------------------------------------------------------|
A|-----------------------------------------------------------|

Bridge             x4
D|------------------|
A|------------------|
F|------------------|
C|------------------|
G|------------------|
D|-22-8---7-6-5-4-3-|
A|-00-6---5-4-3-2-1-|

Interlude     x8
D|-------------|
A|-------------|
F|-------------|
C|-------------|
G|-------------|
D|-32--2--2232-|
A|-10--0--0010-|

Chorus (head)          
D|---------------------|
A|---------------------|
F|---------------------| ( this bit is really low
C|---------------------|   and hard to hear. So you
G|-------------------7-|   cant get this right try 
D|-2------8-----7----5-|   munkys part )
A|-0------6-----5------|

Chorus (munky)
D|-7-(tremolo-this-until-----1010101010/12121212121212121212-|
A|----Jon-says-"feel-the-------------------------------------|
F|-4--pain-of-your-needles")-7-7-7-7-7-/9-9-9-9-9-9-9-9-9-9--|
C|-----------------------------------------------------------| 
G|-----------------------------------------------------------|
D|-----------------------------------------------------------|
A|-----------------------------------------------------------|

Bridge             x3
D|------------------| |--------|
A|------------------| |--------|
F|------------------| |--------|
C|------------------| |--------|
G|------------------| |--------|
D|-22-8---7-6-5-4-3-| |-22-8~~-|
A|-00-6---5-4-3-2-1-| |-00-6~~-|

7.Mr.Rogers

Tuning: 7 String Standard A one step down (A D G C F A D)

Intro

 gtr.2
|-----------------------------------------------------------------|
|-----------------------------------------------------------------|
|-----------------------------------------------------------------|
|-----------------------------------------------------------------|
|-----------------------------------------------------------------|
|---7-----7-----7---7-----7-----7---8-----8-----8---8-----8-----8-|
|-0---0-0---0-0---0---0-0---0-0---0---0-0---0-0---0---0-0---0-0---|
 pm...............................................................

 gtr.2
|-----------|
|-----------|
|-----------|
|-2-2-2-----|
|-2-2-2-----|
|-0-0-0-----|


 gtr.1&2
|-----------------------------------|
|-----------------------------------|
|-----------------------------------|
|--------14\13---10\9---------------|
|---------------------------7/8-8-8-|
|--------12\11---8-\7-------7/8-8-8-|
|-0--0-0-------0------0-0-0-5/6-6-6-|

(Repeat 8 Times)

|----------|
|----------|
|----------|
|-9~~------|
|-8~~------|
|-7~~------|
|-0~~------|


Verse
 
 gtr.1
|------------------------------------------------------|
|------------------------------------------------------|
|------------------------------------------------------|
|------------------------------------------------------|
|------------------------------------------------------|
|-7-7-7-7--7-7-7-7-------------------------------------|
|-------------------7-7-7-7--6-6-6-6--0-0-6-6--0-6-6-0-|
|gtr.2                                                 |
|------------------------------------------------------|
|-------------------7---6~----------------------6------|
|--4~~~--------------------------------------4-----4---|
|------------------------------------------------------|
|------------------------------------------------------|
|------------------------------------------------------|
|------------------------------------------------------|

(Repeat 3 Times)

 gtr.1
|------------------------------------------------------|
|------------------------------------------------------|
|------------------------------------------------------|
|------------------------------------------------------|
|------------------------------------------------------|
|-7-7-7-7--7-7-7-7-------------------------------------|
|-------------------7-7-7-7--6-6-6-6--0-0-6-6--0-6-6-0-|
|gtr.2                                                 |
|------------------------------------------------------|
|-------------------7---6~~~-------------------6^fb----|
|--4~~~------------------------------------------------|
|------------------------------------------------------|
|------------------------------------------------------|
|------------------------------------------------------|
|------------------------------------------------------|

Chorus

 gtr.1
|-----------------------------0~----0~-------|
|-----------------------------0~----0~-------|
|-----------------------------0~----0~-------|
|-----------------------------0~----0~-------|
|-3p2-2-2--3p2-2-2-2-3p2/-8-8---8-8---8-8-8--|
|-3p2-2-2--3p2-2-2-2-3p2/-8-8---8-8---8-8-8--|
|-1p0-0-0--1p0-0-0-0-1p0/-6-6---6-6---6-6-6--|
|gtr.2                                       |
|--------------------------------------------|
|-0~~~~~~~~~~~~~~~~~~~~~~~~~~~~~~~~~~~~~~~~~-|
|-3^fb---------------------------------------|
|--------------------------------------------|
|--------------------------------------------|
|--------------------------------------------|
|--------------------------------------------|


 gtr.1
|-----------------------------0~----0~-------|
|-----------------------------0~----0~-------|
|-----------------------------0~----0~-------|
|-----------------------------0~----0~-------|
|-3p2-2-2--3p2-2-2-2-3p2/-8-8---8-8---8-8-8--|
|-3p2-2-2--3p2-2-2-2-3p2/-8-8---8-8---8-8-8--|
|-1p0-0-0--1p0-0-0-0-1p0/-6-6---6-6---6-6-6--|
|gtr.2                                       |
|-12~~~~~~~~-----------------------11~~~~----|
|-------------------------10~~------------0~-|
|--------------------------------------------|
|--------------------------------------------|
|--------------------------------------------|
|--------------------------------------------|
|--------------------------------------------|
|--------------------------------------------|

Bridge

|--------------------7~------------------7~--------|
|--------7~----6~--------------7~-----6~----6~-----|
|---4~----------------------4~-----------------4~--|
|--------------------------------------------------|
|--------------------------------------------------|
|--------------------------------------------------|
|--------------------------------------------------|

Outro

|---------------------------|
|---------------------------|
|---------------------------|
|---------------------------|
|---------------------------|
|---------------------------|
|1p0-0-0-1p0-0-0-0-0-1p-0-0-|

8.K@#o%!

NOTE: Tune down a whole step to (A D G C F A D)

Intro (Gtr. 1) (clean)
G|--11\10----9---8--8----9\---8--8--|-%-|-%-|-11\10----9---8--8----|
D|--10\-9----8---7--7----8\7--7--7--|-%-|-%-|-10\-9----8---7--7----|
A|---------0---------0--------------|-%-|-%-|--------0-------------|
     (palm mute open notes)-

Intro 2/Chorus (Both Guitars) (w/ dist.)
G|-5\4--3-3---2--2--2-4\3-2---2--|-%-|
D|-5\4--3-3---2--2--2-4\3-2---2--|-%-|
A|-3\2--1-1---0--0--0-2\1-0---0--|-%-|

Verse (Both Guitars)
D|--3-----------------------------|
A|------5-------------------------|
F|--------------------------------|
C|--------------------------------|
G|--------------------------------|
D|--------------------------------|
A|----------0-0---0---0----3--1---| 7x
    NH---| pm------------------|

Fill 1 (Both Guitars)
D|--------------------------|
A|-0-------0-0---0----0-----|

Verse Part 2/Bridge Part 2 (Both Guitars)
G|-5--5-5/6-6-6-6/7-7-7--8/9-10/11--|
D|-5--5-5/6-6-6-6/7-7-7--8/9-10/11--|
A|-3--3-3/4-4-4-4/5-5-5--6/7--8/-9--| 4x

Fill 2 (Both Guitars) (Last "So what..") before break
G|--5\4--3-3---2---2--2-4-3-2--|
D|--5\4--3-3---2---2--2-4-3-2--|
A|--3\2--1-1---0---0--0-2-1-0--|

Bridge (Both Guitars) ("Found something to say�.")
A|---------14-----------------14---|
F|---------17-----------------17---|
C|---------------------------------|
G|---------------------------------|
D|---------------------------------|
A|--0--0----------0---0------------|
   pm---|        pm----|

Fill 3 (Both Guitars) (the last "punk ass bitch" in Bridge)
G|-5--5-5/6-6-6-6/7-7\6-6\5-5\\3---|
D|-5--5-5/6-6-6-6/7-7\6-6\5-5\\3---|
A|-3--3-3/4-4-4-4/5-5\4-4\3-3\\1---|

Outro (Both Guitars)
G|--11\10---9---8---8-----9\8--8--8--|
D|--10\-9---8---7---7-----8\7--7--7--|
A|---------0-----------0-------------| 4x

9.No Place To Hide

Intro (Head)                                x4
D|-------------------------------------------|    
A|-14/15--15/16---14/15--15/16---14/15-15/16-|    
F|-17/18--18/19---17/18--18/19---17/18-18/19-|  
C|-------------------------------------------|
G|-------------------------------------------|  
D|-------------------------------------------|    
A|-------------------------------------------|  

Intro (Munky)                               x4
D|-------------------------------------------|
A|--9/10--10/11----9/10--10/11----9/10-10/11-|
F|-12/13--13/14---12/13--13/14---12/13-13/14-|    
C|-------------------------------------------| 
G|-------------------------------------------|   
D|-------------------------------------------|    
A|-------------------------------------------|    

Main Riff                 x4                  x4  
D|-------------------------| |-----------------| 
A|-------------------------| |-----------------|
F|-------------------------| |-----------------|
C|-------------------------| |-----------------| 
G|-------------------------| |-----------------|
D|-3/4-4/5-5/6-6/7-6/7-7/8-| |-333/444/555/666-|
A|-1/2-2/3-3/4-4/5-4/5-5/6-| |-111/222/333/444-|

Verse
D|------------------------|
A|-18\12/18--12/18\12-----|
F|------------------------|
C|------------------------|
G|------------------------|
D|------------------------|
A|------------------------|

Chorus                  x8
D|-----------------------|
A|---5-------5-------5---|
F|---8-------8-------8^--|
C|-----------------------|
G|-----------------------|
D|-----------------------|
A|------0-0-----0-0------|

Pre Verse
D|---11~~------11~~------11^-|
A|---------------------------|
F|---------------------------|
C|---------------------------|
G|---------------------------|
D|---------------------------|
A|---------------------------|

Verse                    x2
D|------------------------|
A|-18\12/18--12/18\12-----|
F|------------------------|
C|------------------------|
G|------------------------|
D|------------------------|
A|------------------------|

Chorus                  x8
D|-----------------------|
A|---5-------5-------5---|
F|---8-------8-------8^--|
C|-----------------------|
G|-----------------------|
D|-----------------------|
A|------0-0-----0-0------|

Main Riff                 x4                  x4  
D|-------------------------| |-----------------| 
A|-------------------------| |-----------------|
F|-------------------------| |-----------------|
C|-------------------------| |-----------------| 
G|-------------------------| |-----------------|
D|-3/4-4/5-5/6-6/7-6/7-7/8-| |-333/444/555/666-|
A|-1/2-2/3-3/4-4/5-4/5-5/6-| |-111/222/333/444-|

Interlude   x3               
D|-----------| |-----|
A|-----------| |-----| Repeat Whole
F|-----------| |-----| Thing Twice
C|-----------| |-----|  
G|-----------| |-----|
D|-----------| |-----| 
A|-000--0000-| |-000-| 

Bridge            x8
D|-------------11^-|
A|-----------------|
F|-----------------|
C|-----------------|
G|-----------------|
D|-222-22-222------|
A|-000-00-000------|

Main Riff                 x4                   
D|-------------------------| 
A|-------------------------|
F|-------------------------|
C|-------------------------| 
G|-------------------------|
D|-3/4-4/5-5/6-6/7-6/7-7/8-| 
A|-1/2-2/3-3/4-4/5-4/5-5/6-| 

Chorus                 x16
D|-----------------------|
A|---5-------5-------5---|
F|---8-------8-------8^--|
C|-----------------------|
G|-----------------------|
D|-----------------------|
A|------0-0-----0-0------|

10.Wicked

Intro:(Guitar1)
d|-----------------|
a|-14--12/14\12\10-|
F|-----------------|
C|-----------------|
G|-----------------|
D|-----------------|
A|-----------------|

Chorus:(Guitar1 & Guitar2)
d|----------------|
a|----------------|
F|----------------|
C|----------------|
G|-5--3--2--8-7-6-|
D|-5--3--2--8-7-6-|
A|-3--1--0--6-5-4-|

Bridge1:(Guitar2)
d|-10-10-10--9-9-9--8-8-8--7-66-6-|
a|-10-10-10--9-9-9--8-8-8--7-66-6-|
F|--------------------------------|
C|--------------------------------|
G|--------------------------------|
D|--------------------------------|
A|--------------------------------|

Verse:(Guitar1)
d|-----------------|
a|-14--12/14\12\10-|
F|-----------------|
C|-----------------|
G|-----------------|
D|-----------------|
A|-----------------|

Chorus:(Guitar1 & Guitar2)
d|----------------|
a|----------------|
F|----------------|
C|----------------|
G|-5--3--2--8-7-6-|
D|-5--3--2--8-7-6-|
A|-3--1--0--6-5-4-|

Bridge1:(Guitar2)
d|-10-10-10--9-9-9--8-8-8--7-66-6-|
a|-10-10-10--9-9-9--8-8-8--7-66-6-|
F|--------------------------------|
C|--------------------------------|
G|--------------------------------|
D|--------------------------------|
A|--------------------------------|

Verse:(Guitar1)
d|-----------------|
a|-14--12/14\12\10-|
F|-----------------|
C|-----------------|
G|-----------------|
D|-----------------|
A|-----------------|

Chorus:(Guitar1 & Guitar2)
d|----------------|
a|----------------|
F|----------------|
C|----------------|
G|-5--3--2--8-7-6-|
D|-5--3--2--8-7-6-|
A|-3--1--0--6-5-4-|

Bridge1:(Guitar2)
d|-10-10-10--9-9-9--8-8-8--7-66-6-|
a|-10-10-10--9-9-9--8-8-8--7-66-6-|
F|--------------------------------|
C|--------------------------------|
G|--------------------------------|
D|--------------------------------|
A|--------------------------------|

Chorus:(Guitar1 & Guitar2)
d|----------------|
a|----------------|
F|----------------|
C|----------------|
G|-5--3--2--8-7-6-|
D|-5--3--2--8-7-6-|
A|-3--1--0--6-5-4-|

Outro:(Guitar2)
d|-101010101010101099999999888888887777777799999999888888887777777766666666-|
a|-101010101010101099999999888888887777777799999999888888887777777766666666-|
F|--------------------------------------------------------------------------|
C|--------------------------------------------------------------------------|
G|--------------------------------------------------------------------------|
D|--------------------------------------------------------------------------|
A|--------------------------------------------------------------------------|

d|-8888888877777777666666665555555544444444333333332222222211111111-|
a|-8888888877777777666666665555555544444444333333332222222211111111-|
F|------------------------------------------------------------------|
C|------------------------------------------------------------------|
G|------------------------------------------------------------------|
D|------------------------------------------------------------------|
A|------------------------------------------------------------------|

11.A.D.I.D.A.S.

7-string guitar tuned down a full step

Intro-verse
------------------------
------------------------
------------------------
-8^--8^--8---8^--8^---8-
------------------------
--------------------6---
------------------------

Chorus
-------------------------------
-------------------------------
-------------------------------
-------------------------------
-------------------------------
-8----3-----5/6\5-5--5-5/6\5-3-
-6----1-----3/4\3-3--3-3/4\3-3-

Chorus 2
-----------------------------------
-----------------------------------
-----------------------------------
-----------------------------------
-----------------------------------
-2-2-2-2-2-2-2-2--3-3-3-3-3-3-3-3--
-0-0-0-0-0-0-0-0--1-1-1-1-1-1-1-1--

Bridge
----------------------------------
----------------------------------
---9-8---8/9\8----10-9----9-10/12-
-9-----9-------10------10---------
----------------------------------
----------------------------------
----------------------------------

Bridge 2
-------------------
-------------------
-------------------
-------------------
-------------------
-2-2--2-2--2--2-2--
-0-0--0-0--0--0-0--

Outro
-----------23-23-23-
--------------------
--------------------
--------------------
--------------------
--------------------
--------------------

12.Lowrider

d:--11-11-11-11-11-12-14------11-12-11---------
a:-------------------------12----------12------
F:---------------------------------------------
C:---------------------------------------------   repeat twice
G:---------------------------------------------
D:---------------------------------------------
A:---------------------------------------------

d:--------------------------------------------------
a:--10-10-10-10-10-----10-10-10-10-10-----10-12-----
F:--------------------------------------------------
C:--------------------------------------------------
G:--------------------------------------------------
D:--------------------------------------------------
A:--------------------------------------------------

13.Ass Itch

Intro:
|--------------------------------|
|--------------------------------|
|-----14-14-14-14-14-13-13-13-13-|
|--------------------------------|
|-2-2-12-12 12 12 12-11-11-11-11-|
|-0-0----------------------------|

Verse:
|--------------------------------|
|--------------------------------|
|-----14-14-14-14-14-13-13-13-13-|
|--------------------------------|
|-2-2-12-12 12 12 12-11-11-11-11-|
|-0-0----------------------------|

Verse 2:
|--------------|
|--------------|
|--------------|
|-----7-8-9----|
|-----5-6-7----|
|--------------|
Pain!!

Chorus:
|----------------------|
|----------------------|
|-----14-14-14-14-14-14|
|----------------------|
|-2-2-12-12-12-12-12-12|
|-0-0------------------|


Verse:
|--------------------------------|
|--------------------------------|
|-----14-14-14-14-14-13-13-13-13-|
|--------------------------------|
|-2-2-12-12 12 12 12-11-11-11-11-|
|-0-0----------------------------|


Verse 2:
|--------------|
|--------------|
|--------------|
|-----7-8-9----|
|-----5-6-7----|
|--------------|
Pain!!

Chorus:
|----------------------|
|----------------------|
|-----14-14-14-14-14-14|
|----------------------|
|-2-2-12-12-12-12-12-12|
|-0-0------------------|


Interlude:
|----17-----------17--------|
|-------16-15---------16-15-|
|-14-----------14-----------|
|---------------------------|
|---------------------------|
|---------------------------|

Bridge:
|------------------|
|------------------|
|------------------|
|-2x-x-1-x-1-x-2-1-|
|-2x-x-1-x-1-x-2-1-|
|-2x-x-1-x-1-x-2-1-|
   just set me free
 
|--------------------------------|
|--------------------------------|
|-----14-14-14-14-14-13-13-13-13-|
|--------------------------------|
|-2-2-12-12 12 12 12-11-11-11-11-|
|-0-0----------------------------|

Chorus:
|----------------------|
|----------------------|
|-----14-14-14-14-14-14|
|----------------------|
|-2-2-12-12-12-12-12-12|
|-0-0------------------|

Outro:
|------------------|
|------------------|
|------------------|
|-2x-x-1-x-1-x-2-1-|
|-2x-x-1-x-1-x-2-1-|
|-2x-x-1-x-1-x-2-1-|

14.Kill You

intro/Verse clean
 
d|---------------------------------------
a|---------------------------------------
f|---------------------------------------  
c|-------0-0-0-----------0-0-0----------- 
g|-5-5-5------5-5--5-5-5------5-5--5-5-5-
d|---------------------------------------
A|---------------------------------------



d|---------------------------------------
a|---------------------------------------
f|-------------000-----------------------  
c|-------0-0-0----0-0-0------------------ 
g|-4-4-4---------------4-4-4-------------
d|---------------------------------------
A|---------------------------------------

Pre chorus 
One plays this with distortion
d|---------------------------------------
a|---------------------------------------
f|---------------------------------------  
c|--------------------------------------- 
g|----4~~~~3~~~~6-2----4~~~~3~~~~6-2-----
d|----4~~~~3~~~~6-2----4~~~~3~~~~6-2-----
A|----2~~~~1~~~~4-0----4~~~~3~~~~6-2-----

Other guitar clean
d|---------------------------------------
a|---------------------------------------
f|--------------------------0-0-0--------  
c|-----------0-0------0-0-0-------------- 
g|-----4-4-4----4-4-4--------------------
d|---------------------------------------
A|---------------------------------------


Chorus distortion
d|---------------------------------------
a|---------------------------------------
f|---------------------------------------  
c|--------------------------------------- 
g|--3--4-7-23-6-----3--4-7-23-6----------
d|--3--4-7-23-6-----3--4-7-23-6----------
A|--1--2-5-01-4-----1--2-5-01-4----------

Verse2 Distortion
d|----------------1413--
a|--------1312----------
f|---------------------  
c|--------------------- repeated
g|-x-x-x-x---x-x-x-----
d|-x-x-x-x---x-x-x-----
A|-x-x-x-x---x-x-x------
comments
We did not receive enough feedback on this tab! Please rate:
print report bad tab
1 2 3 4 5
I want to post or [tab]
guest
You may want to rate the tab now too:
select rating
Please do not post tabs as comments. Select "correction" instead!