Oops, an error
Loading. Please wait.

Rares Tab

by Korn
2,039 views 1 this week
2 commentsread comments
1 2 3 4 5
accurate
x 5
Autoscroll
+/-
esc
set tempo
stop
Contributor
Hey! There's an official Ultimate Guitar app which is ideal
for learning songs when you're away from computer. Get the app
WARNING: You are trying to view
                                    content from Ultimate-Guitar.com
                                    in an unauthorized application,
                                    which is prohibited.

                                    Please use an official Ultimate
                                    Guitar Tabs application for iPhone,
                                    iPad or Android to access legitimate
                                    chords, guitar, bass, and drum tabs
                                    from Ultimate-Guitar.com database.

                                    Type "ultimate guitar tabs" in Apple
                                    App Store's or Android Market's
                                    search to find the application.
Korn - Rares (Album)
___________________________________________________



KoRn - Alive

Tabbed by Elvisz (elvisz@kornkids.com)
Tuning : 7 String Tuned Low to High (A D G C F a d)

Intro:
d|---------------------------------|
a|---------------------------------|
F|---------------------------------|
C|---------------------------------|	(Guitar2)
G|---------------------------------|
D|-0-2-2-2-3-2-2-2-3-2-2-2-5-5-3-3-|
A|---------------------------------|

d|-------------------------------|
a|-8----//11-7-----8---//11-7--3-|
F|-------------------------------|
C|-------------------------------|	(Guitar1)
G|-------------------------------|
D|-------------------------------|
A|-------------------------------|

Verse:
d|-------------------------------|
a|-8----//11-7-----8---//11-7--3-|
F|-------------------------------|
C|-------------------------------|	(Guitar1 with effect)
G|-------------------------------|
D|-------------------------------|
A|-------------------------------|

d|---------------|
a|---------------|
F|---------------|
C|---------------|	(Guitar2)
G|---------------|
D|-4-4-5-5-7-7///|
A|-2-2-3-3-5-5///|

Pre-Chorus:(Guitar1 & Guitar2)
d|---------------------------------|
a|---------------------------------|
F|---------------------------------|
C|---------------------------------|
G|-2-4-4-4-5-4-4-4-5-4-4-4-7-7-5-5-|
D|-0-2-2-2-3-2-2-2-3-2-2-2-5-5-3-3-|
A|---------------------------------|

Verse:
d|-------------------------------|
a|-8----//11-7-----8---//11-7--3-|
F|-------------------------------|
C|-------------------------------|	(Guitar1 with effect)
G|-------------------------------|
D|-------------------------------|
A|-------------------------------|

d|---------------|
a|---------------|
F|---------------|
C|---------------|	(Guitar2)
G|---------------|
D|-4-4-5-5-7-7///|
A|-2-2-3-3-5-5///|

Pre-Chorus:(Guitar1 & Guitar2)
d|---------------------------------|
a|---------------------------------|
F|---------------------------------|
C|---------------------------------|
G|-2-4-4-4-5-4-4-4-5-4-4-4-7-7-5-5-|
D|-0-2-2-2-3-2-2-2-3-2-2-2-5-5-3-3-|
A|---------------------------------|

Chorus:(Guitar2)
d|--------------------|--------------------|--------------------|
a|--------------------|--------------------|--------------------|
F|--------------------|--------------------|--------------------|
C|--------------------|--------------------|--------------------|
G|-2------3--5-4----3-|-2------------5-4-3-|-2-------1-2-5-4--3-|
D|-0----2-1--3-2----1-|-0------------3-2-1-|-0-321-0-----3-2--1-|
A|------0-------------|--------------------|--------------------|

Bridge1:(Guitar2)
d|-----------------------|
a|-----------------------|
F|-----------------------|
C|-----------------------|
G|-2--4--5--4--5-444-7-5-|
D|-0--2--3--2--3-222-5-3-|
A|-----------------------|
   .  .  .  .  . ... . .   .Palm Mute

Bridge2:
d|-------------------------------|
a|-8----//11-7-----8---//11-7--3-|
F|-------------------------------|
C|-------------------------------|	(Guitar1)
G|-------------------------------|
D|-------------------------------|
A|-------------------------------|

d|---------------------------------|
a|---------------------------------|
F|---------------------------------|
C|---------------------------------|	(Guitar2)
G|-2-4-4-4-5-4-4-4-5-4-4-4-7-7-5-5-|
D|-0-2-2-2-3-2-2-2-3-2-2-2-5-5-3-3-|
A|---------------------------------|

Verse:
d|---------------|
a|---------------|
F|---------------|
C|---------------|	(Guitar2)
G|---------------|
D|-4-4-5-5-7-7///|
A|-2-2-3-3-5-5///|

Fill1:(Guitar2)
d|---------|
a|---------|
F|---------|
C|---5---4-|
G|---------|
D|-0-3-0-2-|
A|---------|

Fill2:(Guitar2)
d|---------|
a|---------|
F|---------|
C|---------|
G|---5---4-|
D|---5---4-|
A|-0-3-0-2-|

Chorus:(Guitar2)
d|--------------------|
a|--------------------|
F|--------------------|
C|--------------------|
G|-2------3--5-4----3-|
D|-0----2-1--3-2----1-|
A|------0-------------|

Outro:
d|---------------------------------|
a|---------------------------------|
F|---------------------------------|
C|---------------------------------|	(Guitar2)
G|-2-4-4-4-5-4-4-4-5-4-4-4-7-7-5-5-|
D|-0-2-2-2-3-2-2-2-3-2-2-2-5-5-3-3-|
A|---------------------------------|

KoRn - Lodi Dodi 

Tabbed by Elvisz (elvisz@kornkids.com)
Tuning : 7 String Tuned Low to High (A D G C F a d)

Intro:
d|-/19^---/18^--/17^-------------------------|
a|-------------------13-13-13-13-13-13-13-13-|
F|-------------------------------------------|
C|-------------------------------------------|	(Guitar1)
G|-------------------------------------------|
D|-------------------------------------------|
A|-------------------------------------------|

Chorus:(Guitar1 & Guitar2)
d|-------------------------|--------------------------|
a|-------------------------|--------------------------|
f|-------------------------|------------------10-9----|
c|------7\6-------7\6------|------7\6---------10-9----|
g|-8\7--7\6--8\7--7\6--8\7-|-8\7--7\6--8\7-xx-8--7----|
D|-8\7--5\4--8\7--5\4--8\7-|-8\7--5\4--8\7-xx------xx-|
A|-6\5-------6\5-------6\5-|-6\5-------6\5-xx------00-|

KoRn - It Takes Two

Tabbed by Elvisz (elvisz@kornkids.com)
Tuning : 7 String Tuned Low to High (A D G C F a d)

d|------------------------|
a|-21^----------------21^-|
F|------------------------|
C|------------------------|	(Guitar1 with effect)
G|------------------------|
D|------------------------|
A|------------------------|

d|------------------------|
a|------------------------|
F|-------19----19---------|
C|----------21----21------|	(Guitar2)
G|------------------------|
D|------------------------|
A|------------------------|

KoRn - Sean Olsen

Tabbed by Elvisz (elvisz@kornkids.com)
Tuning : 7 String Tuned Low to High (A D G C F a d)

Intro:(Guitar1)
d|-0-0-00-0-000-0-0-0-0-00-0-000-0-0-|
a|-5-5-55-5-555-6-6-4-4-44-4-444-0-0-|
F|-----------------------------------|
C|-----------------------------------|
G|-----------------------------------|
D|-----------------------------------|
A|-----------------------------------|

Verse:(Guitar1 & Guitar2)
d|-------------------------|----------------------------|
a|-------------------------|----------------------------|
F|-------------------------|----------------------------|
C|-------------------------|----------------------------|
G|-----9-----9-----9------9|-----9-----9-----9-----9-10-|
D|-----8-----8-----8------8|-----8-----8-----8-----8-10-|
A|-0-0---0-0---0-0---0-0-0-|-0-0---0-0---0-0---0-0----8-|

Pre-Chorus:(Guitar1)
d|-0-0-00-0-000-0-0-0-0-00-0-000-0-0-|
a|-5-5-55-5-555-6-6-4-4-44-4-444-0-0-|
F|-----------------------------------|
C|-----------------------------------|
G|-----------------------------------|
D|-----------------------------------|
A|-----------------------------------|

Verse:(Guitar1 & Guitar2)
d|-------------------------|----------------------------|
a|-------------------------|----------------------------|
F|-------------------------|----------------------------|
C|-------------------------|----------------------------|
G|-----9-----9-----9------9|-----9-----9-----9-----9-10-|
D|-----8-----8-----8------8|-----8-----8-----8-----8-10-|
A|-0-0---0-0---0-0---0-0-0-|-0-0---0-0---0-0---0-0----8-|

Chorus:(Guitar1 & Guitar2)
d|--------------------|
a|--------------------|
F|--------------------|
C|--------------------|
G|-4--5--2---22-3/4-2-|
D|-4--5--2---22-3/4-2-|
A|-2--3--0---00-1/2-0-|

Bridge1:
d|--------------------------------------|
a|--------------------------------------|
F|--------------------------------------|
C|--------------------------------------|	(Guitar2)
G|--------------------------------------|
D|-5\4-5\4-5\4-5\4\3--4\3-4\3-4\3-4\3\2-|
A|-3\2-3\2-3\2-3\2\1--2\1-2\1-2\1-2\1`0-|

d|-00000000000000000000-|
a|-55555555664444444400-|
F|----------------------|
C|----------------------|	(Guitar1)
G|----------------------|
D|----------------------|
A|----------------------|

Verse:(Guitar1 & Guitar2)
d|-------------------------|----------------------------|
a|-------------------------|----------------------------|
F|-------------------------|----------------------------|
C|-------------------------|----------------------------|
G|-----9-----9-----9------9|-----9-----9-----9-----9-10-|
D|-----8-----8-----8------8|-----8-----8-----8-----8-10-|
A|-0-0---0-0---0-0---0-0-0-|-0-0---0-0---0-0---0-0----8-|

Pre-Chorus:(Guitar1)
d|-0-0-00-0-000-0-0-0-0-00-0-000-0-0-|
a|-5-5-55-5-555-6-6-4-4-44-4-444-0-0-|
F|-----------------------------------|
C|-----------------------------------|
G|-----------------------------------|
D|-----------------------------------|
A|-----------------------------------|

Chorus:(Guitar1 & Guitar2)
d|--------------------|
a|--------------------|
F|--------------------|
C|--------------------|
G|-4--5--2---22-3/4-2-|
D|-4--5--2---22-3/4-2-|
A|-2--3--0---00-1/2-0-|

Bridge2:
d|--------------------------------------|
a|--------------------------------------|
F|--------------------------------------|
C|--------------------------------------|	(Guitar2)
G|--------------------------------------|
D|-5\4-5\4-5\4-5\4\3--4\3-4\3-4\3-4\3\2-|
A|-3\2-3\2-3\2-3\2\1--2\1-2\1-2\1-2\1`0-|

d|----------------------|
a|----------------------|
F|-00000000000000000000-|
C|-55555555664444444400-|	(Guitar1)
G|----------------------|
D|----------------------|
A|----------------------|

Fill1:(Guitar2)
d|--------------------------------------|
a|--------------------------------------|
F|--------------------------------------|
C|--------------------------------------|
G|--------------------------------------|
D|-5\4-5\4-5\4-5\4\3--4\3-4\3-4\3-4\3\2-|
A|-3\2-3\2-3\2-3\2\1--2\1-2\1-2\1-2\1`0-|

Outro:(Guitar1 & Guitar2)
d|--------------------------------------|
a|--------------------------------------|
F|--------------------------------------|
C|--------------------------------------|
G|--------------------------------------|
D|-5\4-5\4-5\4-5\4\3--4\3-4\3-4\3-4\3\2-|
A|-3\2-3\2-3\2-3\2\1--2\1-2\1-2\1-2\1`0-|

KoRn - You Mean I'm Not

Tabbed by Elvisz (elvisz@kornkids.com)
Tuning : 7 String Tuned Low to High (A D G C F a d)

Intro:(Guitar1)
d|------8^-----9^-|
a|----------------|
F|----------------|
C|----------------|
G|----------------|
D|-7-6-----7-6----|
A|-5-4-----5-4----|

KoRn - Layla

Tabbed by Elvisz (elvisz@kornkids.com)
Tuning : 7 String Tuned Low to High (A D G C F a d)

Intro:(Guitar1 & Guitar2)
d|----------0-----------0--|
a|----------5^----------9^-|
F|-------------------------|
C|-------------------------|
G|-------------------------|
D|-2-2-2-2------2-2-2-2----|
A|-0-0-0-0------0-0-0-0----|
   . . . .      . . . .     .Palm Mute

Pre-Verse:(Guitar1  & Guitar2)
d|----------------|
a|----------------|
F|----------------|
C|----------------|
G|----------------|
D|-22222-2222-222-|
A|-00000-0000-000-|

Fill1:(Guitar1  & Guitar2)
d|----------------|
a|----------------|
F|----------------|
C|----------------|
G|----------------|
D|-22222-2222-543-|
A|-00000-0000-321-|

Verse:
d|------16^|
a|-19^-----|
F|---------|
C|---------|	(Guitar1 with effect)
G|---------|
D|---------|
A|---------|

d|----------------|----------------|
a|----------------|----------------|
F|----------------|----------------|
C|----------------|----------------|	(Guitar2)
G|----------------|----------------|
D|----------------|----------------|
A|-00000-0000-000-|-00000-0000-321-|

Chorus:(Guitar1 & Guitar2)
d|----------------|----------------|
a|----------------|----------------|
F|----------------|----------------|
C|----------------|----------------|
G|----------------|----------------|
D|-22222-2222-222-|-22222-2222-543-|
A|-00000-0000-000-|-00000-0000-321-|

Verse:
d|------16^|
a|-19^-----|
F|---------|
C|---------|	(Guitar1 with effect)
G|---------|
D|---------|
A|---------|

d|----------------|----------------|
a|----------------|----------------|
F|----------------|----------------|
C|----------------|----------------|	(Guitar2)
G|----------------|----------------|
D|----------------|----------------|
A|-00000-0000-000-|-00000-0000-321-|

Chorus:(Guitar1 & Guitar2)
d|----------------|----------------|
a|----------------|----------------|
F|----------------|----------------|
C|----------------|----------------|
G|----------------|----------------|
D|-22222-2222-222-|-22222-2222-543-|
A|-00000-0000-000-|-00000-0000-321-|

Bridge1:(Guitar1 & Guitar2)
d|-----------------|
a|-----------------|
F|-----------------|
C|-----------------|
G|-3\22--32--22232-|
D|-3\22--32--22232-|
A|-1`00--10--00010-|

Verse:
d|------16^|
a|-19^-----|
F|---------|
C|---------|	(Guitar1 with effect)
G|---------|
D|---------|
A|---------|

d|----------------|----------------|
a|----------------|----------------|
F|----------------|----------------|
C|----------------|----------------|	(Guitar2)
G|----------------|----------------|
D|----------------|----------------|
A|-00000-0000-000-|-00000-0000-321-|

Chorus:(Guitar1 & Guitar2)
d|----------------|----------------|
a|----------------|----------------|
F|----------------|----------------|
C|----------------|----------------|
G|----------------|----------------|
D|-22222-2222-222-|-22222-2222-543-|
A|-00000-0000-000-|-00000-0000-321-|

Bridge1:(Guitar1 & Guitar2)
d|-----------------|
a|-----------------|
F|-----------------|
C|-----------------|
G|-3\22--32--22232-|
D|-3\22--32--22232-|
A|-1`00--10--00010-|

Bridge2:(Guitar1 & Guitar2)
d|--------|--------------|
a|--------|--------------|
F|--------|--------------|
C|------4-|------4--4--3-|
G|-2-22-2-|-2-22-2--4--3-|
D|-2-22-0-|-2-22-0--2--1-|
A|-0-00---|-0-00---------|

Bridge3:(Guitar1 & Guitar2)
d|----------0-----------0--|
a|----------5^----------9^-|
F|-------------------------|
C|-------------------------|
G|-------------------------|
D|-2-2-2-2------2-2-2-2----|
A|-0-0-0-0------0-0-0-0----|
   . . . .      . . . .     .Palm Mute

Chorus:(Guitar1 & Guitar2)
d|----------------|----------------|
a|----------------|----------------|
F|----------------|----------------|
C|----------------|----------------|
G|----------------|----------------|
D|-22222-2222-222-|-22222-2222-543-|
A|-00000-0000-000-|-00000-0000-321-|

KoRn - Kick The P.A.

Tabbed by Elvisz (elvisz@kornkids.com)
Tuning : 7 String Tuned Low to High (A D G C F a d)

Intro:
d|-17-|
a|-18-|
F|----|
C|----|	(Guitar1)
G|----|
D|----|
A|----|

Pre-Chorus:(Guitar1 & Guitar2)
d|--------------------------|
a|--------------------------|
F|--------------------------|
C|--------------------------|
G|-5\4\3/4--5\4\3/4--5\4\32-|
D|-5\4\3/4--5\4\3/4--5\4\32-|
A|-3\2\1/2--3\2\1/2--3\2\10-|

Verse:(Guitar1 with effect)
d|-19-21^-20-19-20/12-14-|
a|-----------------------|
F|-----------------------|
C|-----------------------|
G|-----------------------|
D|-----------------------|
A|-----------------------|

Pre-Chorus:(Guitar1 & Guitar2)
d|--------------------------|
a|--------------------------|
F|--------------------------|
C|--------------------------|
G|-5\4\3/4--5\4\3/4--5\4\32-|
D|-5\4\3/4--5\4\3/4--5\4\32-|
A|-3\2\1/2--3\2\1/2--3\2\10-|

Verse:(Guitar1 with effect)
d|-19-21^-20-19-20/12-14-|
a|-----------------------|
F|-----------------------|
C|-----------------------|
G|-----------------------|
D|-----------------------|
A|-----------------------|

Pre-Chorus:(Guitar1 & Guitar2)
d|--------------------------|
a|--------------------------|
F|--------------------------|
C|--------------------------|
G|-5\4\3/4--5\4\3/4--5\4\32-|
D|-5\4\3/4--5\4\3/4--5\4\32-|
A|-3\2\1/2--3\2\1/2--3\2\10-|

Chorus:(Guitar1 & Guitar2)
d|----------------|
a|----------------|
F|----------------|
C|----------------|
G|-6--5--3--4-3-2-|
D|-6--5--3--4-3-2-|
A|-4--3--1--2-1-0-|

Pre-Chorus:(Guitar1 & Guitar2)
d|--------------------------|
a|--------------------------|
F|--------------------------|
C|--------------------------|
G|-5\4\3/4--5\4\3/4--5\4\32-|
D|-5\4\3/4--5\4\3/4--5\4\32-|
A|-3\2\1/2--3\2\1/2--3\2\10-|

KoRn - Xmas Song

Tabbed by Elvisz (elvisz@kornkids.com)
Tuning : 7 String Tuned Low to High (A D G C F a d)

Intro:(Guitar2 playes this all time)
d|-------------|
a|-------------|
F|-------------|
C|-------------|
G|-------------|
D|-----8-----8-|
A|-0-0---0-0---|

(Guitar1)
d|-------|
a|-------|
F|-9-8---|
C|-----6-|
G|-------|
D|-------|
A|-------|

d|-------|
a|-----9-|
F|---9---|
C|-7-----|
G|-------|
D|-------|
A|-------|

d|-----|
a|-8---|
F|---8-|
C|-----|
G|-----|
D|-----|
A|-----|

d|--------------------------------|
a|--------------------------------|
F|-10--9--8--7--6--10--9--8--9--6-|
C|--------------------------------|
G|--------------------------------|
D|--------------------------------|
A|--------------------------------|

d|-------|
a|-21----|
F|----22-|
C|-------|
G|-------|
D|-------|
A|-------|

Chorus:(Guitar1 & Guitar2, faster and faster)
d|--------------|
a|--------------|
F|--------------|
C|--------------|
G|-5-55-55-6666-|
D|-5-55-55-6666-|
A|-3-33-33-4444-|

KoRn - Proud

Tabbed by Elvisz (elvisz@kornkids.com)
Tuning : 7 String Tuned Low to High (A D G C F a d)

Intro:(Guitar1 & Guitar2)
d|---------------------------|
a|---------------------------|
F|---------------------------|
C|-10-X-10-X-10-X-10-X-10-10-|
G|-9--X-9--X-9--X-9--X-9--9--|
D|-8--X-8--X-8--X-8--X-8--8--|
A|-7--X-7--X-7--X-7--X-7--7--|

Pre-Verse:(Guitar1 & Guitar2)
d|-------|
a|-0-0-0-|
F|-3-0-6-|
C|-------|
G|-------|
D|-------|
A|-------|

Verse:(Guitar1 & Guitar2)
d|---------------------------|
a|---------------------------|
F|---------------------------|
C|-10-X-10-X-10-X-10-X-10-10-|
G|-9--X-9--X-9--X-9--X-9--9--|
D|-8--X-8--X-8--X-8--X-8--8--|
A|-7--X-7--X-7--X-7--X-7--7--|

Chorus:
d|----------|-----------|
a|-0--0---0-|-0--0--0-0-|
F|-13-12--9-|-13-12-9-7-|
C|----------|-----------|	(Guitar1)
G|----------|-----------|
D|----------|-----------|
A|----------|-----------|

d|--------|------------------|
a|-0-0----|-0-0--------------|
F|-1-0----|-1-0--------------|
C|------2-|-----3--2h3-X-3-0-|	(Guitar2)
G|--------|-----3--2h3-X-3-0-|
D|--------|------------------|
A|--------|------------------|

Pre-Verse:(Guitar1 & Guitar2)
d|-------|
a|-0-0-0-|
F|-3-0-6-|
C|-------|
G|-------|
D|-------|
A|-------|

Verse:(Guitar1 & Guitar2)
d|---------------------------|
a|---------------------------|
F|---------------------------|
C|-10-X-10-X-10-X-10-X-10-10-|
G|-9--X-9--X-9--X-9--X-9--9--|
D|-8--X-8--X-8--X-8--X-8--8--|
A|-7--X-7--X-7--X-7--X-7--7--|

Chorus:
d|----------|-----------|
a|-0--0---0-|-0--0--0-0-|
F|-13-12--9-|-13-12-9-7-|
C|----------|-----------|	(Guitar1)
G|----------|-----------|
D|----------|-----------|
A|----------|-----------|

d|--------|------------------|
a|-0-0----|-0-0--------------|
F|-1-0----|-1-0--------------|
C|------2-|-----3--2h3-X-3-0-|	(Guitar2)
G|--------|-----3--2h3-X-3-0-|
D|--------|------------------|
A|--------|------------------|

Bridge1:
d|-----------|
a|-0--0-0--0-|
F|-4--5-8--7-|
C|-----------|	(Guitar1)
G|-----------|
D|-----------|
A|-----------|

d|-----------|
a|-----------|
F|-----------|
C|-----------|	(Guitar2)
G|-----------|
D|-2--3-6--5-|
A|-----------|

Bridge2:
d|-------------------------------|
a|-------------------------------|
F|-------------------------------|
C|-------------------------------|	(Guitar2)
G|-3\2-22-3\2-22--3333-6666-5555-|
D|-3\2-22-3\2-22--3333-6666-5555-|
A|-------------------------------|

d|-----------|
a|-0--0-0--0-|
F|-4--5-8--7-|
C|-----------|	(Guitar1)
G|-----------|
D|-----------|
A|-----------|

Bridge3:(Guitar1 & Guitar2)
d|---------------------|
a|---------------------|
F|---------------------|
C|---------------------|
G|-9-X-8-X-8-X-8-X-8-8-|
D|-7-X-7-X-7-X-7-X-7-7-|
A|---------------------|

Verse:(Guitar1 & Guitar2)
d|---------------------------|
a|---------------------------|
F|---------------------------|
C|-10-X-10-X-10-X-10-X-10-10-|
G|-9--X-9--X-9--X-9--X-9--9--|
D|-8--X-8--X-8--X-8--X-8--8--|
A|-7--X-7--X-7--X-7--X-7--7--|

Chorus:
d|----------|-----------|
a|-0--0---0-|-0--0--0-0-|
F|-13-12--9-|-13-12-9-7-|
C|----------|-----------|	(Guitar1)
G|----------|-----------|
D|----------|-----------|
A|----------|-----------|

d|--------|------------------|
a|-0-0----|-0-0--------------|
F|-1-0----|-1-0--------------|
C|------2-|-----3--2h3-X-3-0-|	(Guitar2)
G|--------|-----3--2h3-X-3-0-|
D|--------|------------------|
A|--------|------------------|

Outro:(Guitar1)
d|---------------------------------------|
a|-11--8----5----10--7----4----9--7----14|
F|---------------------------------------|
C|-9---6----3----8---5----2----7--4----12|
G|-------------------------------------0-|
D|---------------------------------------|
A|---------------------------------------|

KoRn - Camel Song

Tabbed by Elvisz (elvisz@kornkids.com)
Tuning : 7 String Tuned Low to High (A D G C F a d)

Intro:(Guitar1)
d|----------------------------------77/8\7----------------------------------------|
a|-7/8\77-7/8\77-7/8\7-7/8\77-7/8\7--------7/8\77-7/8\77-7/8\7-7/8\77-7/8\7-------|
F|--------------------------------------------------------------------------44/5\4|
C|--------------------------------------------------------------------------------|
G|--------------------------------------------------------------------------------|
D|--------------------------------------------------------------------------------|
A|--------------------------------------------------------------------------------|

(Guitar2)
d|--------------------|
a|--------------0-0-0-|
F|-1////13-12-5-3/4\3-|
C|--------------------|
G|--------------------|
D|--------------------|
A|--------------------|

Fill1:(Guitar1)
d|----|
a|-0~~|
F|-3^~|
C|----|
G|----|
D|----|
A|----|

Verse:
(Guitar1)
d|----------------------------------77/8\7----------------------------------------|
a|-7/8\77-7/8\77-7/8\7-7/8\77-7/8\7--------7/8\77-7/8\77-7/8\7-7/8\77-7/8\7-------|
F|--------------------------------------------------------------------------44/5\4|
C|--------------------------------------------------------------------------------|
G|--------------------------------------------------------------------------------|
D|--------------------------------------------------------------------------------|
A|--------------------------------------------------------------------------------|

(Guitar2)
d|--------------------|
a|--------------0-0-0-|
F|-1////13-12-5-3/4\3-|
C|--------------------|
G|--------------------|
D|--------------------|
A|--------------------|

Chorus:(Guitar1)
d|-----------|
a|-----------|
F|-----------|
C|-----------|
G|-2-22--4\3-|
D|-2-22--4\3-|
A|-0-00--2\1-|

Verse:
(Guitar1)
d|----------------------------------77/8\7----------------------------------------|
a|-7/8\77-7/8\77-7/8\7-7/8\77-7/8\7--------7/8\77-7/8\77-7/8\7-7/8\77-7/8\7-------|
F|--------------------------------------------------------------------------44/5\4|
C|--------------------------------------------------------------------------------|
G|--------------------------------------------------------------------------------|
D|--------------------------------------------------------------------------------|
A|--------------------------------------------------------------------------------|

(Guitar2)
d|--------------------|
a|--------------0-0-0-|
F|-1////13-12-5-3/4\3-|
C|--------------------|
G|--------------------|
D|--------------------|
A|--------------------|

Fill1:(Guitar1)
d|----|
a|-0~~|
F|-3^~|
C|----|
G|----|
D|----|
A|----|

Chorus:(Guitar1)
d|-----------|
a|-----------|
F|-----------|
C|-----------|
G|-2-22--4\3-|
D|-2-22--4\3-|
A|-0-00--2\1-|

Bridge1:(Guitar1)
d|----------------------------------77/8\7-|
a|-7/8\77-7/8\77-7/8\7-7/8\77-7/8\7--------|
F|-----------------------------------------|
C|-----------------------------------------|
G|-----------------------------------------|
D|-----------------------------------------|
A|-----------------------------------------|

Bridge2:
d|-----------|
a|-----------|
F|-----------|
C|-----------|	(Guitar1)
G|-9-X-9--9--|
D|-9-X-9--9--|
A|-7-X-7--7--|

Chorus:(Guitar1)
d|-----------|
a|-----------|
F|-----------|
C|-----------|
G|-2-22--4\3-|
D|-2-22--4\3-|
A|-0-00--2\1-|

Outro:(Guitar1)
d|------8--------|---------|
a|-7//8---88\7-7-|7/8--8\7-|
F|---------------|---------|
C|---------------|---------|
G|---------------|---------|
D|---------------|---------|
A|---------------|---------|
comments
print report bad tab
2 comments total.
0 reply
tiftcte wrote on February 29 2004, 12:00 am

alive is on an album

0 reply
Mega-Tallica wrote on September 6 2007, 09:30 pm

I think the Alive that is on here is the original version, not the one on TALITM.

I want to post or [tab]
guest
You may want to rate the tab now too:
select rating
Please do not post tabs as comments. Select "correction" instead!