Oops, an error
Loading. Please wait.

Remember Who You Are Tab

by Korn
3,145 views 6 this week
no commentswrite comment
1 2 3 4 5
excellent!
x 3
add to favorites launch autoscroll
font size
0
reset
Autoscroll
+/-
esc
set tempo
stop
Contributor
WARNING: You are trying to view
                                    content from Ultimate-Guitar.com
                                    in an unauthorized application,
                                    which is prohibited.

                                    Please use an official Ultimate
                                    Guitar Tabs application for iPhone,
                                    iPad or Android to access legitimate
                                    chords, guitar, bass, and drum tabs
                                    from Ultimate-Guitar.com database.

                                    Type "ultimate guitar tabs" in Apple
                                    App Store's or Android Market's
                                    search to find the application.
ARTIST: Korn
ALBUM: Korn III: Remember Who You Are
YEAR: 2010

----------------------------------------------------------

Track Listing:

01. Uber-Time.......................................Elvisz
02. Oildale (Leave Me Alone)........................Elvisz
03. Pop A Pill..............................FRr3AkOnALEaSh
04. Fear Is A Place To Live.................FRr3AkOnALEaSh
05. Move On.................................FRr3AkOnALEaSh 
06. Lead The Parade.........................FRr3AkOnALEaSh
07. Let The Guilt Go........................FRr3AkOnALEaSh
08. The Past................................FRr3AkOnALEaSh
09. Never Around............................FRr3AkOnALEash
10. Are You Ready To Live?..................FRr3AkOnALEaSh
11. Holding All These Lies..................FRr3AkOnALEaSh
12. Trapped Underneath The Stairs...........FRr3AkOnALEaSh
13. People Pleaser..........................FRr3AkOnALEaSh

----------------------------------------------------------

1. Uber-Time

Tuning: 7 String Tuned Low to High (A D G C F a d)

Vocal: Jonathan Houseman Davis 'Hiv'
Guitar: James Randal Shaffer 'Munky'
Bass: Reginald Arvizu 'Fieldy
Drums: Ray Luzier

Riff 1 (Guitar 1)
D|--------------------------------|
A|---------12~~-------------------|
F|-----------------------11~12r11-|
C|-----14-------------12----------|
G|--------------------------------|
D|-12~(12)~(12)---10~(10)~~(10)~~-| 
A|--------------------------------|
    .              .               PM

Riff 2 (Guitar 1)
D|--------------------------------|
A|---------12~~----------^^-------| 
F|-----------------------11~12r11-|
C|-----14-------------12----------|
G|--------------------------------|
D|-12~(12)~(12)---10~(10)~~(10)~~-|
A|--------------------------------|
    .              .               PM

Riff 3 (Guitar 1)
D|--------------------------------|
A|---------12~~-------------------|
F|-----------------------11~12----|
C|-----14-------------12----------|
G|--------------------------------|
D|-12~(12)~(12)---10~(10)~~(10)~~-| 
A|--------------------------------|
    .              .               PM

Riff 4 (Guitar 1)
D|-----------------------------------|
A|--------12----12-------------------|
F|-------------------------11~12-----|
C|-----14----14---------12-----------|
G|-----------------------------------|
D|-12~(12)~(12)------10~(10)~~(10)~~-| 
A|-----------------------------------|
    .              .                  PM

Riff 5 (Guitar 1)
D|---------------------------------|
A|----8~9~~11~12------9~9~8~12~12~-|
F|---------------------------------|
C|---------------------------------|
G|---------------------------------|
D|-7~~(7)~~(7)~~~---7~~(7)~~(7)~~~-|  
A|---------------------------------|
   .                .               PM

Riff 6 (Guitar 2)
D|-----------------------------------------|
A|-12~~12~~---14~~-14~~--16~~-16~~-14~-16~-|
F|-----------------------------------------|
C|-----------------------------------------|
G|-----------------------------------------|
D|-----------------------------------------|
A|-----------------------------------------|

---------------------------------------------------------------

2. Oildale (Leave Me Alone)

Tuning : 7 String Tuned Low to High (A D G C F a d)

Vocal: Jonathan Houseman Davis
Guitar: James Randal Shaffer 'Munky'
Bass: Reginald Arvizu 'Fieldy'
Drums: Ray Luzier

Riff 1 (Intro/Chorus)
D|---------------------------------------|
A|---------------------------------------|
F|---------------------------------------|
C|---------------------------------------|
G|---------------------------------------|
D|---------------------------------------|
A|-0h33-3[3]--0h33-3[3]--0h33-3[3]--43-1-|

Riff 2 (Intro/Chorus)
D|--------------------------------------------|
A|--------------------------------------------|
F|--------------------------------------------|
C|--------------------------------------------|
G|--------------------------------------------|
D|--------------------------------------------|
A|-3h66-6[6]--3h66-6[6]--3h55-5[5]--3h55-5[5]-|

Riff 3 (Verse)(Guitar 1)
d|------------------------------|
a|------------------------------|
F|------------------------------|
C|------------------------------|
G|------------------------------|
D|-5~~~~~~~~~~~~~-3~~~~~~~~~~~~-|
A|------------------------------|

Riff 4 (Verse)(Guitar 2)
d|------------------------------|
a|------------------------------|
F|------------------------------|
C|-12~~~~~~~~~~~~~~~~~~~~~~~~~~-|
G|------------------------------|
D|------------------------------|
A|------------------------------|

Riff 5 (Verse)(Guitar 1)
d|------------------------------|
a|------------------------------|
F|------------------------------|
C|------------------------------|
G|------------------------------|
D|-5~~~~~~~~~~~~~-3~~~~~~~~~~~~-|
A|------------------------------|

Riff 6 (Verse)(Guitar 2)
d|------------------------------|
a|----------------15~~~~~~~~~~~-|
F|------------------------------|
C|-12~~~~~~~~~~~~~--------------|
G|------------------------------|
D|------------------------------|
A|------------------------------|

Riff 7 (Verse)(Guitar 1)
d|------------------------------|
a|------------------------------|
F|------------------------------|
C|------------------------------|
G|------------------------------|
D|-5~~~~~~~~~~~~~-3~~~~~~~~~~~~-|
A|------------------------------|

Riff 8 (Verse)(Guitar 2)
d|------------------------------|
a|-17~~~~~~~~~\\15~~~~~~~~~~~~~-|
F|------------------------------|
C|------------------------------|
G|------------------------------|
D|------------------------------|
A|------------------------------|

Riff 9 (Verse)(Guitar 1)
d|----------------|
a|----------------|
F|----------------|
C|----------------|
G|----------------|
D|-5~~~~~~~~~~~~~-|
A|----------------|

Riff 10 (Verse)(Guitar 2)
d|----------------|
a|----------------|
F|----------------|
C|-12~~~~~~~~~~~~-|
G|----------------|
D|----------------|
A|----------------|

Riff 11 (Pre-Chorus/Fill)
d|-------------------------------------------------|
a|-------------------------------------------------|
F|-------------------------------------------------|
C|-------------------------------------------------|
G|-------------------------------------------------|
D|-------------------------------------------------|
A|-8r7r6-8r7r6-8r7r6-8r7r6-7r6r5-7r6r5-7r6r5-7r6r5-|

Riff 12 (Chorus/Fill)
d|----------------------------------|
a|----------------------------------|
F|----------------------------------|
C|----------------------------------|
G|-8~~-8~~-7~~-4~~--8~~-8~~-7~~-4~~-|
D|-x---x---x---x----x---x---x---x---|
A|-6~~-6~~-5~~-2~~--6~~-6~~-5~~-2~~-|

Riff 13 (Guitar 2)
d|---------------------------------------|
a|---------------------------------------|
F|-19191919191919\\1212121212\1111111111-|
C|---------------------------------------|
G|---------------------------------------|
D|---------------------------------------|
A|---------------------------------------|

Riff 14 (Guitar 2)
d|---------------------------------------|
a|---------------------------------------|
F|-19191919191919\\1212121212\1111111111-|
C|---------------------------------------|
G|---------------------------------------|
D|---------------------------------------|
A|---------------------------------------|

Riff 15 (Guitar 2)
d|--------------------------------------|
a|--------------------------------------|
F|-10~~-10~~-9~~-6~~--10~~-10~~-9~~-6~~-|
C|-xx---xx---x---x----xx---xx---x---x---|
G|- 8~~- 8~~-7~~-4~~-- 8~~- 8~~-7~~-4~~-|
D|--------------------------------------|
A|--------------------------------------|

Riff 16 (Guitar 2)
d|---------------------------------------|
a|---------------------------------------|
F|-19191919191919\\1212121212\1111111111-|
C|---------------------------------------|
G|---------------------------------------|
D|---------------------------------------|
A|---------------------------------------|

Riff 17 (Breakdown/Bridge)
d|----------------------------------------|
a|----------------------------------------|
F|----------------------------------------|
C|----------------------------------------|
G|----------------------------------------|
D|---5~~~------5~~~------5~~~-------4~~~~-|
A|-2-3~~~----2-3~~~----2-3~~~-----2-2~~~~-|
   .         .         .          .        PM

Riff 18 (Breakdown/Bridge)(Guitar 2)
d|-----------------------------------------------------------------|
a|-----------------------------------------------------------18----|
F|-777777779999999777777777999999997777777779999999977777777-20^^^-|
C|-xxxxxxxxxxxxxxxxxxxxxxxxxxxxxxxxxxxxxxxxxxxxxxxxxxxxxxxxx-------|
G|-555555557777777555555555777777775555555557777777755555555-------|
D|-----------------------------------------------------------------|
A|-----------------------------------------------------------------|
          
Riff 19 (Breakdown/Bridge 2)(Guitar 1)
d|----------------------------------------------|
a|----------------------------------------------|
F|----------------------------------------------|
C|----------------------------------------------|
G|----------------------------------------------|
D|----------------------------------------------|
A|-33333333555555556666666622222222222222226622-|

Riff 20 (Breakdown/Bridge 2)(Guitar 1)
d|----------------------------------------------|
a|----------------------------------------------|
F|----------------------------------------------|
C|----------------------------------------------|
G|----------------------------------------------|
D|----------------------------5~~~~~---4~~~~~~~-|
A|-333333335555555566666666-3-3~~~~~-2-2~~~~~~~-|
                            .        .           PM
Riff 21 (Breakdown/Bridge 2)(Guitar 2)
d|----------------------------------------------------------|
a|----------------------------------------------------------|
F|-222222222121212119191919---------------------------------|
C|-------------------------22222222202020201919191920202020-|
G|----------------------------------------------------------|
D|----------------------------------------------------------|
A|----------------------------------------------------------|

Riff 22 (Breakdown/Bridge 2)(Guitar 2)
d|----------------------------------------------------------|
a|----------------------------------------------------------|
F|-222222222122222222211919---------------------------------|
C|-------------------------22222222202020201919191920202020-|
G|----------------------------------------------------------|
D|----------------------------------------------------------|
A|----------------------------------------------------------|

Riff 23 (Breakdown/Bridge 2)(Guitar 2)
d|-------------------------------------------------|
a|-------------------------------------------------|
F|-19-21-19-21-19-21-19-21-19-20-19-20-19-20-19-20-|
C|-------------------------------------------------|
G|-------------------------------------------------|
D|-------------------------------------------------|
A|-------------------------------------------------|

Riff 24 (Breakdown/Bridge 3)(Guitar 1)
d|---------------------------------------|
a|---------------------------------------|
F|---------------------------------------|
C|---------------------------------------|
G|---------------------------------------|
D|---------------------------------------|
A|-0h33-3[3]--0h33-3[3]--0h33-3[3]--43-1-|

Riff 25 (Breakdown/Bridge 3)(Guitar 2)
d|--------------------------------------|
a|--------------------------------------|
F|--------------------------------------|
C|--------------------------------------|
G|--------------------------------------|
D|--------------------------------------|
A|------------33-3------333-3-3-----3-3-|
              .. .      ... . .     . .  PM

Riff 26 (Outro 1)
d|-------------------|
a|-------------------|
F|-------------------|
C|-------------------|
G|-------------------|
D|-------------------|
A|-0h33-3[3]--43-111-|

Riff 27 (Outro 1)
d|---------------------------------------|
a|---------------------------------------|
F|---------------------------------------|
C|---------------------------------------|
G|---------------------------------------|
D|---------------------------------------|
A|-0h33-3[3]--0h33-3[3]--0h33-3[3]--43-1-|

Riff 28 (Outro 2)(Guitar 1)
d|-------------------------------|
a|-------------------------------|
F|-------------------------------|
C|-------------------------------|
G|-4~-44-4-4-4-44-4-4-44-4-4-4-4-|
D|-x--xx-x-x-x-xx-x-x-xx-x-x-x-x-|
A|-2~-22-2-2-2-22-2-2-22-2-2-2-2-|
      ..       ..     ..       .  PM

Riff 29 (Outro 2)(Guitar 2)
d|-------------------------------|
a|-------------------------------|
F|-6--66-6-6-6-66-6-6-66-6-6-6-6-|
C|-x--xx-x-x-x-xx-x-x-xx-x-x-x-x-|
G|-4~-44-4-4-4-44-4-4-44-4-4-4-4-|
D|-------------------------------|
A|-------------------------------|
      ..       ..     ..       .  PM

Riff 30 (Outro 3)
d|------------------------------------|
a|------------------------------------|
F|------------------------------------|
C|-7--------7--------7--------7-------|
G|----5--------5--------5--------5----|
D|-------9--------9--------9--------9-|
A|------------------------------------|

Riff 31 (Outro 3)
d|------------------------------------|
a|------------------------------------|
F|------------------------------------|
C|-7--------7--------7--------7-------|
G|----5--------5--------5--------5----|
D|-------7--------7--------7--------7-|
A|------------------------------------|

Riff 32 (Outro 4)
D|---------|
A|---------|
F|---------|
C|---------|
G|---------|
D|--5-4-4--|
A|--3-2-2--|
      . .   PM

---------------------------------------------------------------

3. Pop A Pill

Tuning: 7 String Tuned Low to High (A D G C F a d)

Vocal: Jonathan Houseman Davis 'Hiv'
Guitar: James Randal Shaffer 'Munky'
Bass: Reginald Arvizu 'Fieldy
Drums: Ray Luzier

Riff 1 (Intro)
D|----------------------------------|
A|----------------------------------|
F|----------------------------------| 
C|------000-----000-----000----5-5--|
G|------555-----555-----555---6-6---|
D|----------------------------------|
A|--333-----333-----333-------------|
    ...     ...     ...   

Riff 2 (Intro)
D|-------------------------------------|
A|-------------------------------------|
F|-------------------------------------|
C|------000-----000-----000------------|
G|------555-----555-----555---4444444--|
D|-------------------------------------|
A|--333-----333-----333----------------|
    ...     ...     ...   

Riff 3 (Intro/Verse)
D|-----------------------|-------------------|
A|-----------------------|-------------------|
F|-----------------------|-------------------|
C|-----------------------|-------------------|
G|-----------------------|-------------------|
D|--------------3--------|-------------------|
A|--3-3-3-0h3h4---4-3-1--|--4-4-4-4-1-1-1-4--|

Riff 4 (Chorus)
D|-------------------------------|-----------------|
A|-------------------------------|-----------------|
F|-------------------------------|-----------------|
C|-------------------------------|-----------------|
G|--5~-55-5555---5---5~-55-5555--|--3---3~33-3333--|
D|--5~-55-5555---5---5~-55-5555--|--3---3~33-3333--|
A|--3~-33-3333---3---3~-33-3333--|--1---1~11-1111--|

Riff 5 (Bridge)
D|----------------------|-------------| 
A|----------------------|-------------| 
F|----------------------|-------------| 
C|----------------------|-------------| 
G|----------------------|-------------| 
D|----------------------|-------------|
A|--4p3-33-123-1h4-123--|--6666-5555--|
                              
Riff 6 (Bridge)
D|---------------------------|-----------|
A|---------------------------|-----------|
F|---------------------------|-----------|
C|----0~--0~--0~-------------|-----------|
G|----5~--5~--5~--4444-777---|-----------|
D|---------------------------|-----------|
A|--3---3---3----------------|--333-222--|
    .   .   .                   ... ...   PM

Riff 7 (Bridge)
D|-------------|
A|-------------|
F|-------------|
C|-------------|
G|-------------|
D|--5555-4444--|
A|--3333-2222--|
    .... ....   PM

Riff 5 (Bridge)
D|---------------------------|
A|---------------------------|
F|---------------------------|
C|---------------------------| 
G|---------------------------| 
D|---------------------------|
A|--4p33-3-33-1h3-3-4-1-1h3--|
         . ..     .   .

Riff 9 (Bridge)(Clean channel)
D|---------------|
A|---------------| Finger picked.
F|---------------|
C|--4~~~---2~~~--| Let ring out.
G|---------------|
D|---------------|
A|--3~~~---1~~~--|

Riff 10 (Outro)
D|---------------------|-------------------|
A|---------------------|-------------------|
F|---------------------|-------------------|
C|---------------------|-------------------|
G|---------------------|-------------------|
D|------------3--------|-------------------|
A|--333-0h3h4---4-3-1--|--4-4-4-4-1-1-1-1--|

---------------------------------------------------------------

4. Fear Is A Place To Live

Tuning: 7 String Tuned Low to High (A D G C F a d)

Vocal: Jonathan Houseman Davis 'Hiv'
Guitar: James Randal Shaffer 'Munky'
Bass: Reginald Arvizu 'Fieldy
Drums: Ray Luzier

Riff 1 (Intro)
D|-------|-----------|------------|
A|-------|-----------|------------|
F|-------|-----------|------------|
C|-------|-----------|------------|
G|-------|-----------|------------|
D|-------|-----------|-------2~---|
A|--0-0--|--00000-0--|--0000-0~0--|
     
Riff 2 (Verse)
D|----------------------|
A|----------------------|
F|----------------------|
C|----------------------|
G|----------------------|
D|----------------------|
A|--0-0-0000-3-3-3/5-5--|

Riff 3 (Verse)
D|-------------------------|
A|-------------------------|
F|-------------------------|
C|-------------------------|
G|-------------------------|
D|-------------------------|
A|--3-3-3-0-3/5-6-6-6\5-0--|

Riff 4 (Chorus/Outro)(Guitar 1)
D|-----------------------|
A|-----------------------|
F|-----------------------|
C|-----------------------|
G|--9~--9----------------|
D|--7~--7-9~--9-7~--7-3~-|
A|--------7~--7-5~--5-1~-|

Riff 5 (Chorus/Outro)(Guitar 2)
D|-----------------------|
A|-----------------------|
F|-----------------------|
C|--4~--4-----------4-5~-|
G|--2~--2-4~--4-2~--2-3~-|
D|--------2~--2-0~-------|
A|-----------------------|

Riff 6 (Pre-Verse/Fill)
D|-------------|
A|-------------|
F|-------------|
C|-------------|
G|-------------|
D|-------------|
A|--0-0-00000--|

Riff 7 (Bridge/Outro)
D|--------------|
A|--------------|
F|--1010101010--|
C|--xxxxxxxxxx--|
G|---8-8-8-8-8--|
D|--------------|
A|--------------|

Riff 8 (Bridge)
D|--------------------------------------------------------------------|
A|--------------------------------------------------------------------|
F|--1919191919191919191919192121212118181818181818181818181818181818--|
C|--------------------------------------------------------------------|
G|--------------------------------------------------------------------|
D|--------------------------------------------------------------------|
A|--------------------------------------------------------------------|

Riff 9 (Bridge)
D|--------------------------------------------------------------------|
A|--------------------------------------------------------------------|
F|--1616161616161616161616161616161612121212121212121212121211111111--|
C|--------------------------------------------------------------------|
G|--------------------------------------------------------------------|
D|--------------------------------------------------------------------|
A|--------------------------------------------------------------------|

---------------------------------------------------------------

5. Move On

Tuning: 7 String Tuned Low to High (A D G C F a d)

Vocal: Jonathan Houseman Davis 'Hiv'
Guitar: James Randal Shaffer 'Munky'
Bass: Reginald Arvizu 'Fieldy
Drums: Ray Luzier

Riff 1 (Intro/Chorus)(Guitar 1)
D|--------------------|--------------------|
A|--------------------|--------------------|
F|--------------------|--------------------|
C|--------------------|--------------------|
G|--------------------|--------------------|
D|--------------------|--------------------|
A|--0h2-2-0222-2h3-0--|--3p2-2-0222-2h3-0--|

Riff 2 (Intro/Chorus)(Guitar 1)
D|-------------------|
A|-------------------|
F|-------------------|
C|-------------------|
G|-------------------|
D|-------------------|
A|--3p2-2-0222-55-7--|

Riff 3 (Verse)(Guitar 1)
D|------------|----------------|
A|------------|----------------|
F|------------|----------------|
C|------------|----------------|
G|------------|----------------|
D|------------|-------3--------|
A|--22-33-11--|--22-2---33-22--|
    .. .. ..     .. .      ..   PM

Riff 4 (Verse)(Guitar 1)
D|------------------------------|
A|------------------------------|
F|------------------------------|
C|------------------------------|
G|------------------------------|
D|------------------------------|
A|--222-2--333-3--222-2--111-1--|   
        .      .      .      .   PM

Riff 4 (Verse)(Guitar 2)
D|---------|---------|
A|--11111--|---------|
F|---------|--33333--|
C|---------|---------|
G|---------|---------|
D|---------|---------|
A|---------|---------|

Riff 5 (Chorus)(Guitar 2)
D|--9999999999999999--|--77777777777777777777777777777777--|
A|--------------------|------------------------------------|
F|--------------------|------------------------------------|
C|--------------------|------------------------------------|
G|--------------------|------------------------------------|
D|--------------------|------------------------------------|
A|--------------------|------------------------------------|

Riff 6 (Chorus)(Guitar 2)
D|--66666666--|--2222-1111--|
A|------------|-------------|
F|------------|-------------|
C|------------|-------------|
G|------------|-------------|
D|------------|-------------|
A|------------|-------------|

Riff 7 (Pre-Verse/Fill)(Guitar 1)
D|------------------------------------|-----------|
A|--121212121212-131313131313-777777--|--8-7------|
F|------------------------------------|------7-9--|
C|------------------------------------|-----------|
G|------------------------------------|-----------|
D|------------------------------------|-----------|
A|------------------------------------|-----------|

Riff 8 (Pre-Verse/Fill)(Guitar 1)
D|------------------------------------|-8-7----|
A|--121212121212-131313131313-777777--|-----7~-|
F|------------------------------------|--------|
C|------------------------------------|--------|
G|------------------------------------|--------|
D|------------------------------------|--------|
A|------------------------------------|--------|

Riff 9 (Bridge/Outro)
D|-----------------------|---------|
A|-----------------------|---------|
F|--1212121212121212-10--|---------|
C|--xxxxxxxxxxxxxxxx-xx--|---------|
G|--1010101010101010--9--|---------|
D|-----------------------|---------|
A|-----------------------|--0-4-5--|
                            . . .   PM
Riff 10 (Bridge)(Guitar 1)
D|----------------------|----------------------|
A|----------------------|----------------------|
F|----------------------|----------------------|
C|----------------------|----------------------|
G|----------------------|----------------------|
D|----------------------|----------------------|
A|--3-6--3-6--3-6--3-6--|--2-5--2-5--1-3--1-3--|
    . .  . .  . .  . .     . .  . .  . .  . .   PM

Riff 11 (Bridge)(Guitar 2)
D|--------------------------|--------------------------|
A|--------------------------|--------------------------|
F|--------------------------|--------------------------|
C|----33----33----33----33--|----22----22----00----00--|
G|--5-----5-----5-----5-----|--4-----4-----3-----3-----|
D|--------------------------|--------------------------|
A|--------------------------|--------------------------|

Riff 12 (Pre-Chorus/Fill)
D|------------------------------------|------------------------------------|
A|------------------------------------|------------------------------------|
F|--12121212121212121212121212121212--|--15151515151515151515151515151515--|
C|--xxxxxxxxxxxxxxxxxxxxxxxxxxxxxxxx--|--xxxxxxxxxxxxxxxxxxxxxxxxxxxxxxxx--|
G|--10101010101010101010101010101010--|--13131313131313131313131313131313--|
D|------------------------------------|------------------------------------|
A|------------------------------------|------------------------------------|

---------------------------------------------------------------

6. Lead The Parade

Tuning: 7 String Tuned Low to High (A D G C F a d)

Vocal: Jonathan Houseman Davis 'Hiv'
Guitar: James Randal Shaffer 'Munky'
Bass: Reginald Arvizu 'Fieldy
Drums: Ray Luzier

Riff 1 (Intro)(Guitar 1)
D|----------------------------------|
A|----------------------------------|
F|----------------------------------|
C|----------------------------------|
G|----------------------------------|
D|----------------------------------|
A|--6p5(5)--8p7(7)--3h4(4)--2h3(3)--|

Riff 2 (Intro/Chorus 1)(Guitar 1)
D|-------------------------------|
A|-------------------------------|
F|-------------------------------|
C|-------------------------------|
G|-------------------------------|
D|--8\7(7)--10\9(9)--5/6(5)--4~--|
A|--6\5(5)---8\7(7)--3/4(3)--2~--|

Riff 3 (Intro/Chorus 1)(Guitar 1)
D|-----------------------|
A|-----------------------| Stop after each slide
F|-----------------------|
C|-----------------------|
G|-----------------------|
D|--8\7--10\9--5/6--4/5--|
A|--6\5---8\7--3/4--2/3--|

Riff 4 (Intro/Chorus 1)(Guitar 1)
D|------------------------------|
A|------------------------------|
F|------------------------------|
C|------------------------------|
G|------------------------------|
D|--10\9(9)--9\8(8)--8/7(7)--5--|
A|---8\7(7)--7\6(6)--6/5(5)--3--|

Riff 5 (Verse)(Guitar 1)
D|---------------------|---------------------|---------------|---------------|
A|---------------------|---------------------|---------------|---------------|
F|--1111-111111111111--|--1010-101010101010--|--8-8--888888--|--7-7--777777--|
C|--xxxx-xxxxxxxxxxxx--|--xxxx-xxxxxxxxxxxx--|--x-x--xxxxxx--|--x-x--xxxxxx--|
G|---9-9--9-9-9-9-9-9--|---8-8--8-8-8-8-8-8--|--6-6--666666--|--5-5--555555--|
D|---------------------|---------------------|---------------|---------------|
A|---------------------|---------------------|---------------|---------------|

Riff 6 (Verse)(Guitar 1)
D|---------------------|---------------------|-----------------------|-----------|
A|---------------------|---------------------|-----------------------|-----------|
F|--1111-111111111111--|--1010-101010101010--|--14-14--141414141414--|--8-8-8-8--|
C|--xxxx-xxxxxxxxxxxx--|--xxxx-xxxxxxxxxxxx--|--xx-xx--xxxxxxxxxxxx--|--x-x-x-x--|
G|---9-9--9-9-9-9-9-9--|---8-8--8-8-8-8-8-8--|--12-12--121212121212--|--6-6-6-6--|
D|---------------------|---------------------|-----------------------|-----------|
A|---------------------|---------------------|-----------------------|-----------|

Riff 7 (Pre-Chorus 1/Fill)(Guitar 2)
D|-------1313------1313------13--|
A|--1212------1212------1212-----|
F|-------------------------------|
C|-------------------------------|
G|-------------------------------|
D|-------------------------------|

Riff 8 (Chorus 1)(Guitar 2)
D|--14--------|--13--------|--16--------|-----13----13--|
A|-----14-14--|-----13-13--|-----14-14--|--13----13-----|
F|------------|------------|------------|---------------|
C|------------|------------|------------|---------------|
G|------------|------------|------------|---------------|
D|------------|------------|------------|---------------|
A|------------|------------|------------|---------------|

Riff 9 (Pre-Chorus 2)(Guitar 1)
D|--------------------------|
A|--------------------------|
F|--------------------------|
C|--------------------------|
G|--------------------------|
D|--------------------------|
A|--8\77--7\66--6\55--5\44--|

Riff 10 (Chorus 2)(Guitar 1)
D|---------------------------------------------|
A|---------------------------------------------|
F|---------------------------------------------|
C|---------------------------------------------|
G|---------------------------------------------|
D|---------------------------------------------|
A|--00-00(0)--1/8-88(8)--2/3-33(3)--1/2-22(2)--|

Riff 11 (Bridge)(Guitar 1)
D|---------------------------|------------|
A|---------------------------|------------|
F|---------------------------|------------|
C|---------------------------|------------|
G|---------------------------|------------|
D|--5/6-x-6\5-x-4/5-x-5\4-x--|--4~-3--2~--|
A|--3/4-x-4\3-x-2/3-x-3\2-x--|--2~-1--0~--|
                                   .       PM

Riff 12 (Bridge)(Guitar 1)(Clean)
D|-----------------------------------------------|
A|-----------------------------------------------| A bit hard to hear in
F|-----------------------------------------------| the background, but I'm
C|-----------------------------------------------| 100% sure this is what
G|-----------------------------------------------| it is.
D|--2/9~--9-9-10---10-10-12~\7---7h10p7-7h9~-9\--|
A|-----------------------------------------------|

Riff 13 (Bridge)(Guitar 2)(Clean)
D|----------------------------------------|
A|----------------------------------------|
F|--10h11--10h11--10h11--10h11--10\8~-10--|
C|----------------------------------------|
G|----------------------------------------|
D|----------------------------------------|
A|----------------------------------------|

Riff 14 (Outro)(Guitar 1)
D|-----------------------|
A|-----------------------|
F|-----------------------|
C|-----------------------|
G|-----------------------|
D|-----------------------|
A|--8\77--7\66--6\55--4--|

---------------------------------------------------------------

7. Let The Guilt Go

Tuning: 7 String Tuned Low to High (A D G C F a d)

Vocal: Jonathan Houseman Davis 'Hiv'
Guitar: James Randal Shaffer 'Munky'
Bass: Reginald Arvizu 'Fieldy
Drums: Ray Luzier

Riff 1 (Intro)
D|--------------|
A|--------------|
F|--------------|
C|--------------|
G|--------------|
D|--4444-555\3--|
A|--2222-333\1--| 

Riff 2 (Pre-Chorus)
D|-------------------|
A|-------------------|
F|-------------------|
C|-------------------|
G|-------------------|
D|-------------------|
A|--0h3p0h3p0h3p0h3--|
    . . . . . . . . 
   
Riff 3 (Chorus)
D|---------------------------------------|
A|---------------------------------------|
F|---------------------------------------|
C|---------------------------------------|
G|----5---5---11---11---10---10---4---4--|
D|---------------------------------------|
A|--3---3---9----9----8----8----2---2----|

Riff 4 (Chorus/Verse)Guitar 1
D|---------------------|
A|---------------------|
F|---------------------|
C|---------------------|
G|---------------------|
D|--4-4-xx-4-5-5-xx-3--|
A|--2-2-xx-2-3-3-xx-1--|

Riff 5 (Chorus/Verse)Guitar 2
D|-----------------|
A|-----------------| Wah Effect
F|--6-6--6-7-7--5--|
C|--x-x--x-x-x--x--|
G|--4-4--4-5-5--3--|
D|-----------------|
A|-----------------|

Riff 6 (Bridge)
D|---------------------------------|
A|---------------------------------|
F|---------------------------------|
C|---------------------------------|
G|------8-------7-------5-------5--|
D|------8-------7-------5-------5--|
A|--66-66---55-55---33-33---33-33--|
    .. .    .. .    .. .    .. .    PM

Riff 7 (Outro)
D|---------------|-------------||---------------|-------------|
A|---4--4--4--4--|--4---4---4--||---3--3--3--3--|--3---3---3--|
F|--5--5--5--5---|----5---5----||--4--4--4--4---|----4---4----|
C|---------------|-------------||---------------|-------------|
G|---------------|-------------||---------------|-------------|
D|---------------|-------------||---------------|-------------|
A|---------------|-------------||---------------|-------------|
    .. .. .. ..       .   .        .. .. .. ..       .   .     PM

---------------------------------------------------------------

8. The Past

Tuning: 7 String Tuned Low to High (A D G C F a d)

Vocal: Jonathan Houseman Davis 'Hiv'
Guitar: James Randal Shaffer 'Munky'
Bass: Reginald Arvizu 'Fieldy
Drums: Ray Luzier

Riff 1 (Intro)
D|----------------|---------|
A|----------------|---------|
F|----------------|---------|
C|----------------|---------|
G|--5-6-7--6-7-8--|--5-6-7--|
D|----------------|---------|
A|----------------|---------|

Riff 1.5 (Intro LIVE)(Phaser/Rotary Effect)
D|--10----10-----|---------|
A|---------------|---------| Double tap fast with
F|-----11----10--|--7-8-9--| Phaser for full effect.
C|---------------|---------| 
G|---------------|---------|
D|---------------|---------|
A|---------------|---------|

Riff 2 (Intro)
D|---------------|--------------|
A|---------------|--------------|
F|---------------|--------------|
C|---------------|--------------|
G|--22-22-22-22--|--22-22-2222--|
D|--00-00-00-00--|--00-00-0000--|
A|---------------|--------------|
    .. .. .. ..     .. .. ....   PM

Riff 3 (Intro/Chorus)
D|-------------------------|-------------------------|
A|-------------------------|-------------------------|
F|-------------------------|-------------------------|
C|-------------------------|-------------------------|
G|--7/8\7--------5-55--44--|--7/8\7--------5-55------|
D|--5/6\5--5-55--3-33--22--|--5/6\5--5-55--3-33--66--|
A|---------3-33------------|---------3-33--------44--|

Riff 4 (Intro/Chorus)
D|-------------------------|------------------------------|
A|-------------------------|------------------------------|
F|-------------------------|------------------------------|
C|-------------------------|------------------------------|
G|--7/8\7--------5-55--44--|--7/8\7--4/5\4--7/8\7--4/5\4--|
D|--5/6\5--5-55--3-33--22--|--5/6\5--2/3\2--5/6\5--2/3\2--|
A|---------3-33------------|------------------------------|

Riff 5 (Verse)
D|-------------------------------------------------------------------|
A|-------------------------------------------------------------------|
F|-------------------------------------------------------------------|
C|--19-19-19h20p19---17-17-17h19p17---16-16-16h17p16---15-1515-1414--|
G|-------------------------------------------------------------------|
D|-------------------------------------------------------------------|
A|-------------------------------------------------------------------|

Riff 6 (Pre-Verse) After First Chorus.
D|---------------------------|----------------|
A|---------------------------|----------------|
F|---------------------------|----------------|
C|--12~--14~--10~--12~-------|--12~--14~--10~-|
G|----------------------12~--|----------------|
D|---------------------------|----------------|
A|---------------------------|----------------|

Riff 7 (Verse 2)
D|--17-17-17h18p17---15-15-15h17p15---14-14-14h15p14---13-1313-1212--|
A|-------------------------------------------------------------------|
F|-------------------------------------------------------------------|
C|-------------------------------------------------------------------|
G|-------------------------------------------------------------------|
D|-------------------------------------------------------------------|
A|-------------------------------------------------------------------|

Riff 8 (Pre-Chorus/Fill)
D|--------|
A|--------|
F|--------| (Half a bend)
C|--7^77--|
G|--5^55--|
D|--------|
A|--------|

Riff 9 (Bridge)
D|-----------------------|------------|
A|--15-16-17---16-17-18--|--15-16-17--|
F|-----------------------|------------|
C|-----------------------|------------|
G|-----------------------|------------|
D|-----------------------|------------|
A|-----------------------|------------|

Riff 10 (Bridge)
D|----------------------|----------------------|
A|----------------------|----------------------|
F|----------------------|----------------------|
C|----------------------|----------------------|
G|-----77---77---77-77--|-----66---66---66-66--|
D|--55-55-5-55-5-55-55--|--44-44-4-44-4-44-44--|
A|----------------------|----------------------|
    ..    .    .           ..    .    .          PM

Riff 11 (Bridge)
D|----------------------|----------------------|
A|----------------------|----------------------|
F|----------------------|----------------------|
C|----------------------|----------------------|
G|-----55---55---55-55--|-----44---44---44-44--|
D|--33-33-3-33-3-33-33--|--22-22-2-22-2-22-22--|
A|----------------------|----------------------|
    ..    .    .           ..    .    .          PM

Riff 12 (Bridge)
D|----------------------|
A|----------------------|
F|----------------------|
C|----------------------|
G|----------------------|
D|----------------------|
A|--55555555-555h6p5-5--|

Riff 13 (Bridge)
D|------------------------------------|------------------------------------|
A|------------------------------------|------------------------------------|
F|--14141414141414141414141414141414--|--13131313131313131313131313131313--|
C|--xxxxxxxxxxxxxxxxxxxxxxxxxxxxxxxx--|--xxxxxxxxxxxxxxxxxxxxxxxxxxxxxxxx--|
G|--12121212121212121212121212121212--|--11111111111111111111111111111111--|
D|------------------------------------|------------------------------------|
A|------------------------------------|------------------------------------|

Riff 14 (Bridge)
D|------------------------------------|------------------------------------|
A|------------------------------------|------------------------------------|
F|--12121212121212121212121212121212--|--111111111111111110101010-9-9-9-9--|
C|--xxxxxxxxxxxxxxxxxxxxxxxxxxxxxxxx--|--xxxxxxxxxxxxxxxxxxxxxxxx-x-x-x-x--|
G|--10101010101010101010101010101010--|---9-9-9-9-9-9-9-9-8-8-8-8-7-7-7-7--|
D|------------------------------------|------------------------------------|
A|------------------------------------|------------------------------------|

Riff 15 (Outro)
D|-------------|-----------------------|
A|-------------|-----------------------|
F|-------------|--15-14-14---15-14\12--|
C|---------12--|-----------------------|
G|--7--10--10--|-----------------------|
D|--5--8-------|-----------------------|
A|-------------|-----------------------|

---------------------------------------------------------------

9. Never Around

Tuning: 7 String Tuned Low to High (A D G C F a d)

Vocal: Jonathan Houseman Davis 'Hiv'
Guitar: James Randal Shaffer 'Munky'
Bass: Reginald Arvizu 'Fieldy
Drums: Ray Luzier

Riff 1 (Intro)
D|-------------|
A|-------------|
F|-------------|
C|-------------|
G|-------------|
D|-------------|
A|--22-0-2222--|

Riff 2 (Intro)
D|-------------------|
A|-------------------| Gradually bend up
F|--6-6-6-6-6-6-6-6--|
C|--x-x-x-x-x-x-x-x--|
G|--4-4-4-4-4-4-4-4--|
D|--^-^-^-^-^-^-^-^--|
A|-------------------|

Riff 3 (Intro/Fill)
D|-----------------------------|
A|-----------------------------|
F|--6-6-6-6-6-6-6-6-5-5-5-5-5--|
C|--x-x-x-x-x-x-x-x-x-x-x-x-x--|
G|--4-4-4-4-4-4-4-4-3-3-3-3-3--|
D|-----------------------------|
A|-----------------------------|

Riff 4 (Intro/Chorus)
D|--------------------------------|------|
A|--------------------------------|------|
F|--------------------------------|------|
C|--------------------------------|------|
G|--------------------------------|------|
D|--------------------------------|------|
A|--22-0-2222--7\6-66--4\3-33--0--|--22--|
                                     ..
Riff 4 (Verse)(Guitar 1)                
D|------------------------------|
A|------------------------------|
F|------------------------------|
C|----------------44-44--33-33--|
G|--44-33--44-33----------------|
D|------------------------------|
A|------------------------------|

Riff 5 (Verse)(Guitar 2)
D|-------------|-------------|
A|-------------|-------------| A bit hard to hear,
F|-------------|-------------| but it's definantly
C|-------------|-------------| there.
G|-------------|------1~-----|
D|--3~--2~-----|--3~---------|
A|----------0~-|----------0~-|

Riff 6 (Verse)(Guitar 1)
D|------------|---------|
A|------------|---------|
F|--5/6~-5/6~-|--10/11~-|
C|------------|---------|
G|------------|---------|
D|------------|---------|
A|------------|---------|

Riff 7 (Verse/Fill)
D|--------------------|
A|--------------------|
F|--------------------|
C|--------------------|
G|--------------------|
D|--------------------|
A|--0-2-3-0--0-2-3-0--|
    . . . .  . . . .   PM

Riff 8 (Pre-Chorus/Fill)
D|--------------------------------------------|------------|
A|--------------------------------------------|------------|
F|--------------------------------------------|------------|
C|--------------------------------------------|------------| 
G|--------------------------------------------|------------|
D|--------------------------------------------|------------|
A|--3-000--3-000--3-000--3-000--3-000--3-000--|--777-6666--|

Riff 9 (Bridge)
D|-----------------|
A|-----------------|
F|-----------------|
C|-----------------|
G|--8~--8~--8~--8~-|
D|--8~--8~--8~--8~-|
A|--6~--6~--6~--6~-|

Riff 10 (Bridge)
D|--------------------|
A|--------------------|
F|--------------------|
C|--------------------|
G|--------------------|
D|--------------------|
A|--02-23-02-32-02-3--|
    .. .. .. .. ..     PM

Riff 11 (Bridge)(Clean Channel)
D|-----------------------|-----------------------|
A|-----------------------|-----------------------|
F|-----------------------|-----------------------|
C|-----------------------|-----------------------|
G|-----------------------|-----------------------|
D|------44-----44----44--|------55-----55----55--|
A|--666----666----66-----|--777----777----77-----|

Riff 12 (Bridge)
D|-------------------|---------------------|
A|-------------------|---------------------|
F|-------------------|---------------------|
C|--9-9-9-9-9-9-9-9--|--11111111111111111--|
G|--x-x-x-x-x-x-x-x--|--xxxxxxxxxxxxxxxxx--|
D|--7-7-7-7-7-7-7-7--|---9-9-9-9-9-9-9-9---|
A|-------------------|---------------------|

Riff 13 (Bridge)
D|--------------------|-------------------|
A|--------------------|-------------------|
F|--------------------|-------------------|
C|--1212121212121212--|--8-8-8-8-8-8-8-8--|
G|--XXXXXXXXXXXXXXXX--|--X-X-X-X-X-X-X-X--|
D|--1010101010101010--|--6-6-6-6-6-6-6-6--|
A|--------------------|-------------------|

Riff 14 (Outro)(Clean Channel)
D|--------------|-----------------|
A|--------------|-----------------|
F|--------------|-----------------|
C|--------------|-----------------|
G|-----4--------|------4---4/7-4--|
D|-454---454----|--454---4--------|
A|-----------2--|-----------------|

---------------------------------------------------------------

10. Are You Ready To Live

Tuning: 7 String Tuned Low to High (A D G C F a d)

Vocal: Jonathan Houseman Davis 'Hiv'
Guitar: James Randal Shaffer 'Munky'
Bass: Reginald Arvizu 'Fieldy
Drums: Ray Luzier

Riff 1 (Intro/Chorus)
D|--------------------------|(G1)
A|--------------------------|
F|--------------------------|
C|--------------------------|
G|--------------------------|
D|--------------------------|
A|--0000-15-0-14-00-10h12\--|

Riff 2 (Intro/Chorus)
D|------------|----------|(G2)
A|--16161616--|--16------|
F|------------|----1616--|
C|------------|----------|
G|------------|----------|
D|------------|----------|
A|------------|----------|

Riff 3 (Verse)
D|-------------|(G1)
A|-------------|
F|-------------|
C|-------------|
G|-------------|
D|--44444-333--|
A|--22222-111--|
    ..... ...   PM

Riff 4 (Verse)
D|------|(G2)
A|--14~-|
F|--^^--| Munky is using some special
C|------| electronic device that wasn't
G|------| played on the 7 string guitar
D|------| originally.
A|------|

Riff 5 (Verse)
D|--------------------------|(G1)
A|--------------------------|
F|--------------------------|
C|--------------------------|
G|----10----10-----9-----9--|
D|-----9-----9-----8-----8--|
A|--0-----0-----0-----0-----|
    .     .     .     .      PM

Riff 6 (Verse)
D|-------------|(G1)
A|-------------|
F|-------------|
C|-------------|
G|-------------|
D|-------------|
A|--22222-111--|

Riff 7 (Verse/Fill)(2nd Verse)
D|--6/7-6/7-6/7-6/7--|(G2)
A|-------------------|
F|-------------------| Fairly fast slide
C|-------------------|
G|-------------------|
D|-------------------|
A|-------------------|

Riff 8 (Bridge/Outro)
D|-----------------------------------|(G2)
A|------0-------0-------0-------0----|
F|----7---7---7---7---7---7---7---7--|
C|-----------------------------------|
G|-----------------------------------|
D|--7-------7-------7-------7--------|
A|-----------------------------------|

Riff 9 (Bridge/Outro)
D|-----------------------------------|(G2)
A|------0-------0-------0-------0----|
F|----7---7---6---6---6---6---6---6--|
C|-----------------------------------|
G|-----------------------------------|
D|--5-------5-------5-------5--------|
A|-----------------------------------|

Riff 10 (Bridge/Outro)
D|-----------------------------------|(G2)
A|------5-------5-------5-------5----|
F|----6---6---6---6---6---6---6---6--|
C|-----------------------------------|
G|-----------------------------------|
D|--4-------4-------4-------4--------|
A|-----------------------------------|

Riff 11 (Bridge/Outro)
D|-----------------------------------|(G2)
A|------5-------5-------5-------5----|
F|----6---6---6---6---6---6---6---6--|
C|-----------------------------------|
G|-----------------------------------|
D|--6-------6-------6-------6--------|
A|-----------------------------------|

Riff 12 (Bridge)
D|--------------------|--------------------|(G1)
A|--------------------|--------------------|
F|--------------------|--------------------|
C|--------------------|--------------------|
G|--9999999999999999--|--7777777777777777--|
D|--7777777777777777--|--5555555555555555--|
A|--------------------|--------------------|
    ................     ................   PM

Riff 13 (Bridge)
D|-----------------------------------|--------------------|(G1)
A|-----------------------------------|--------------------|
F|-----------------------------------|--------------------|
C|-----------------------------------|--------------------|
G|-10101010101010101010101010101010--|--8888888888888888--|
D|--9-9-9-9-9-9-9-9-9-9-9-9-9-9-9-9--|--6666666666666666--|
A|-----------------------------------|--------------------|
    . . . . . . . . . . . . . . . .     ................   PM

---------------------------------------------------------------

11. Holding All These Lies

Tuning: 7 String Tuned Low to High (A D G C F a d)

Vocal: Jonathan Houseman Davis 'Hiv'
Guitar: James Randal Shaffer 'Munky'
Bass: Reginald Arvizu 'Fieldy
Drums: Ray Luzier

Riff 1 (Intro/Pre-Chorus)
D|----------------------|
A|----------------------|
F|----------------------|
C|----------------------|
G|----------------------|
D|--2-2-22--2-22--2222--|
A|--0-0-00--0-00--0000--|
    . . ..  . ..  ....   PM

Riff 2 (Intro)
D|------------------------|
A|------------------------|
F|------------------------|
C|------------------------|
G|------------------------|
D|------------------------|
A|--3-3-4p3--3-333-4p3-3--|

Riff 3 (Verse)
D|-------------------|-----|
A|-------------------|-----|
F|-------------------|-----|
C|-------------------|-----|
G|-------------------|--1--|
D|--2-2--2-22--2-22--|--^--|
A|--0-0--0-00--0-00--|-----|
    .            .          PM

Riff 4 (Chorus)
D|----------------------|----------------------|
A|----------------------|----------------------|
F|----------------------|----------------------|
C|----------7~----------|--444444444-5555-444--|
G|--2~--5---7~----------|--444444444-5555-444--|
D|--2~--5---5~----3~----|--222222222-3333-222--|
A|--0~--3-------1---1~--|----------------------|

Riff 5 (Bridge)
D|------------------------------|
A|------------------------------|
F|------------------------------|
C|------------------------------|
G|--5-5-5-5--4-4-4-4--2-2-2-2~--|
D|------------------------------|
A|------------------------------|

Riff 6 (Bridge)
D|-------------------|--------------------|----------------|
A|-----15-15-15-15~--|--------------------|----------------| I tried my best on
F|-------------------|-------10-10-10-10--|-------9-9-9-9--| this, but it's just
C|-------------------|--------------------|----------------| filled with way to
G|-------------------|--------------------|----------------| much effects to work
D|-------------------|--------------------|----------------| out properly.
A|--00---------------|--0000--------------|--0000----------|

Riff 7 (Bridge/Solo)
D|-----------------------------------------------------------------|
A|--19191919191919191919191919191919h20p1919h20p1919191919191919~--|
F|-----------------------------------------------------------------|
C|-----------------------------------------------------------------|
G|-----------------------------------------------------------------|
D|-----------------------------------------------------------------|
A|-----------------------------------------------------------------|

Riff 8 (Bridge/Solo)
D|--------------------------------------------|
A|--19191919191919191919/20\191919/20\191919--|
F|--23232323232323232323/23\232323/23\232323--|
C|--------------------------------------------|
G|--------------------------------------------|
D|--------------------------------------------|
A|--------------------------------------------|

Riff 9 (Bridge/Solo)
D|------------------------------------------------------------------------|
A|--19191919191919191919/22222222\2020202020202020\1919/2020202020202020--|
F|------------------------------------------------------------------------|
C|------------------------------------------------------------------------|
G|------------------------------------------------------------------------|
D|------------------------------------------------------------------------|
A|------------------------------------------------------------------------|

Riff 10 (Outro)(Guitar 1)
D|-----------------------------|
A|-----------------------------|
F|--7-7-7-7--6-6-6-6--4-4-4-4--|
C|--x-x-x-x--x-x-x-x--x-x-x-x--|
G|--5-5-5-5--4-4-4-4--2-2-2-2--|
D|-----------------------------|
A|-----------------------------|

Riff 11 (Outro)(Guitar 2)
D|-----------|
A|-----------|
F|-----------|
C|-----------|
G|--2-2-2-2--|
D|--2-2-2-2--|
A|--0-0-0-0--|
    . . .     PM

---------------------------------------------------------------

12. Trapped Underneath The Stairs

Tuning: 7 String Tuned Low to High (A D G C F a d)

Vocal: Jonathan Houseman Davis 'Hiv'
Guitar: James Randal Shaffer 'Munky'
Bass: Reginald Arvizu 'Fieldy
Drums: Ray Luzier

Riff 1 (Intro/Verse)
D|----------|------|
A|------11--|------|
F|------16--|------| Then slide up & down 
C|----------|--12--| the strings using your
G|----------|------| palm down near the 
D|----------|------| bridge pickup position.
A|--0-0-----|------|
    . .      PM

Riff 2 (Pre-Chorus)
D|-----------------------|
A|-----------------------|
F|-----------------------|
C|-----------------------|
G|--2222-3333-4444-5555--|
D|-----------------------|
A|-----------------------|

Riff 3 (Chorus/Outro)
D|-------------------------------|
A|-------------------------------|
F|-------------------------------|
C|-------------------------------|
G|-------------------------------|
D|-------------------------------|
A|--0-12-0-12-0-12-0--1111-2222--|

Riff 4 (Bridge)
D|--------------------------------------------------|---------------|
A|--------------------------------------------------|---------------|
F|-------12121211-------151515-------12121211-------|--12/13-12/13--|
C|-------xxxxxxxx-------xxxxxx-------xxxxxx-x-------|---------------|
G|-------101010-9-------131313-------101010-9-------|---------------|
D|--0-0------------0-0----------0-0------------0-0--|---------------|
A|--------------------------------------------------|---------------|

Riff 5 (Bridge)
D|--------------------------------|
A|--------------------------------|
F|--------------------------------|
C|--------------------------------|
G|--------------------------------|
D|-2-8-7-5--------2-8-5-5---------|
A|-0-6-5-3--3232--0-6-3-3--35323--|
   . . . .  ....  . . . .  .....   PM

Riff 6 (Bridge)
D|----------------------------------------------------------|
A|----------------------------------------------------------|
F|-------15151515-------12121211-------15151515-------7777--|
C|-------xxxxxxxx-------xxxxxx-x-------xxxxxxxx-------xxxx--|
G|-------13131313-------101010-9-------13131313-------5555--|
D|--0-0------------0-0------------0-0------------0-0--------|
A|----------------------------------------------------------|

---------------------------------------------------------------

13. People Pleaser

Tuning: 7 String Tuned Low to High (A D G C F a d)

Vocal: Jonathan Houseman Davis 'Hiv'
Guitar: James Randal Shaffer 'Munky'
Bass: Reginald Arvizu 'Fieldy
Drums: Ray Luzier

Riff 1 (Intro/Chorus)(Guitar 1)
D|------------------|------------------|
A|------------------|------------------|
F|------------------|------------------|
C|------------------|------------------|
G|------------------|------------------|
D|------------------|------------------|
A|--2-2-2-0h2-22-0--|--3-3-3-0h3-33-0--|

Riff 2 (Verse)(Guitar 2)
D|--14h15-14h15-14h15-14h15--|
A|---------------------------|
F|---------------------------|
C|---------------------------|
G|---------------------------|
D|---------------------------|
A|---------------------------|

Riff 3 (Verse)(Guitar 1)
D|-----------|
A|-----------|
F|-----------|
C|-----------|
G|-----------|
D|--2-22-22--|
A|--0-00-00--|

Riff 4 (Verse)(Guitar 2)
D|--14h15-14h15-14h15-14h15--|---------------------------|
A|---------------------------|---------------------------|
F|---------------------------|--11h12-11h12-11h12-11h12--|
C|---------------------------|---------------------------|
G|---------------------------|---------------------------|
D|---------------------------|---------------------------|
A|---------------------------|---------------------------|

Riff 5 (Verse)(Guitar 1)
D|-----------|-----------|-----------|------------| I tend to get the best
A|-----------|-----------|-----------|------------| matching sound using
F|-----------|-----------|-----------|------------| a drive channel.
C|-----------|-----------|-----------|------------|
G|-----5-54--|--2-24-45--|--4-45-5---|------------|
D|--2-23-32--|--0-02-23--|--2-23-36--|--6-65-542--|
A|--0-0------|-----------|--------4--|--4-43-320--|

Riff 6 (Bridge)(Guitar 1)
D|------------------------|
A|------------------------|
F|-----11~-----9~-----6~--|
C|---10------10------9----|
G|--9-------9-------9-----|
D|------------------------|
A|------------------------|

Riff 7 (Bridge)(Guitar 1)
D|---------------------------------|
A|---------------------------------|
F|---------11~---------------------|
C|---------10~---------------------|
G|----2-----9~-----2------------2--|
D|--2-2----------2-2---2-2------2--|
A|--0-0----------0-0---0-0--2^--0--|
    .            .     .            PM

Riff 8 (Bridge)(Guitar 2)
D|------------------|-------| Multiple patterns done
A|---15~--14~--12~--|-------| with these notes as riff
F|------------------|--10~--| 7 is playing. Just listen
C|------------------|-------| and I'm sure you'll figure
G|------------------|-------| it out.
D|------------------|-------|
A|------------------|-------|

Riff 9 (Fill)(Guitar 2)
D|-----------| 
A|-----------| Played at 3:07
F|--7-7-7-7--| when Riff 5 plays
C|-----------| over again.
G|-----------|
D|-----------|
A|-----------|

Riff 10 (Outro 1)(Guitar 1)
D|----------------|
A|----------------| Scratch you're pick
F|----------------| a bit on the low B
C|----------------| string before following
G|--2~---2~---2~--| through with the chord
D|--2~---2~---2~--| to add to how it's played.
A|--0~---0~---0~--|
    .    .    .    PM 

Riff 11 (Outro 2)(G1 or G2)
D|-------------------|
A|-------------------| This is the little 
F|-------------------| bit that's played
C|-------------------| over for the remaining
G|----0-----0-----0--| 3 minutes 5 seconds,
D|--0---0-0---0-0----| use clean channel.
A|-------------------|
    . . . . . . . .   PM

NOTE: Listen to the song(s) to structure out each riff.
Leave any comments/corrections, don't forget to rate!

Have Fun!
comments
We did not receive enough feedback on this tab! Please rate:
print report bad tab
1 2 3 4 5
I want to post or [tab]
guest
You may want to rate the tab now too:
select rating
Please do not post tabs as comments. Select "correction" instead!