Oops, an error
Loading. Please wait.

See You On The Other Side Tab

by Korn
ver1
ver1

Album

More versions @911Tabs.com
8,204 views 3 this week
6 commentsread comments
1 2 3 4 5
excellent!
x 3
add to favorites launch autoscroll
font size
0
reset
Autoscroll
+/-
esc
set tempo
stop
Contributor
Difficulty
intermediate
WARNING: You are trying to view
                                    content from Ultimate-Guitar.com
                                    in an unauthorized application,
                                    which is prohibited.

                                    Please use an official Ultimate
                                    Guitar Tabs application for iPhone,
                                    iPad or Android to access legitimate
                                    chords, guitar, bass, and drum tabs
                                    from Ultimate-Guitar.com database.

                                    Type "ultimate guitar tabs" in Apple
                                    App Store's or Android Market's
                                    search to find the application.
Band- Korn
Album- See You On The Other Side

Track Listings:        
1.Twisted Transistor......Elvisz
2.Politics................Elvisz
3.Hypocrites..............Elvisz
4.Souvenir................Elvisz
5.10 Or A 2-Way...........N/A
6.Throw Me Away...........Elvisz
7.Love Song...............here_to_stay
8.Open Up.................N/A
9.Coming Undone...........Elvisz
10.Getting Off............Elvisz
11.Liar...................Elvisz
12.For No One.............Elvisz
13.See It All.............Elvisz
14.Tearjerker.............Elvisz
Bonus Tracks:
15.It's Me Again..........here_to_stay
16.Eaten Up Inside........N/A
17.Last Legal Drug........Elvisz

Notes: All N/A's will be updated with my own tabs as soon as I get my 7-string guitar this summer.

---------------------------------------------------------

1.Twisted Transistor

Tuning : 7 String Tuned Low to High (A D G C F a d)

Vocal: Jonathan Houseman Davis 'Hiv'
Guitar: James Randal Shaffer 'Munky'
Bass: Reginald Arvizu 'Fieldy'
Drums: David Silveria

Intro:
Some scratching on the string with the pick, and the first note....
d|-----------------------------------|
a|-----------------------------------|
F|-----------------------------------|
C|-12~~~~----12~~~~-----12~~~~~~-----| (sometime make the pinch harmonics and bend a little the
G|-----------------------------------|  the note to get he same effects)
D|-----------------------------------|
A|-----------------------------------|

d|---------------------------|
a|---------------------------|
F|---------------------------|
C|---------------------------| (in the background really disorted)
G|----5-6-5-----5--------5/6-|  
D|---------------------------|
A|-3~-------3-3---3-3--3-----|

Verse: (with no vocals)
d|-------------------------------|
a|-------------------------------|
F|-------------------------------|
C|-------------------------------|
G|-------5-6-5-----5---------5/6-|
D|-------------------------------|
A|-3-3-3-------3-3---3-3-3-3-----|
   . . .       . .   . . . .       .palm mute

Chorus: (with no vocals)
d|-------------------------------|
a|-------------------------------|
F|-------7/8\7-----7---------7/8-|
C|-------xxxxx-----x---------xxx-|
G|-------5/6\5-----5---------5/6-|
D|-------------------------------|
A|-3-3-3-------3-3---3-3-3-3-----|
   . . .       . .   . . . .       .palm mute

d|------------------------------------------------------------------|
a|------------------------------------------------------------------|
F|-1515151515151515151515151515151514141414141414141414141414141414-|
C|-xxxxxxxxxxxxxxxxxxxxxxxxxxxxxxxxxxxxxxxxxxxxxxxxxxxxxxxxxxxxxxxx-|
G|-1313131313131313131313131313131312121212121212121212121212121212-|
D|------------------------------------------------------------------|
A|------------------------------------------------------------------|

Verse:
d|-------------------------------|
a|-------------------------------|
F|-------------------------------|
C|-------------------------------|
G|-------5-6-5-----5---------5/6-|
D|-------------------------------|
A|-3-3-3-------3-3---3-3-3-3-----|
   . . .       . .   . . . .       .palm mute

d|------------------------------------------------------------------|
a|------------------------------------------------------------------|
F|-1515151515151515151515151515151514141414141414141414141414141414-|
C|-xxxxxxxxxxxxxxxxxxxxxxxxxxxxxxxxxxxxxxxxxxxxxxxxxxxxxxxxxxxxxxxx-|
G|-1313131313131313131313131313131312121212121212121212121212121212-|
D|------------------------------------------------------------------|
A|------------------------------------------------------------------|

Pre-Chorus:
d|----------------------------------------------------|
a|----------------------------------------------------|
F|----------------------------------------------------|
C|----5~~~~~--------5~~~~---------3~~~~~-------3~~~~~-|
G|----5~~~~~--------5~~~~---------3~~~~~-------3~~~~~-|
D|----3~~~~~--------3~~~~~--------1~~~~~-------1-~~~~-|
A|--3x------------3x------------3x-----------3x-------|

d|----------------------------------------------------|
a|----------------------------------------------------|
F|----------------------------------------------------|
C|----5~~~~~--------5~~~~---------3~~~~~-------3~~~~~-|
G|----5~~~~~--------5~~~~---------3~~~~~-------3~~~~~-|
D|----3~~~~~--------3~~~~~--------1~~~~~-------1-~~~~-|
A|-33x-----------33x----------------------------------|

Fill1:
d|-------------|----------|
a|-------------|----------|
F|-------------|----------|
C|-------------|----------|
G|-5x-6x-7x-8x-|-5x-6x-7x-|
D|-5x-6x-7x-8x-|-5x-6x-7x-|
A|-3x-4x-5x-6x-|-3x-4x-5x-|

Chorus:
d|-------------------------------|
a|-------------------------------|
F|-------7/8\7-----7---------7/8-|
C|-------xxxxx-----x---------xxx-|
G|-------5/6\5-----5---------5/6-|
D|-------------------------------|
A|-3-3-3-------3-3---3-3-3-3-----|
   . . .       . .   . . . .       .palm mute

Verse:
d|-------------------------------|
a|-------------------------------|
F|-------------------------------|
C|-------------------------------|
G|-------5-6-5-----5---------5/6-|
D|-------------------------------|
A|-3-3-3-------3-3---3-3-3-3-----|
   . . .       . .   . . . .       .palm mute


Pre-Chorus:
d|----------------------------------------------------|
a|----------------------------------------------------|
F|----------------------------------------------------|
C|----5~~~~~--------5~~~~---------3~~~~~-------3~~~~~-|
G|----5~~~~~--------5~~~~---------3~~~~~-------3~~~~~-|
D|----3~~~~~--------3~~~~~--------1~~~~~-------1-~~~~-|
A|--3x------------3x------------3x-----------3x-------|

d|----------------------------------------------------|
a|----------------------------------------------------|
F|----------------------------------------------------|
C|----5~~~~~--------5~~~~---------3~~~~~-------3~~~~~-|
G|----5~~~~~--------5~~~~---------3~~~~~-------3~~~~~-|
D|----3~~~~~--------3~~~~~--------1~~~~~-------1-~~~~-|
A|-33x-----------33x----------------------------------|

Fill1:
d|-------------|----------|
a|-------------|----------|
F|-------------|----------|
C|-------------|----------|
G|-5x-6x-7x-8x-|-5x-6x-7x-|
D|-5x-6x-7x-8x-|-5x-6x-7x-|
A|-3x-4x-5x-6x-|-3x-4x-5x-|

Chorus:
d|-------------------------------|
a|-------------------------------|
F|-------7/8\7-----7---------7/8-|
C|-------xxxxx-----x---------xxx-|
G|-------5/6\5-----5---------5/6-|
D|-------------------------------|
A|-3-3-3-------3-3---3-3-3-3-----|
   . . .       . .   . . . .       .palm mute

Bridge1:
d|----------------------|
a|----------------------|
F|----------------------|
C|-12-12121212-12\11\10-|
G|-xx-xxxxxxxx-xxxxxxxx-|
D|-10-10101010-10\ 9\ 8-|
A|----------------------|

Fill2:
d|-------------|
a|-------------|
F|-------------|
C|-------------|
G|-------------|
D|-10///12^^---|
A|-------------|

Bridge2:
d|-----------------|
a|-----------------|
F|-----------------|
C|-8~~~~-5~~~~~----|
G|-8~~~~-5~~~~~-5x-|
D|-6~~~~-3~~~~~-5x-|
A|--------------3x-|

d|-------21-----------21--------------------------|
a|----------22-----------22---22---21---19---1921-|
F|-19/21--------19/21-----------21---21---21------|
C|------------------------------------------------|
G|------------------------------------------------|
D|------------------------------------------------|
A|------------------------------------------------|

d|-2323232323-212121-232323-212121-232323-2121-23-|
a|------------------------------------------------|
F|------------------------------------------------|
C|------------------------------------------------|
G|------------------------------------------------|
D|------------------------------------------------|
A|------------------------------------------------|

d|-------21-----------21--------------------------|
a|----------22-----------22---22---21---19---1921-|
F|-19/21--------19/21-----------21---21---21------|
C|------------------------------------------------|
G|------------------------------------------------|
D|------------------------------------------------|
A|------------------------------------------------|

d|-------------|
a|-XXXXXXXXXXX-|
F|-XXXXXXXXXXX-|
C|-XXXXXXXXXXX-|
G|-XXXXXXXXXXX-|
D|-------------|
A|-------------|

d|-------21-----------21--------------------------|
a|----------22-----------22---22---21---19---1921-|
F|-19/21--------19/21-----------21---21---21------|
C|------------------------------------------------|
G|------------------------------------------------|
D|------------------------------------------------|
A|------------------------------------------------|

d|-2323232323-212121-23232321-|
a|----------------------------|
F|----------------------------|
C|----------------------------|
G|----------------------------|
D|----------------------------|
A|----------------------------|

Chorus:
d|-------------------------------|
a|-------------------------------|
F|-------7/8\7-----7---------7/8-|
C|-------xxxxx-----x---------xxx-|
G|-------5/6\5-----5---------5/6-|
D|-------------------------------|
A|-3-3-3-------3-3---3-3-3-3-----|
   . . .       . .   . . . .       .palm mute

Outro:
d|--------------------|
a|--------------------|
F|-------7/8\7-----7x-|
C|-------xxxxx-----xx-|
G|-------5/6\5-----5x-|
D|--------------------|
A|-3-3-3-------3-3----|
   . . .       . .      .palm mute

---------------------------------------------------------------

2.Politics

Tuning : 7 String Tuned Low to High (A D G C F a d)

Vocal: Jonathan Houseman Davis 'Hiv'
Guitar: James Randal Shaffer 'Munky'
Bass: Reginald Arvizu 'Fieldy'
Drums: David Silveria

Intro:
d|-------------------------------|-------------------------------|
a|-------------------------------|-------------------------------|
F|-------------------------------|-------------------------------|
C|-9~~---------7~--9~--------7~--|-9~~---------7~--9~--------7~--|
G|-9~~--5~~-7--7~--9~--5~--7-7~--|-9~~--5~~-7--7~--9~X-5~--7-7~~-|
D|-7~~-X5~~-7--5~--7~X-5~--7-5~X-|-7~~-X5~~-7--5~--7~X-5~--7-5~~-|
A|-----X3~~-5--------X-3~--5---X-|-----X3~~-5--------X-3~--5-----|

Verse:
d|-----------------------|
a|-----------------------|
F|-----------------------|
C|-----------------------|
G|-----------------------|
D|-7~~-----5~~-----------|
A|-----3~~-----4~~-6-6-6-|

Pre-Chorus:
d|-------------------------------|
a|-------------------------------|
F|-------------------------------|
C|-----9---10--------11----12----|
G|-7~~---77--77-7~~-----77----77-|
D|-------------------------------|
A|-------------------------------|
         ..  ..         ..    ..   .palm mute

Chorus:
d|-------------------------------|-------------------------------|
a|-------------------------------|-------------------------------|
F|-------------------------------|-------------------------------|
C|-9~~---------7~--9~--------7~--|-9~~---------7~--9~--------7~--|
G|-9~~--5~~-7--7~--9~--5~--7-7~--|-9~~--5~~-7--7~--9~X-5~--7-7~~-|
D|-7~~-X5~~-7--5~--7~X-5~--7-5~X-|-7~~-X5~~-7--5~--7~X-5~--7-5~~-|
A|-----X3~~-5--------X-3~--5---X-|-----X3~~-5--------X-3~--5-----|

Verse:
d|-----------------------|
a|-----------------------|
F|-----------------------|
C|-----------------------|
G|-----------------------|
D|-7~~-----5~~-----------|
A|-----3~~-----4~~-6-6-6-|

Pre-Chorus:
d|-------------------------------|
a|-------------------------------|
F|-------------------------------|
C|-----9---10--------11----12----|
G|-7~~---77--77-7~~-----77----77-|
D|-------------------------------|
A|-------------------------------|
         ..  ..         ..    ..   .palm mute

Chorus:
d|-------------------------------|-------------------------------|
a|-------------------------------|-------------------------------|
F|-------------------------------|-------------------------------|
C|-9~~---------7~--9~--------7~--|-9~~---------7~--9~--------7~--|
G|-9~~--5~~-7--7~--9~--5~--7-7~--|-9~~--5~~-7--7~--9~X-5~--7-7~~-|
D|-7~~-X5~~-7--5~--7~X-5~--7-5~X-|-7~~-X5~~-7--5~--7~X-5~--7-5~~-|
A|-----X3~~-5--------X-3~--5---X-|-----X3~~-5--------X-3~--5-----|

Bridge1:
d|-------------------------------|
a|-------------------------------|
F|-7~~~-------5~--7~---------5---|
C|-7~~--3~~-5-5~--7~---3~--5-5---|
G|-5~~-X3~~-5-3~--5~-X-3~--5-3-X-|
D|-----X1~~-3--------X-1~--3---X-|
A|-------------------------------|

d|----------------------------|
a|----------------------------|
F|----------------------------|
C|-12~~-10~~------10----12-10-|
G|-----------12~~----12-------|
D|----------------------------|
A|----------------------------|

Bridge2:
d|-----|
a|-----|
F|-----|
C|-9~~-|	(tremolo pick with wah-wah)
G|-9~~-|
D|-7~~-|

d|------------------|
a|------------------|
F|------------------|
C|------------------|
G|------------------|
D|------------------|
A|-10//121212121212-|

Bridge3:
d|--------------------------------------------------------------------------------|
a|--------------------------------------------------------------------------------|
F|--------------------------------------------------------------------------------|
C|--------------------------------------------------------------------------------|
G|--------------------------------------------------------------------------------|
D|--------------------------------------------------------------------------------|
A|-12^\\\\\\\\\\\\\\-13^\\\\\\\\\\\\\\\\-14^\\\\\\\\\\\\\\\\-15^\\\\\\\\\\\\\\\\\-|

Chorus:
d|-------------------------------|-------------------------------|
a|-------------------------------|-------------------------------|
F|-------------------------------|-------------------------------|
C|-9~~---------7~--9~--------7~--|-9~~---------7~--9~--------7~--|
G|-9~~--5~~-7--7~--9~--5~--7-7~--|-9~~--5~~-7--7~--9~X-5~--7-7~~-|
D|-7~~-X5~~-7--5~--7~X-5~--7-5~X-|-7~~-X5~~-7--5~--7~X-5~--7-5~~-|
A|-----X3~~-5--------X-3~--5---X-|-----X3~~-5--------X-3~--5-----|

d|------------------------------------------|------------------------------------------------|
a|-1010101010101010101010101010101012121010-|-10101010101010101010101010101212101010---------|
F|------------------------------------------|---------------------------------------11119977-|
C|------------------------------------------|------------------------------------------------|
G|------------------------------------------|------------------------------------------------|
D|------------------------------------------|------------------------------------------------|
A|------------------------------------------|------------------------------------------------|

Outro:
d|-------------------------------|-------------------------------|
a|-------------------------------|-------------------------------|
F|-------------------------------|-------------------------------|
C|-9~~---------7~--9~--------7~--|-9~~---------7~--9~--------7~--|
G|-9~~--5~~-7--7~--9~--5~--7-7~--|-9~~--5~~-7--7~--9~X-5~--7-7~~-|
D|-7~~-X5~~-7--5~--7~X-5~--7-5~X-|-7~~-X5~~-7--5~--7~X-5~--7-5~~-|
A|-----X3~~-5--------X-3~--5---X-|-----X3~~-5--------X-3~--5-----|

d|-----|
a|-----|
F|-----|
C|-9~~-|	(tremolo pick with wah-wah)
G|-9~~-|
D|-7~~-|

--------------------------------------------------------

3.Hypocrites

Tuning : 7 String Tuned Low to High (A D G C F a d)

Vocal: Jonathan Houseman Davis 'Hiv'
Guitar: James Randal Shaffer 'Munky'
Bass: Reginald Arvizu 'Fieldy'
Drums: David Silveria

Intro:
d|------------------------|-------------------------|------------------------|
a|------------------------|-------------------------|------------------------|
F|------------------------|-------------------------|------------------------|
C|------------------------|-------------------------|------------------------|
G|-7-7-5h7-77-888-555-/10-|-7-7-5h7-77-101010-55555-|-7-7-5h7-77-888-555-/10-|
D|------------------------|-------------------------|------------------------|
A|------------------------|-------------------------|------------------------|

d|-----------------------|--------------------------|-------------------------|
a|-----------------------|--------------------------|-------------------------|
F|-----------------------|--------------------------|-------------------------|
C|-----------------------|--------------------------|-------------------------|
G|-7-7-5h7-77-555-888-10-|-7-7-5h7-77-888-555-10-10-|-7-7-5h7-77-101010-888-5-|
D|-----------------------|--------------------------|-------------------------|
A|-----------------------|--------------------------|-------------------------|

d|------------------------|-----------------------|-------------------------|
a|------------------------|-----------------------|-------------------------|
F|------------------------|-----------------------|-------------------------|
C|------------------------|-----------------------|-------------------------|
G|-7-7-5h7-77-888-555-/10-|-7-7-5h7-77-555-888-10-|-7-7--5h7-77-888-555-/10-|
D|------------------------|-----------------------|-------------------------|
A|------------------------|-----------------------|-------------------------|

d|-------------------------|-------------------------|------------------------|
a|-------------------------|-------------------------|------------------------|
F|-------------------------|-------------------------|------------------------|
C|-------------------------|-------------------------|------------------------|
G|-7-7-5h7-77-101010-55555-|-7-7--5h7-77-888-555-/10-|-7-7--5h7-77-555-888-10-|
D|-------------------------|-------------------------|------------------------|
A|-------------------------|-------------------------|------------------------|

d|---------------|
a|---------------|
F|---------------|
C|-12~~~~-11~~~~-|	(guitar in the background)
G|---------------|
D|---------------|
A|---------------|

Verse: (with no lyrics)
d|-----------------------|-------------------------|
a|-----------------------|-------------------------|
F|-----------------------|-------------------------|
C|-----------------------|-------------------------|
G|-----------------------|-------------------------|
D|-7-7-5/7-77-8-8-5-5-10-|-7-7-5/7-77-10~-10-8-8-6-|
A|-5-5-3/5-55-6-6-3-3- 8-|-5-5-3/5-55- 8~- 8-6-6-4-|
           ..   .   .              ..      .   .     .palm mute

d|-----------------------|-----------------------|
a|-----------------------|-----------------------|
F|-----------------------|-----------------------|
C|-----------------------|-----------------------|
G|-----------------------|-----------------------|
D|-7-7-5/7-77-8-8-5-5-10-|---7-5/7-77-6~X-8~X-10-|
A|-5-5-3/5-55-6-6-3-3- 8-|---5-3/5-55-4~X-6~X- 8-|
           ..   .   .              ..             .palm mute

d|-----------|
a|-----------|
F|-9-999-9-99|
C|-----------|	(background guitar)
G|-----------|
D|-----------|
A|-----------|

Verse:
d|-----------------------|-------------------------|
a|-----------------------|-------------------------|
F|-----------------------|-------------------------|
C|-----------------------|-------------------------|
G|-----------------------|-------------------------|
D|-7-7-5/7-77-8-8-5-5-10-|-7-7-5/7-77-10~-10-8-8-6-|
A|-5-5-3/5-55-6-6-3-3- 8-|-5-5-3/5-55- 8~- 8-6-6-4-|
           ..   .   .              ..      .   .     .palm mute

d|-----------------------|-----------------------|
a|-----------------------|-----------------------|
F|-----------------------|-----------------------|
C|-----------------------|-----------------------|
G|-----------------------|-----------------------|
D|-7-7-5/7-77-8-8-5-5-10-|---7-5/7-77-6~X-8~X-10-|
A|-5-5-3/5-55-6-6-3-3- 8-|---5-3/5-55-4~X-6~X- 8-|
           ..   .   .              ..             .palm mute

Verse-end:
d|----------------------------|
a|----------------------------|
F|----------------------------|
C|----------------------------|
G|----------------------------|
D|----------------------------|
A|-5--5h6r5r3-5-5h6r5r3-5-5-5-|

Pre-Chorus:
d|----------------------------|
a|----------------------------|
F|----------------------------|
C|----------------------------|
G|----------------------------|
D|-6-7-6-----6-7-6-----10~-7~-|
A|-------8-5-------8-5- 8~-5~-|

d|------------------------------|
a|------------------------------|
F|------------------------------|
C|-8-9-8------8-9-8-------------|
G|-------10-7-------10-7--------|
D|-----------------------10~-7~-|
A|----------------------- 8~-5~-|

Fill1:
d|---------------------|
a|---------------------|
F|---------------------|
C|---------------------|
G|---------------------|
D|-6-7-6-----6-7-6-----|
A|-------8-5-------8-5-|

d|-----------------------|
a|-----------------------|
F|-----------------------|
C|-8-9-8------8-9-8------|
G|-------10-7-------10-7-|
D|-----------------------|
A|-----------------------|

Chorus:
d|-----------------------|-------------------------|
a|-----------------------|-------------------------|
F|-----------------------|-------------------------|
C|-----------------------|-------------------------|
G|-----------------------|-------------------------|
D|-7-7-5/7-77-8-8-5-5-10-|-7-7-5/7-77-10~-10-8-8-6-|
A|-5-5-3/5-55-6-6-3-3- 8-|-5-5-3/5-55- 8~- 8-6-6-4-|
           ..   .   .              ..      .   .     .palm mute

d|-----------------------|
a|-----------------------|
F|-----------------------|
C|-----------------------|
G|-----------------------|
D|-7-7-5/7-77-8-8-5-5-10-|
A|-5-5-3/5-55-6-6-3-3- 8-|
           ..   .   .      .palm mute

d|-------------------------------------------|
a|-------------------------------------------|
F|-14~~13~~-(19~~)(17~~)-14~~-13~~-----------|
C|---------------------------------12~~-10~~-|	(background guitar)
G|-----------17~~--15~~~---------------------|
D|-------------------------------------------|
A|-------------------------------------------|

Verse: (with no lyrics)
d|-----------------------|-------------------------|
a|-----------------------|-------------------------|
F|-----------------------|-------------------------|
C|-----------------------|-------------------------|
G|-----------------------|-------------------------|
D|-7-7-5/7-77-8-8-5-5-10-|-7-7-5/7-77-10~-10-8-8-6-|
A|-5-5-3/5-55-6-6-3-3- 8-|-5-5-3/5-55- 8~- 8-6-6-4-|
           ..   .   .              ..      .   .     .palm mute

d|-----------------------|-----------------------|
a|-----------------------|-----------------------|
F|-----------------------|-----------------------|
C|-----------------------|-----------------------|
G|-----------------------|-----------------------|
D|-7-7-5/7-77-8-8-5-5-10-|---7-5/7-77-6~X-8~X-10-|
A|-5-5-3/5-55-6-6-3-3- 8-|---5-3/5-55-4~X-6~X- 8-|
           ..   .   .              ..             .palm mute

Verse:
d|-----------------------|-------------------------|
a|-----------------------|-------------------------|
F|-----------------------|-------------------------|
C|-----------------------|-------------------------|
G|-----------------------|-------------------------|
D|-7-7-5/7-77-8-8-5-5-10-|-7-7-5/7-77-10~-10-8-8-6-|
A|-5-5-3/5-55-6-6-3-3- 8-|-5-5-3/5-55- 8~- 8-6-6-4-|
           ..   .   .              ..      .   .     .palm mute

d|-----------------------|-----------------------|
a|-----------------------|-----------------------|
F|-----------------------|-----------------------|
C|-----------------------|-----------------------|
G|-----------------------|-----------------------|
D|-7-7-5/7-77-8-8-5-5-10-|---7-5/7-77-6~X-8~X-10-|
A|-5-5-3/5-55-6-6-3-3- 8-|---5-3/5-55-4~X-6~X- 8-|
           ..   .   .              ..             .palm mute

Verse-end:
d|----------------------------|
a|----------------------------|
F|----------------------------|
C|----------------------------|
G|----------------------------|
D|----------------------------|
A|-5--5h6r5r3-5-5h6r5r3-5-5-5-|

Pre-Chorus:
d|----------------------------|
a|----------------------------|
F|----------------------------|
C|----------------------------|
G|----------------------------|
D|-6-7-6-----6-7-6-----10~-7~-|
A|-------8-5-------8-5- 8~-5~-|

d|------------------------------|
a|------------------------------|
F|------------------------------|
C|-8-9-8------8-9-8-------------|
G|-------10-7-------10-7--------|
D|-----------------------10~-7~-|
A|----------------------- 8~-5~-|

Fill1:
d|---------------------|
a|---------------------|
F|---------------------|
C|---------------------|
G|---------------------|
D|-6-7-6-----6-7-6-----|
A|-------8-5-------8-5-|

d|-----------------------|
a|-----------------------|
F|-----------------------|
C|-8-9-8------8-9-8------|
G|-------10-7-------10-7-|
D|-----------------------|
A|-----------------------|

Chorus:
d|-----------------------|-------------------------|
a|-----------------------|-------------------------|
F|-----------------------|-------------------------|
C|-----------------------|-------------------------|
G|-----------------------|-------------------------|
D|-7-7-5/7-77-8-8-5-5-10-|-7-7-5/7-77-10~-10-8-8-6-|
A|-5-5-3/5-55-6-6-3-3- 8-|-5-5-3/5-55- 8~- 8-6-6-4-|
           ..   .   .              ..      .   .     .palm mute

d|-----------------------|
a|-----------------------|
F|-----------------------|
C|-----------------------|
G|-----------------------|
D|-7-7-5/7-77-8-8-5-5-10-|
A|-5-5-3/5-55-6-6-3-3- 8-|
           ..   .   .      .palm mute

d|-------------------------------------------|
a|-------------------------------------------|
F|-14~~13~~-(19~~)(17~~)-14~~-13~~-----------|
C|---------------------------------12~~-10~~-|	(background guitar)
G|-----------17~~--15~~~---------------------|
D|-------------------------------------------|
A|-------------------------------------------|

Verse: (with no lyrics)
d|-----------------------|-------------------------|
a|-----------------------|-------------------------|
F|-----------------------|-------------------------|
C|-----------------------|-------------------------|
G|-----------------------|-------------------------|
D|-7-7-5/7-77-8-8-5-5-10-|-7-7-5/7-77-10~-10-8-8-6-|
A|-5-5-3/5-55-6-6-3-3- 8-|-5-5-3/5-55- 8~- 8-6-6-4-|
           ..   .   .              ..      .   .     .palm mute

d|-----------------------|-----------------------|
a|-----------------------|-----------------------|
F|-----------------------|-----------------------|
C|-----------------------|-----------------------|
G|-----------------------|-----------------------|
D|-7-7-5/7-77-8-8-5-5-10-|---7-5/7-77-6~X-8~X-10-|
A|-5-5-3/5-55-6-6-3-3- 8-|---5-3/5-55-4~X-6~X- 8-|
           ..   .   .              ..             .palm mute

Bridge:
d|------------------------------|
a|------------------------------|
F|------------------------------|
C|-8-9-8------8-9-8-------------|
G|-------10-7-------10-7--------|
D|-----------------------10~-7~-|
A|----------------------- 8~-5~-|

Pre-Chorus:
d|----------------------------|
a|----------------------------|
F|----------------------------|
C|----------------------------|
G|----------------------------|
D|-6-7-6-----6-7-6-----10~-7~-|
A|-------8-5-------8-5- 8~-5~-|

d|------------------------------|
a|------------------------------|
F|------------------------------|
C|-8-9-8------8-9-8-------------|
G|-------10-7-------10-7--------|
D|-----------------------10~-7~-|
A|----------------------- 8~-5~-|

d|-------------------------------------------|
a|-------------------------------------------|
F|-14~~13~~-(19~~)(17~~)-14~~-13~~-----------|
C|---------------------------------12~~-10~~-|	(background guitar)
G|-----------17~~--15~~~---------------------|
D|-------------------------------------------|
A|-------------------------------------------|

Verse:
d|-----------------------|-------------------------|
a|-----------------------|-------------------------|
F|-----------------------|-------------------------|
C|-----------------------|-------------------------|
G|-----------------------|-------------------------|
D|-7-7-5/7-77-8-8-5-5-10-|-7-7-5/7-77-10~-10-8-8-6-|
A|-5-5-3/5-55-6-6-3-3- 8-|-5-5-3/5-55- 8~- 8-6-6-4-|
           ..   .   .              ..      .   .     .palm mute

d|-----------------------|-----------------------|
a|-----------------------|-----------------------|
F|-----------------------|-----------------------|
C|-----------------------|-----------------------|
G|-----------------------|-----------------------|
D|-7-7-5/7-77-8-8-5-5-10-|---7-5/7-77-6~X-8~X-10-|
A|-5-5-3/5-55-6-6-3-3- 8-|---5-3/5-55-4~X-6~X- 8-|
           ..   .   .              ..             .palm mute

Outro:
d|-----------------------|-------------------------|
a|-----------------------|-------------------------|
F|-----------------------|-------------------------|
C|-----------------------|-------------------------|
G|-----------------------|-------------------------|
D|-7-7-5/7-77-8-8-5-5-10-|-7-7-5/7-77-10~-10-8-8-6-|
A|-5-5-3/5-55-6-6-3-3- 8-|-5-5-3/5-55- 8~- 8-6-6-4-|
           ..   .   .              ..      .   .     .palm mute

d|-----------------------|-----------------------|
a|-----------------------|-----------------------|
F|-----------------------|-----------------------|
C|-----------------------|-----------------------|
G|-----------------------|-----------------------|
D|-7-7-5/7-77-8-8-5-5-10-|---7-5/7-77-6~X-8~X-10-|
A|-5-5-3/5-55-6-6-3-3- 8-|---5-3/5-55-4~X-6~X- 8-|
           ..   .   .              ..             .palm mute

d|-------------------------------------------|
a|-------------------------------------------|
F|-14~~13~~-(19~~)(17~~)-14~~-13~~-----------|
C|---------------------------------12~~-10~~-|	(background guitar)
G|-----------17~~--15~~~---------------------|
D|-------------------------------------------|
A|-------------------------------------------|

--------------------------------------------------------------

4.Souvenir

Tuning : 7 String Tuned Low to High (A D G C F a d)

Vocal: Jonathan Houseman Davis 'Hiv'
Guitar: James Randal Shaffer 'Munky'
Bass: Reginald Arvizu 'Fieldy'
Drums: David Silveria

Intro:
d|---------------------------------|
a|---------------------------------|
F|---------------------------------|
C|---------------------------------|
G|---------------------------------|
D|---------------------------------|
A|-5~~--533-633-53-5~~--533-633-53-|

Pre-Verse:
d|------------------------|------------------------|
a|------8-8-8-8-----10-11-|------8-8-8-8-----5--\3-|
F|------------------------|------------------------|
C|------------------------|------------------------|
G|-7-7----------7-7-------|-7-7----------7-7-------|
D|-7-7----------7-7-------|-7-7----------7-7-------|
A|-5-5----------5-5-------|-5-5----------5-5-------|

d|------------------------|------------------------|
a|------------------------|------------------------|
F|------------------------|------------------------|
C|------------------------|------------------------|
G|-7-7--10~~~~-7-7--12-13-|-7-7--10~~~~-7-7--7--\5-|
D|-7-7--10~~~~-7-7--12-13-|-7-7--10~~~~-7-7--7--\5-|
A|-5-5-- 8~~~~-5-5--10-11-|-5-5-- 8~~~~-5-5--5--\3-|

Verse:
d|---------------------------------|
a|---------------------------------|
F|---------------------------------|
C|---------------------------------|
G|---------------------------------|
D|---------------------------------|
A|-5~~--533-633-53-5~~--533-633-53-|

Pre-Chorus:
d|-----------------------|
a|-----------------------|
F|-----------------------|
C|-----------------------|
G|-----------------------|
D|-----------------------|
A|-5\\4-4\\3-3\\2-2-2345-|

d|-------|-------|-------|---------|
a|-------|-------|-------|---------|
F|-14~~~~|-14~~~~|-13~~~~|-13/14~~-|	(chorus or flanger pedal)
C|-------|-------|-------|---------|
G|-------|-------|-------|---------|
D|-------|-------|-------|---------|
A|-------|-------|-------|---------|

Chorus:
d|------------------------|------------------------|
a|------8-8-8-8-----10-11-|------8-8-8-8-----5--\3-|
F|------------------------|------------------------|
C|------------------------|------------------------|
G|-7-7----------7-7-------|-7-7----------7-7-------|
D|-7-7----------7-7-------|-7-7----------7-7-------|
A|-5-5----------5-5-------|-5-5----------5-5-------|

d|------------------------|------------------------|
a|------------------------|------------------------|
F|------------------------|------------------------|
C|------------------------|------------------------|
G|-7-7--10~~~~-7-7--12-13-|-7-7--10~~~~-7-7--7--\5-|
D|-7-7--10~~~~-7-7--12-13-|-7-7--10~~~~-7-7--7--\5-|
A|-5-5-- 8~~~~-5-5--10-11-|-5-5-- 8~~~~-5-5--5--\3-|

Verse:
d|---------------------------------|
a|---------------------------------|
F|---------------------------------|
C|---------------------------------|
G|---------------------------------|
D|---------------------------------|
A|-5~~--533-633-53-5~~--533-633-53-|

Pre-Chorus:
d|-----------------------|
a|-----------------------|
F|-----------------------|
C|-----------------------|
G|-----------------------|
D|-----------------------|
A|-5\\4-4\\3-3\\2-2-2345-|

d|-------|-------|-------|---------|
a|-------|-------|-------|---------|
F|-14~~~~|-14~~~~|-13~~~~|-13/14~~-|	(chorus or flanger pedal)
C|-------|-------|-------|---------|
G|-------|-------|-------|---------|
D|-------|-------|-------|---------|
A|-------|-------|-------|---------|

Chorus:
d|------------------------|------------------------|
a|------8-8-8-8-----10-11-|------8-8-8-8-----5--\3-|
F|------------------------|------------------------|
C|------------------------|------------------------|
G|-7-7----------7-7-------|-7-7----------7-7-------|
D|-7-7----------7-7-------|-7-7----------7-7-------|
A|-5-5----------5-5-------|-5-5----------5-5-------|

d|------------------------|------------------------|
a|------------------------|------------------------|
F|------------------------|------------------------|
C|------------------------|------------------------|
G|-7-7--10~~~~-7-7--12-13-|-7-7--10~~~~-7-7--7--\5-|
D|-7-7--10~~~~-7-7--12-13-|-7-7--10~~~~-7-7--7--\5-|
A|-5-5-- 8~~~~-5-5--10-11-|-5-5-- 8~~~~-5-5--5--\3-|

Bridge:
d|-----------------------------------------------------|
a|-----------------------------------------------------|
F|-12~~~-10~~-12~~~-10~~-12~~~-10~~--------------------|
C|----------------------------------12~~~---10~~~-(8~)-|
G|-----------------------------------------------------|
D|-----------------------------------------------------|
A|-----------------------------------------------------| 

d|-2222222222222222\\\\\\\\\(13)-|-22222222^22222222\\\\\\\\\(13)-|
a|-------------------------------|--------------------------------|
F|-------------------------------|--------------------------------|
C|-------------------------------|--------------------------------|
G|-------------------------------|--------------------------------|
D|-------------------------------|--------------------------------|
A|-------------------------------|--------------------------------|

                   bend this note half note up 
                   \            
d|-2222222222222222-242424242424-2424242424\\\\\\\\\\\\\(17)-|
a|------------------ ^          -----------------------------|
F|-----------------------------------------------------------|
C|-----------------------------------------------------------|
G|-----------------------------------------------------------|
D|-----------------------------------------------------------|
A|-----------------------------------------------------------|

Pre-Chorus:
d|-----------------------|
a|-----------------------|
F|-----------------------|
C|-----------------------|
G|-----------------------|
D|-----------------------|
A|-5\\4-4\\3-3\\2-2-2345-|

Chorus:
d|------------------------|------------------------|
a|------8-8-8-8-----10-11-|------8-8-8-8-----5--\3-|
F|------------------------|------------------------|
C|------------------------|------------------------|
G|-7-7----------7-7-------|-7-7----------7-7-------|
D|-7-7----------7-7-------|-7-7----------7-7-------|
A|-5-5----------5-5-------|-5-5----------5-5-------|

d|------------------------|------------------------|
a|------------------------|------------------------|
F|------------------------|------------------------|
C|------------------------|------------------------|
G|-7-7--10~~~~-7-7--12-13-|-7-7--10~~~~-7-7--7--\5-|
D|-7-7--10~~~~-7-7--12-13-|-7-7--10~~~~-7-7--7--\5-|
A|-5-5-- 8~~~~-5-5--10-11-|-5-5-- 8~~~~-5-5--5--\3-|

-------------------------------------------------------------

5.10 Or A 2-Way

N/A

-------------------------------------------------------------

6.Throw Me Away

Tuning : 7 String Tuned Low to High (A D G C F a d)

Vocal: Jonathan Houseman Davis 'Hiv'
Guitar: James Randal Shaffer 'Munky'
Bass: Reginald Arvizu 'Fieldy'
Drums: David Silveria

Verse:
d|-----------------------------------------------------------|
a|-----------------------------------------------------------|
F|-----------------------------------------------------------|
C|-16~~~-17~~~-19~~~-20~~-19~~---16~~~-17~~~-19~~~-20~~-22~~-|
G|-----------------------------------------------------------|
D|-----------------------------------------------------------|
A|-----------------------------------------------------------|

Chorus:
d|----------------------|
a|----------------------|
F|----------------------|
C|-4~~~-5~~~-7~~~-8~-5~-|
G|-4~~~-5~~~-7~~~-8~-5~-|
D|-2~~~-3~~~-5~~~-6~-3~-|
A|----------------------|

d|--------------------------------------------------|
a|--------------------------------------------------|
F|-111111111111121212121212141414141414151515141414-|
C|-xxxxxxxxxxxxxxxxxxxxxxxxxxxxxxxxxxxxxxxxxxxxxxxx-|
G|- 9 9 9 9 9 9101010101010121212121212131313121212-|
D|--------------------------------------------------|
A|--------------------------------------------------|

d|--------------------------------------------------|
a|--------------------------------------------------|
F|-111111111111121212121212141414141414151515171717-|
C|-xxxxxxxxxxxxxxxxxxxxxxxxxxxxxxxxxxxxxxxxxxxxxxxx-|
G|- 9 9 9 9 9 9101010101010121212121212131313151515-|
D|--------------------------------------------------|
A|--------------------------------------------------|

Verse:
d|-----------------------------------------------------------|
a|-----------------------------------------------------------|
F|-----------------------------------------------------------|
C|-16~~~-17~~~-19~~~-20~~-19~~---16~~~-17~~~-19~~~-20~~-22~~-|
G|-----------------------------------------------------------|
D|-----------------------------------------------------------|
A|-----------------------------------------------------------|

Chorus:
d|----------------------|
a|----------------------|
F|----------------------|
C|-4~~~-5~~~-7~~~-8~-5~-|
G|-4~~~-5~~~-7~~~-8~-5~-|
D|-2~~~-3~~~-5~~~-6~-3~-|
A|----------------------|

d|--------------------------------------------------|
a|--------------------------------------------------|
F|-111111111111121212121212141414141414151515141414-|
C|-xxxxxxxxxxxxxxxxxxxxxxxxxxxxxxxxxxxxxxxxxxxxxxxx-|
G|- 9 9 9 9 9 9101010101010121212121212131313121212-|
D|--------------------------------------------------|
A|--------------------------------------------------|

d|--------------------------------------------------|
a|--------------------------------------------------|
F|-111111111111121212121212141414141414151515171717-|
C|-xxxxxxxxxxxxxxxxxxxxxxxxxxxxxxxxxxxxxxxxxxxxxxxx-|
G|- 9 9 9 9 9 9101010101010121212121212131313151515-|
D|--------------------------------------------------|
A|--------------------------------------------------|

Bridge:
d|--------|
a|--------|
F|--------|
C|-4~~^~~-|
G|--------|
D|--------|
A|--------|

d|--------------------------------|--------------------------------|
a|--------------------------------|--------------------------------|
F|--------------------------------|--------------------------------|
C|-444444444777777766666662222222-|-444444444777777766666662222222-|
G|--------------------------------|--------------------------------|
D|--------------------------------|--------------------------------|
A|--------------------------------|--------------------------------|

d|--------------------------------------|---------------------------------------------|
a|--------------------------------------|---------------------------------------------|
F|--------------------------------------|---------------------------------------------|
C|-777777779777799777107999999109109997-|-777777779777799777107999999109109997-7~~^~~-|
G|--------------------------------------|---------------------------------------------|
D|--------------------------------------|---------------------------------------------|
A|--------------------------------------|---------------------------------------------|

Bridge2:
d|------------------------------------------------------------|
a|------------------------------------------------------------|
F|------------------------------------------------------------|
C|-12-12-12-1212-12-12-12-1212-17-17-17-17-17-1717-1414141515-|
G|------------------------------------------------------------|
D|------------------------------------------------------------|
A|------------------------------------------------------------|

d|-----------------------------------------------------------|
a|-----------------------------------------------------------|
F|-----------------------------------------------------------|
C|-16~~~-17~~~-19~~~-20~~-19~~---16~~~-17~~~-19~~~-20~~-22~~-|
G|-----------------------------------------------------------|
D|-----------------------------------------------------------|
A|-----------------------------------------------------------|

Chorus:
d|------------------------------------------------------------|
a|------------------------------------------------------------|
F|------------------------------------------------------------|
C|-12-12-12-1212-12-12-12-1212-17-17-17-17-17-1717-1414141515-|
G|------------------------------------------------------------|
D|------------------------------------------------------------|
A|------------------------------------------------------------|

d|----------------------|
a|----------------------|
F|----------------------|
C|-4~~~-5~~~-7~~~-8~-5~-|
G|-4~~~-5~~~-7~~~-8~-5~-|
D|-2~~~-3~~~-5~~~-6~-3~-|
A|----------------------|

d|--------------------------------------------------|
a|--------------------------------------------------|
F|-111111111111121212121212141414141414151515141414-|
C|-xxxxxxxxxxxxxxxxxxxxxxxxxxxxxxxxxxxxxxxxxxxxxxxx-|
G|- 9 9 9 9 9 9101010101010121212121212131313121212-|
D|--------------------------------------------------|
A|--------------------------------------------------|

d|--------------------------------------------------|
a|--------------------------------------------------|
F|-111111111111121212121212141414141414151515171717-|
C|-xxxxxxxxxxxxxxxxxxxxxxxxxxxxxxxxxxxxxxxxxxxxxxxx-|
G|- 9 9 9 9 9 9101010101010121212121212131313151515-|
D|--------------------------------------------------|
A|--------------------------------------------------|

----------------------------------------------------------

7.Love Song

Tuning: (ADGCFad)

Intro 1
Do a few in-rhythm strums of this power chord.

|--------------------------------------------------||
|--------------------------------------------------||
|--------------------------------------------------||
|--------------------------------------------------||
|--4-----------------------------------------------||
|--2-----------------------------------------------||
|--------------------------------------------------||

Intro 2/Verse

(Sounds pretty good with the pick up switch flicked closest to you)

Repeat 8 times or so

|----------------------------------------------------------||
|----------------------------------------------------------||
|----------------------------------------------------------||
|----------------------------------------------------------||
|-4------2-----2----------2--------2-2---------------------||
|-2--------------------------------------------------------||
|-----0-----0---------0--------0---------0-----------------||

Pre-Chorus
(Don't do the three 355 power chords on the fourth repitition)
|--------------------------------------------------||
|--------------------------------------------------||
|--------------------------------------------------||
|---7777---88-8---55-5-----------------------------||
|---7777---88-8---55-5-----------------------------||
|---5555---66-6---33-3-----------------------------||
|--------------------------------------------------||
           ..     ..         < Palm Muted.

Chorus


|--------------------------------------------------||
|--------------------------------------------------||
|--------------------------------------------------||
|--------------------------------------------------||
|--------------------------------------------------||
|--------------------------------------------------||
|--345-353-35-42321--------------------------------||

Verse
(Repeat this about 4 times)
|----------------------------------------------------------||
|----------------------------------------------------------||
|----------------------------------------------------------||
|----------------------------------------------------------||
|-4------2-----2----------2--------2-2---------------------||
|-2--------------------------------------------------------||
|-----0-----0---------0--------0---------0-----------------||

Pre-Chorus
)
|--------------------------------------------------||
|--------------------------------------------------||
|--------------------------------------------------||
|---7777---88-8---55-5-----------------------------||
|---7777---88-8---55-5-----------------------------||
|---5555---66-6---33-3-----------------------------||
|--------------------------------------------------||
           ..     ..         < Palm Muted.
(Don't do the three 355 power chords on the fourth repitition)
Instead, do this quickly-

Fill

|--------------------------------------------------||
|--------------------------------------------------||
|--------------------------------------------------||
|--------------------------------------------------||
|--------------------------------------------------||
|--------------------------------------------------||
|---33332------------------------------------------||
    .....       < Palm Muted.

Play the chorus.

First bridge-
(All Open notes are palm muted)

Play this twice.

|--------------------------------------------------||
|--------------------------------------------------||
|--------------------------------------------------||
|-------5-----55----------7-----77-----------------||
|-------5-----55----------7-----77-----------------||
|--0-00-3--00-33-----0-00-5--00-55-----------------||
|--------------------------------------------------||


|--------------------------------------------------||
|--------------------------------------------------||
|--------------------------------------------------||
|-------6------66-----------4-----44---------------||
|-------6------66-----------4-----44---------------||
|--0-00-4--00--44-----0-00--2-00--22---------------||
|--------------------------------------------------||

Bridge 2 - Sadly, i haven't figured this part out yet, if anybody has, email me
at "take_a_look_in_the_mirror@hotmail.co.uk"

After Bridge 2 Jonathan sings the chorus but with no instruments playing behind him.

Outro = Play The Chorus

End.

-------------------------------------------------------

8.Open Up

N/A

-------------------------------------------------------

9.Coming Undone

Tuning : 7 String Tuned Low to High (A D G C F a d)

Vocal: Jonathan Houseman Davis 'Hiv'
Guitar: James Randal Shaffer 'Munky'
Bass: Reginald Arvizu 'Fieldy'
Drums: David Silveria

Intro:
d|----------------------------|
a|----------------------------|
F|----------------------------|
C|----------------------------|
G|----------------------------|
D|----------------------------|
A|-555-5-555-5-555-5-555-5-55-|

Verse:
d|----------------------------|
a|----------------------------|
F|----------------------------|
C|----------------------------|
G|----------------------------|
D|----------------------------|
A|-555-5-555-5-555-5-555-5-55-|

Pre-Chorus:
d|---------------------------|-------------------------|
a|---------------------------|-------------------------|
F|---------------------------|-------------------------|
C|-9-9-----------------------|-9-9---------------7^~~~-|
G|-7-7-10-10-------------8~~-|-7-7-10-10---------------|
D|----- 8- 8-10-10-7-(7)-6~~-|----- 8- 8-10-10-7-------|
A|----------- 8- 8-5-(5)-----|----------- 8- 8-5-------|

Chorus:
d|-------------------|-----------------|
a|-------------------|-----------------|
F|-------------------|-----------------|
C|-14~~--------------|-14~~------------|
G|-xx---7-7-8-8-10\8-|-xx---7-7-8-8-5~-|
D|-12~~-7-7-8-8-10\8-|-12~~-7-7-8-8-5~-|
A|------5-5-6-6- 8\6-|------5-5-6-6-3~-|

Fill1:
d|--------------|
a|--------------|
F|--------------|
C|--------------|
G|--------------|
D|-7777----7777-|
A|-5555----5555-|
   ....    ....   .palm mute

Verse:
d|----------------------------|
a|----------------------------|
F|----------------------------|
C|----------------------------|
G|----------------------------|
D|----------------------------|
A|-555-5-555-5-555-5-555-5-55-|

Pre-Chorus:
d|---------------------------|-------------------------|
a|---------------------------|-------------------------|
F|---------------------------|-------------------------|
C|-9-9-----------------------|-9-9---------------7^~~~-|
G|-7-7-10-10-------------8~~-|-7-7-10-10---------------|
D|----- 8- 8-10-10-7-(7)-6~~-|----- 8- 8-10-10-7-------|
A|----------- 8- 8-5-(5)-----|----------- 8- 8-5-------|

Chorus:
d|-------------------|-----------------|
a|-------------------|-----------------|
F|-------------------|-----------------|
C|-14~~--------------|-14~~------------|
G|-xx---7-7-8-8-10\8-|-xx---7-7-8-8-5~-|
D|-12~~-7-7-8-8-10\8-|-12~~-7-7-8-8-5~-|
A|------5-5-6-6- 8\6-|------5-5-6-6-3~-|

Bridge1:
d|-------------------------------------|
a|-------------------------------------|
F|-2020202020202020--------------------|
C|-xxxxxxxxxxxxxxxx--9-9--10-10--12-12-|
G|-1818181818181818--9-9--10-10--12-12-|
D|-------------------7-7-- 8- 8--10-10-|
A|-------------------------------------|
                     . .   .  .   .  .    .palm mute

Bridge2:
d|-----------------|
a|-----------------|
F|-----------------|
C|-----------------|
G|-----------------|
D|-----------------|
A|-5^~~5~\4~\3~\2~-|

Chorus:
d|-------------------|-----------------|
a|-------------------|-----------------|
F|-------------------|-----------------|
C|-14~~--------------|-14~~------------|
G|-xx---7-7-8-8-10\8-|-xx---7-7-8-8-5~-|
D|-12~~-7-7-8-8-10\8-|-12~~-7-7-8-8-5~-|
A|------5-5-6-6- 8\6-|------5-5-6-6-3~-|

d|-161616161616202020191919-|
a|--------------------------|
F|--------------------------|
C|--------------------------|
G|--------------------------|
D|--------------------------|
A|--------------------------|

Outro:
d|-------|
a|-------|
F|-------|
C|-------|
G|-------|
D|-------|
A|-5-/5~-|

---------------------------------------------------

10.Getting Off

Tuning : 7 String Tuned Low to High (A D G C F a d)

Vocal: Jonathan Houseman Davis 'Hiv'
Guitar: James Randal Shaffer 'Munky'
Bass: Reginald Arvizu 'Fieldy'
Drums: David Silveria

Intro:
d|------------|
a|------------|
F|------------|
C|------------|
G|------------|
D|-2-2-2-2222-|
A|-0-0-0-0000-|
   . . . ....   .palm mute

d|---------------------------------------------------------|
a|---------------------------------------------------------|
F|-11111111-11111111-12121212-12121212-8888-8888-7777-7777-|
C|-xxxxxxxx-xxxxxxxx-xxxxxxxx-xxxxxxxx-xxxx-xxxx-xxxx-xxxx-|
G|- 9 9 9 9- 9 9 9 9-10101010-10101010-6666-6666-5555-5555-|
D|---------------------------------------------------------|
A|---------------------------------------------------------|

Pre-Verse:
d|------------|
a|------------|
F|------------|
C|------------|
G|------------|
D|-2-2-2-2222-|
A|-0-0-0-0000-|
   . . . ....   .palm mute

Verse:
d|----------------|
a|----------------|
F|----------------|
C|-----9-9-99\8\7-|
G|-----x-x-xxxxxx-|
D|-222-7-7-77\6\5-|
A|-000-0-0--------|

Pre-Chorus:
d|------------------------------|-----------------------------|
a|------------------------------|-----------------------------|
F|------------------------------|-----------------------------|
C|-9--9109-9109-9109--910910910-|-9--9109-9109-9109--91012109-|
G|-x--xxxx-xxxx-xxxx--xxxxxxxxx-|-x--xxxx-xxxx-xxxx--xxxxxxxx-|
D|-7~-7 87-7 87-7 87--7 87 87 8-|-7~-7 87-7 87-7 87--7 810 87-|
A|------------------------------|-----------------------------|

d|-----------------------------|--------------|
a|-----------------------------|--------------|
F|-----------------------------|--------------|
C|-12~~~-14~~-9~~-9/10/12\10\9-|-12~~-14~~-9~-|
G|-12~~~-14~~-9~~-xxxxxxxxxxxx-|-12~~-14~~-9~-|
D|-10~~~-12~~-7~~-7/ 8/10\ 8\7-|-10~~-12~~-7~-|
A|-----------------------------|--------------|

Chorus:
d|--------------------|
a|--------------------|
F|--------------------|
C|-5-55-55-5-55-5-----|
G|-5-55-55-5-55-5-5~~-|
D|-3-33-33-3-33-3-5~~-|
A|----------------3~~-|

Pre-Verse:
d|------------|
a|------------|
F|------------|
C|------------|
G|------------|
D|-2-2-2-2222-|
A|-0-0-0-0000-|
   . . . ....   .palm mute

Verse:
d|----------------|
a|----------------|
F|----------------|
C|-----9-9-99\8\7-|
G|-----x-x-xxxxxx-|
D|-222-7-7-77\6\5-|
A|-000-0-0--------|

Pre-Chorus:
d|------------------------------|-----------------------------|
a|------------------------------|-----------------------------|
F|------------------------------|-----------------------------|
C|-9--9109-9109-9109--910910910-|-9--9109-9109-9109--91012109-|
G|-x--xxxx-xxxx-xxxx--xxxxxxxxx-|-x--xxxx-xxxx-xxxx--xxxxxxxx-|
D|-7~-7 87-7 87-7 87--7 87 87 8-|-7~-7 87-7 87-7 87--7 810 87-|
A|------------------------------|-----------------------------|

d|-----------------------------|--------------|
a|-----------------------------|--------------|
F|-----------------------------|--------------|
C|-12~~~-14~~-9~~-9/10/12\10\9-|-12~~-14~~-9~-|
G|-12~~~-14~~-9~~-xxxxxxxxxxxx-|-12~~-14~~-9~-|
D|-10~~~-12~~-7~~-7/ 8/10\ 8\7-|-10~~-12~~-7~-|
A|-----------------------------|--------------|

Chorus:
d|--------------------|
a|--------------------|
F|--------------------|
C|-5-55-55-5-55-5-----|
G|-5-55-55-5-55-5-5~~-|
D|-3-33-33-3-33-3-5~~-|
A|----------------3~~-|

Bridge1:
d|-------------------------|
a|-13~~-----24~~23~-24~~~~-|
F|-------------------------|
C|-------------------------|	(with delay)
G|-------------------------|
D|-------------------------|
A|-------------------------|

Bridge2:
d|--------------------|-----------|
a|--------------------|-----------|
F|--------------------|-----------|
C|--------------------|-----------|
G|-555-66-77----------|-555-66-77-|
D|-555-66-77----------|-555-66-77-|
A|-333-44-55----55-55-|-333-44-55-|
                .. ..               .palm mute
Bridge3:
d|------------------|
a|------------------|
F|------------------|
C|-----9-9-99\8\7-7-|
G|-----x-x-xxxxxx-x-|
D|-222-7-7-77\6\5-5-|
A|-000-0-0----------|

Bridge4:
d|-----------------------------|--------------|
a|-----------------------------|--------------|
F|-----------------------------|--------------|
C|-12~~~-14~~-9~~-9/10/12\10\9-|-12~~-14~~-9~-|
G|-12~~~-14~~-9~~-xxxxxxxxxxxx-|-12~~-14~~-9~-|
D|-10~~~-12~~-7~~-7/ 8/10\ 8\7-|-10~~-12~~-7~-|
A|-----------------------------|--------------|

Chorus:
d|--------------------|
a|--------------------|
F|--------------------|
C|-5-55-55-5-55-5-----|
G|-5-55-55-5-55-5-5~~-|
D|-3-33-33-3-33-3-5~~-|
A|----------------3~~-|

-------------------------------------------------------------

11.Liar

Tuning : 7 String Tuned Low to High (A D G C F a d)

Vocal: Jonathan Houseman Davis 'Hiv'
Guitar: James Randal Shaffer 'Munky'
Bass: Reginald Arvizu 'Fieldy'
Drums: David Silveria

Intro:
d|--------------------------|------------------------|
a|--------------------------|------------------------|
F|--------------------------|------------------------|
C|--------------------------|------------------------|
G|--------------------------|------------------------|
D|-55-55-55-55-55-55--------|-55-55-55-55-55-55------|
A|-33-33-33-33-33-33-336-56-|-33-33-33-33-33-33-336--|

d|----------------------------------------|----------------------------------------|
a|-15151515141414141515151717171718181717-|-151515----141414--1515--1717-1818-1717-|
F|----------------------------------------|----------------------------------------|
C|----------------------------------------|----------------------------------------|
G|----------------------------------------|----------------------------------------|
D|----------------------------------------|----------------------------------------|
A|----------------------------------------|----------------------------------------|

Verse:
d|--------------------------|----------------------------|
a|--------------------------|----------------------------|
F|--------------------------|----------------------------|
C|--------------------------|----------------------------|
G|--------------------------|----------------------------|
D|--------------------------|-55-5x-55-5x-55-5x----------|
A|-33-33-33-33-33-33-336-56-|-33-3x-33-3x-33-3x----3-6-5-|
   .. .. .. .. .. ..          ..    ..    ..               .palm mute

Pre-Chorus:
d|---------------------------------------------|
a|-5~~3~~2~~~~~~~2~3~5~3~2-5~~3~~2~~~~~~~2~3~5-|
F|-2~~2~~2~~~~~~~2~2~2~2~2-2~~2~~2~~~~~~~2~2~2-|
C|---------------------------------------------|
G|---------------------------------------------|
D|---------------------------------------------|
A|---------------------------------------------|

Chorus:
d|----------------------|--------------------|
a|----------------------|--------------------|
F|----------------------|--------------------|
C|----------------------|--------------------|
G|----------------------|--------------------|
D|-5\\3-5\\3-5\\3-8\7\5-|-5\\3-5\\3-5\\3-8\7-|
A|-3\\1-3\\1-3\\1-6\5\3-|-3\\1-3\\1-3\\1-6\5-|

Pre-Verse:
d|--------------------------|
a|--------------------------|
F|--------------------------|
C|--------------------------|
G|--------------------------|
D|-55-55-55-55-55-55--------|
A|-33-33-33-33-33-33-336-56-|

Verse:
d|--------------------------|----------------------------|
a|--------------------------|----------------------------|
F|--------------------------|----------------------------|
C|--------------------------|----------------------------|
G|--------------------------|----------------------------|
D|--------------------------|-55-5x-55-5x-55-5x----------|
A|-33-33-33-33-33-33-336-56-|-33-3x-33-3x-33-3x----3-6-5-|
   .. .. .. .. .. ..          ..    ..    ..               .palm mute

Pre-Chorus:
d|---------------------------------------------|
a|-5~~3~~2~~~~~~~2~3~5~3~2-5~~3~~2~~~~~~~2~3~5-|
F|-2~~2~~2~~~~~~~2~2~2~2~2-2~~2~~2~~~~~~~2~2~2-|
C|---------------------------------------------|
G|---------------------------------------------|
D|---------------------------------------------|
A|---------------------------------------------|

Chorus:
d|----------------------|--------------------|
a|----------------------|--------------------|
F|----------------------|--------------------|
C|----------------------|--------------------|
G|----------------------|--------------------|
D|-5\\3-5\\3-5\\3-8\7\5-|-5\\3-5\\3-5\\3-8\7-|
A|-3\\1-3\\1-3\\1-6\5\3-|-3\\1-3\\1-3\\1-6\5-|

Bridge1:
d|----------------------------------|
a|----------------------------------|
F|----------------------------------|
C|----------------------------------|
G|----------------------------------|
D|----------------------------------|
A|-333-333-333-333-665-665-665-6\\3-|

Bridge2:
d|-----------------------------------------|
a|-5~~3~~2~~2~222~3~5~3~2-5~~3~~2~22~2~3~5-|
F|-2~~2~~2~~2~222~2~2~2~2-2~~2~~2~22~2~2~2-|
C|-----------------------------------------|
G|-----------------------------------------|
D|-----------------------------------------|
A|-----------------------------------------|

Chorus:
d|----------------------|--------------------|
a|----------------------|--------------------|
F|----------------------|--------------------|
C|----------------------|--------------------|
G|----------------------|--------------------|
D|-5\\3-5\\3-5\\3-8\7\5-|-5\\3-5\\3-5\\3-8\7-|
A|-3\\1-3\\1-3\\1-6\5\3-|-3\\1-3\\1-3\\1-6\5-|

Bridge3:
d|----------------------------------|
a|----------------------------------|
F|----------------------------------|
C|----------------------------------|
G|----------------------------------|
D|----------------------------------|
A|-333-333-333-333-665-665-665-6\\3-|

d|----------------------------------------|
a|-15151515141414141515151717171718181717-|
F|----------------------------------------|
C|----------------------------------------|
G|----------------------------------------|
D|----------------------------------------|
A|----------------------------------------|

Outro:
d|--------------------------|
a|--------------------------|
F|--------------------------|
C|--------------------------|
G|--------------------------|
D|-55-55-55-55-55-55--------|
A|-33-33-33-33-33-33-336-56-|

d|---0---0---0---0---0---0---0---0-|
a|---3---3---3---3---2---2---2---2-|   (let the last note ring out)
F|-2---2---2---2---2---2---2---2---|
C|---------------------------------|  
G|---------------------------------|
D|---------------------------------|
A|---------------------------------|

d|----------------------------------------------------|
a|-55~~33~222~-555-5~33~222-555-5~33~22222~5~-3~-2~-2-|
F|-22~~22~222~-222-2~22~222-222-2~22~22222~2~-2~-2~---|
C|----------------------------------------------------|
G|----------------------------------------------------|
D|----------------------------------------------------|
A|----------------------------------------------------|

Fill:
d|----|
a|----|
F|----|
C|-10~|	(with wah-wah)
G|-10~|
D|- 8~|
A|----|

---------------------------------------------------------------

12.For No One

Tuning : 7 String Tuned Low to High (A D G C F a d)

Vocal: Jonathan Houseman Davis 'Hiv'
Guitar: James Randal Shaffer 'Munky'
Bass: Reginald Arvizu 'Fieldy'
Drums: David Silveria

Intro:
d|------------------------|
a|------------------------|
F|------------------------|
C|------------------------|
G|------------------------|
D|------------------------|
A|-5r3--5r3h5-3h5-3h5-5h6-|

Pre-Verse:
d|------------------------|
a|------------------------|
F|------------------------|
C|------------------------|
G|------------------------|
D|------------------------|
A|-5r3--5r3h5-3h5-3h5-5h6-|

d|------------------------|
a|------------------------|
F|------------------------|
C|------------------------|	(2 guitar)
G|-7r5--7r5h7-5h7-5h7-7h8-|
D|------------------------|
A|------------------------|

Verse:
d|----------------------------|----------------------------|
a|----------------------------|----------------------------|
F|----------------------------|----------------------------|
C|----------------------------|----------------------------|
G|----------------------------|----------------------------|
D|-2~~-2-2~~-2-2~~-2----------|-22---2-2--2-2~~-2----------|
A|-0~~-0-0~~-0-0~~-0-3203202~-|-00~~-0-0~-0-0~~-0-3203202~-|
       .     .     . .......    .    .    .     . .......    .palm mute

Pre-Chorus:
d|-------------------------------|
a|-------------------------------|
F|-------------------------------|
C|-------------------------------|
G|--------------5~~-7~~-9~~-10~~-|
D|-22~~-2-2--2--5~~-7~~-9~~-10~~-|
A|-00~~-0-0~-0--3~~-5~~-7~~- 8~~-|
   .    .    .                     .palm mute

Verse:
d|----------------------------|----------------------------|
a|----------------------------|----------------------------|
F|----------------------------|----------------------------|
C|----------------------------|----------------------------|
G|----------------------------|----------------------------|
D|-2~~-2-2~~-2-2~~-2----------|-22---2-2--2-2~~-2----------|
A|-0~~-0-0~~-0-0~~-0-3203202~-|-00~~-0-0~-0-0~~-0-3203202~-|
       .     .     . .......    .    .    .     . .......    .palm mute

Pre-Chorus:
d|-------------------------------|
a|-------------------------------|
F|-------------------------------|
C|-------------------------------|
G|--------------5~~-7~~-9~~-10~~-|
D|-22~~-2-2--2--5~~-7~~-9~~-10~~-|
A|-00~~-0-0~-0--3~~-5~~-7~~- 8~~-|
   .    .    .                     .palm mute
 
Chorus:
d|------------------------|
a|------------------------|
F|------------------------|
C|------------------------|
G|------------------------|
D|------------------------|
A|-5r3--5r3h5-3h5-3h5-5h6-|

d|------------------------|
a|------------------------|
F|------------------------|
C|------------------------|	(2 guitar)
G|-7r5--7r5h7-5h7-5h7-7h8-|
D|------------------------|
A|------------------------|

Verse:
d|----------------------------|----------------------------|
a|----------------------------|----------------------------|
F|----------------------------|----------------------------|
C|----------------------------|----------------------------|
G|----------------------------|----------------------------|
D|-2~~-2-2~~-2-2~~-2----------|-22---2-2--2-2~~-2----------|
A|-0~~-0-0~~-0-0~~-0-3203202~-|-00~~-0-0~-0-0~~-0-3203202~-|
       .     .     . .......    .    .    .     . .......    .palm mute

Pre-Chorus:
d|-------------------------------|
a|-------------------------------|
F|-------------------------------|
C|-------------------------------|
G|--------------5~~-7~~-9~~-10~~-|
D|-22~~-2-2--2--5~~-7~~-9~~-10~~-|
A|-00~~-0-0~-0--3~~-5~~-7~~- 8~~-|
   .    .    .                     .palm mute

Verse:
d|----------------------------|----------------------------|
a|----------------------------|----------------------------|
F|----------------------------|----------------------------|
C|----------------------------|----------------------------|
G|----------------------------|----------------------------|
D|-2~~-2-2~~-2-2~~-2----------|-22---2-2--2-2~~-2----------|
A|-0~~-0-0~~-0-0~~-0-3203202~-|-00~~-0-0~-0-0~~-0-3203202~-|
       .     .     . .......    .    .    .     . .......    .palm mute

Pre-Chorus:
d|-------------------------------|
a|-------------------------------|
F|-------------------------------|
C|-------------------------------|
G|--------------5~~-7~~-9~~-10~~-|
D|-22~~-2-2--2--5~~-7~~-9~~-10~~-|
A|-00~~-0-0~-0--3~~-5~~-7~~- 8~~-|
   .    .    .                     .palm mute

Chorus:
d|------------------------|
a|------------------------|
F|------------------------|
C|------------------------|
G|------------------------|
D|------------------------|
A|-5r3--5r3h5-3h5-3h5-5h6-|

d|------------------------|
a|------------------------|
F|------------------------|
C|------------------------|	(2 guitar)
G|-7r5--7r5h7-5h7-5h7-7h8-|
D|------------------------|
A|------------------------|

Bridge1: (same as chorus)
d|------------------------|
a|------------------------|
F|------------------------|
C|------------------------|
G|------------------------|
D|------------------------|
A|-5r3--5r3h5-3h5-3h5-5h6-|

d|------------------------|
a|------------------------|
F|------------------------|
C|------------------------|	(2 guitar)
G|-7r5--7r5h7-5h7-5h7-7h8-|
D|------------------------|
A|------------------------|

Bridge2:
d|--------------------------------------------------------------------|
a|--------------------------------------------------------------------|
F|--------------------------------------------------------------------|
C|-----------7~---------------------7~--------------------------------|
G|--------8~-5~-7/8\7------------8~-5~-7/8\7----10~~~-7/8\7-----7/8\7-|
D|-7~-10~-6~----5/6\5-10~-7~-10~-6~----5/6\5-10- 8~~~-5/6\5-----5/6\5-|
A|-5~- 8~------------- 8~-5~- 8~------------- 8-------------5-5-------| 
                                                            . .         .palm mute
Bridge3:
d|------------------------------|
a|-15---------15----------------|
F|-17^--------17^---------------|
C|------------------------------|
G|------------------------------|
D|------------------------------|
A|------------------------------| 

d|------------------------------|
a|------------------------------|
F|------------------------------|
C|-------------------------12---|
G|----7/9~8~-----8~7~------xx---|
D|----6/7~6~-----6~5~--/10~1010-|
A|---------------------/ 8~-- 8-| 

Chorus:
d|------------------------|
a|------------------------|
F|------------------------|
C|------------------------|
G|------------------------|
D|------------------------|
A|-5r3--5r3h5-3h5-3h5-5h6-|

d|------------------------|
a|------------------------|
F|------------------------|
C|------------------------|	(2 guitar)
G|-7r5--7r5h7-5h7-5h7-7h8-|
D|------------------------|
A|------------------------|

Outro:
d|-------|-----|
a|-------|-----|
F|-------|-----|
C|-------|-----|
G|-------|-----|
D|-3-4-5-|-3-4-|
A|-1-2-3-|-1-2-| 

-------------------------------------------------------

13.See It All

Tuning : 7 String Tuned Low to High (A D G C F a d)

Vocal: Jonathan Houseman Davis 'Hiv'
Guitar: James Randal Shaffer 'Munky'
Bass: Reginald Arvizu 'Fieldy'
Drums: David Silveria

Intro:
d|---------------------|
a|---------------------|
F|---------------------|
C|---------------------|
G|----------\44-4\3-3~-|
D|-5~--55-5-\22-2\1-1~-|
A|-3~--33-3-\22-2\1-1~-| 

Fill1:
d|-------------------|
a|-------------------|
F|-------------------|
C|-------------------|
G|----------\44-5555-|
D|-5~--55-5-\22-3333-|
A|-3~--33-3-\22-3333-|

Verse:
d|------------------------|
a|------------------------|
F|------------------------|
C|------------------------|
G|----------1111-11\10-10-|
D|-5~--55-5- 9 9- 9\ 8- 8-|
A|-3~--33-3- 9 9- 9\ 8- 8-|

Fill2:
d|---------------------------|
a|---------------------------|
F|---------------------------|
C|---------------------------|
G|----------11~-10~-10-11-13-|
D|-5~--55-5- 9~- 8~- 8- 9-11-|
A|-3~--33-3- 9~- 8~- 8- 9-11-|

Chorus:
d|-----------------------------------------|
a|-----------------------------------------|
F|-----------------------------------------|
C|-----4~~-------------4~~-----------------|
G|-2~~-4~~-5~~-8~~-2~~-4~~--------888-55\4-|
D|-2~~-2~~-5~~-8~~-2~~-2~~-2-4-5--888-55\4-|
A|-0~~-----3~~-6~~-0~~-----0-2-3--666-33\2-|

d|-----------------------------------------|
a|-----------------------------------------|
F|-----------------------------------------|
C|-----4~~-------------4~~-----777-10-1010-|
G|-2~~-4~~-8~~-5~~-2~~-4~~-----777-10-1010-|
D|-2~~-2~~-8~~-5~~-2~~-2~~-----555- 8- 8 8-|
A|-0~~-----6~~-3~~-0~~---------------------|

Pre-Verse:
d|---------------------|
a|---------------------|
F|---------------------|
C|---------------------|
G|----------\44-4\3-3~-|
D|-5~--55-5-\22-2\1-1~-|
A|-3~--33-3-\22-2\1-1~-| 

Fill3:
d|-------------------|
a|-------------------|
F|-------------------|
C|-------------------|
G|----------\44-5555-|
D|-5~--55-5-\22-3333-|
A|-3~--33-3-\22-3333-|

Verse:
d|------------------------|
a|------------------------|
F|------------------------|
C|------------------------|
G|----------1111-11\10-10-|
D|-5~--55-5- 9 9- 9\ 8- 8-|
A|-3~--33-3- 9 9- 9\ 8- 8-|

Fill3:
d|---------------------------|
a|---------------------------|
F|---------------------------|
C|---------------------------|
G|----------11~-10~-10-11-13-|
D|-5~--55-5- 9~- 8~- 8- 9-11-|
A|-3~--33-3- 9~- 8~- 8- 9-11-|

Chorus:
d|-----------------------------------------|
a|-----------------------------------------|
F|-----------------------------------------|
C|-----4~~-------------4~~-----------------|
G|-2~~-4~~-5~~-8~~-2~~-4~~--------888-55\4-|
D|-2~~-2~~-5~~-8~~-2~~-2~~-2-4-5--888-55\4-|
A|-0~~-----3~~-6~~-0~~-----0-2-3--666-33\2-|

d|-----------------------------------------|
a|-----------------------------------------|
F|-----------------------------------------|
C|-----4~~-------------4~~-----777-10-1010-|
G|-2~~-4~~-8~~-5~~-2~~-4~~-----777-10-1010-|
D|-2~~-2~~-8~~-5~~-2~~-2~~-----555- 8- 8 8-|
A|-0~~-----6~~-3~~-0~~---------------------|

Bridge1:
d|---------------------------|
a|---------------------------|
F|---------------------------|
C|-17~~--14-16---11~~--14-16-|
G|---------------------------|
D|---------------------------|
A|---------------------------| 

Bridge2:
d|--------------------------------------------------------------------------------|
a|--------------------------------------19-19-19-19-21-18-18-18-18-19-16-16-16-16-|
F|-17~~---------16~---17~--17-17-17-17--17-17-17-17-17-17-17-17-17-17-17-17-17-17-|
C|--------------------------------------------------------------------------------|
G|--------------------------------------------------------------------------------|
D|--------------------------------------------------------------------------------|
A|--------------------------------------------------------------------------------| 

Bridge3:
d|-----------------------------------------|
a|-----------------------------------------|
F|-----------------------------------------|
C|-----4~~-------------4~~-----------------|
G|-2~~-4~~-5~~-8~~-2~~-4~~--------888-55\4-|
D|-2~~-2~~-5~~-8~~-2~~-2~~--------888-55\4-|
A|-0~~-----3~~-6~~-0~~------------666-33\2-|

d|-----------------------------------------|
a|-----------------------------------------|
F|-----------------------------------------|
C|-----4~~-------------4~~-----777-10-1010-|
G|-2~~-4~~-8~~-5~~-2~~-4~~-----777-10-1010-|
D|-2~~-2~~-8~~-5~~-2~~-2~~-----555- 8- 8 8-|
A|-0~~-----6~~-3~~-0~~---------------------|

Bridge4:
d|-----------------------------------------|
a|-----------------------------------------|
F|-----------------------------------------|
C|-----4~~-------------4~~-----------------|
G|-2~~-4~~-5~~-8~~-2~~-4~~--------888-55\4-|
D|-2~~-2~~-5~~-8~~-2~~-2~~-2-4-5--888-55\4-|
A|-0~~-----3~~-6~~-0~~-----0-2-3--666-33\2-|

d|-----------------------------------------|
a|-----------------------------------------|
F|-----------------------------------------|
C|-----4~~-------------4~~-----777-10-1010-|
G|-2~~-4~~-8~~-5~~-2~~-4~~-----777-10-1010-|
D|-2~~-2~~-8~~-5~~-2~~-2~~-----555- 8- 8 8-|
A|-0~~-----6~~-3~~-0~~---------------------|

Chorus:
d|-----------------------------------------|
a|-----------------------------------------|
F|-----------------------------------------|
C|-----4~~-------------4~~-----------------|
G|-2~~-4~~-5~~-8~~-2~~-4~~--------888-55\4-|
D|-2~~-2~~-5~~-8~~-2~~-2~~-2-4-5--888-55\4-|
A|-0~~-----3~~-6~~-0~~-----0-2-3--666-33\2-|

d|-----------------------------------------|
a|-----------------------------------------|
F|-----------------------------------------|
C|-----4~~-------------4~~-----777-10-1010-|
G|-2~~-4~~-8~~-5~~-2~~-4~~-----777-10-1010-|
D|-2~~-2~~-8~~-5~~-2~~-2~~-----555- 8- 8 8-|
A|-0~~-----6~~-3~~-0~~---------------------|

--------------------------------------------------------

14.Tearjerker

Tuning : 7 String Tuned Low to High (A D G C F a d)

Vocal: Jonathan Houseman Davis 'Hiv'
Guitar: James Randal Shaffer 'Munky'
Bass: Reginald Arvizu 'Fieldy'
Drums: David Silveria

This song has lots of weird effects, but i only gonna tab the guitar...
d|------------------------------------|------------------------------------|
a|------10~~~-------------------------|------10~~~~------------------------|
F|-9~~~- 9~~~-5~/7~~~-5~/7~~~-5~/7~~~-|-9~~~- 9~~~-5~/7~~~-5~/7~~~-5~/11~~-|
C|-9~~~- 7~~~-5~/7~~~-5~/7~~~-5~/7~~~-|-9~~~- 7~~~-5~/7~~~-5~/7~~~-5~/11~~-|
G|-7~~~-------3~/5~~~-3~/5~~~-3~/5~~~-|-7~~~-------3~/5~~~-3~/5~~~-7~/ 9~~~|
D|------------------------------------|------------------------------------|
A|------------------------------------|------------------------------------|

d|------------------------------------------|
a|-19~~~-/22~~--17~~~~-19~~~-15~~~-17~~-19~~|
F|------------------------------------------|
C|------------------------------------------|
G|------------------------------------------|
D|------------------------------------------|
A|------------------------------------------|

Outro:
d|--------------------------|
a|-3-----5-----5~~~~--5-----|
F|---4-----4------------4---|
C|-----4-----4------------4-|
G|--------------------------|
D|--------------------------|
A|--------------------------|

----------------------------------------------------

15.It's Me Again

Tuning: 1 Step Down (A D G C F A D)

Intro

D|--------------------------------------------------||
A|--------------------------------------------------||
F|--------------------------------------------------||
C|--------------------------------------------------||
G|--------------------------------------------------||
D|--------------------------------------------------||
A|--3----3----3----3--------------------------------||
     Harmonics

Intro 2
Repeart Four Times

D|--------------------------------------------------||
A|--------------------------------------------------||
F|--------------------------------------------------||
C|--------------------------------------------------||
G|--------------------------------------------------||
D|--------------------------------------------------||
A|--233-344-5565r4r3--------------------------------||

Intro 3

D|--------------------------------------------------||
A|--------------------------------------------------||
F|--------------------------------------------------||
C|--------------------------------------------------||
G|--------------------------------------------------||
D|--------------------------------------------------||
A|-111--111--122--233-------------------------------||

Fill


D|--------------------------------------------------||
A|--------------------------------------------------||
F|--------------------------------------------------||
C|--------------------------------------------------||
G|--------------------------------------------------||
D|--3----------333----------------------------------||
A|------111----111----111---------------------------||

Verse


D|--------------------------------------------------||
A|--------------------------------------------------||
F|--------------------------------------------------||
C|--------------------------------------------------||
G|--------------------------------------------------||
D|--------------------------------------------------||
A|--2333-332--6r5--5r4--4r3-------------------------||


D|--------------------------------------------------||
A|--------------------------------------------------||
F|--------------------------------------------------||
C|--------------------------------------------------||
G|--------------------------------------------------||
D|--------------------------------------------------||
A|--2333-332--6r5--5r4------------------------------||

Chorus


Tremelo Picking
D|--------------------------------------------------||
A|--------------------------------------------------||
F|-----7------9-------------------------------------||
C|-----x------x-------------------------------------||
G|-----5------7-------------------------------------||
D|--------------------------------------------------||
A|--------------------------------------------------||

Then Do this again for ages

D|--------------------------------------------------||
A|--------------------------------------------------||
F|--------------------------------------------------||
C|--------------------------------------------------||
G|--------------------------------------------------||
D|--------------------------------------------------||
A|-111--111--122--233-------------------------------||

Then this

D|--------------------------------------------------||
A|--------------------------------------------------||
F|--------------------------------------------------||
C|--------------------------------------------------||
G|--------------------------------------------------||
D|--------------------------------------------------||
A|--2333-332--6r5--5r4--4r3-------------------------||


D|--------------------------------------------------||
A|--------------------------------------------------||
F|--------------------------------------------------||
C|--------------------------------------------------||
G|--------------------------------------------------||
D|--------------------------------------------------||
A|--2333-332--6r5--5r4------------------------------||

Then the Chorus again

Tremelo Picking
D|--------------------------------------------------||
A|--------------------------------------------------||
F|-----7------9-------------------------------------||
C|-----x------x-------------------------------------||
G|-----5------7-------------------------------------||
D|--------------------------------------------------||
A|--------------------------------------------------||

Bridge

Repeat 3 Times

D|---------------------------------------------------------------||
A|---------------------------------------------------------------||
F|---------------------------------------------------------------||
C|---------------------------------------------------------------||
G|---------------------------------------------------------------||
D|---------------------------------------------------------------||
A|--1~--0--0000---0-1~--0--0000---1~--0---0000--0--4~--343232----||

Then on the fourth time it goes into just Jonathan singing and Munky Guitaring. It's the 
as above, but every note is a power chord.

D|---------------------------------------------------------------||
A|---------------------------------------------------------------||
F|---------------------------------------------------------------||
C|---------------------------------------------------------------||
G|--3~--2--2222---2-3~--2--2222---3~--2---2222--2--6~--565454----||
D|--3~--2--2222---2-3~--2--2222---3~--2---2222--2--6~--565454----||
A|--1~--0--0000---0-1~--0--0000---1~--0---0000--0--4~--343232----||

Then Do this again 3 Times

D|--------------------------------------------------||
A|--------------------------------------------------||
F|--------------------------------------------------||
C|--------------------------------------------------||
G|--------------------------------------------------||
D|--------------------------------------------------||
A|-111--111--122--233-------------------------------||

Then This Once

D|--------------------------------------------------||
A|--------------------------------------------------||
F|--------------------------------------------------||
C|--------------------------------------------------||
G|--------------------------------------------------||
D|--3------333--------------------------------------||
A|----111--111--111---------------------------------||

Then the chorus

Tremelo Picking
D|--------------------------------------------------||
A|--------------------------------------------------||
F|-----7------9-------------------------------------||
C|-----x------x-------------------------------------||
G|-----5------7-------------------------------------||
D|--------------------------------------------------||
A|--------------------------------------------------||

Then this until about 3:22

D|--------------------------------------------------||
A|--------------------------------------------------||
F|--------------------------------------------------||
C|--------------------------------------------------||
G|--------------------------------------------------||
D|--------------------------------------------------||
A|-111--111--122--233-------------------------------||

Then Repeat this Three times

D|--------------------------------------------------||
A|--------------------------------------------------||
F|--------------------------------------------------||
C|--------------------------------------------------||
G|-3~-4~-5~-----------------------------------------||
D|-3~-4~-5~-----------------------------------------||
A|-1~-2~-3~-----------------------------------------||

End with something like this, either as single notes or power chords*

D|--------------------------------------------------||
A|--------------------------------------------------||
F|--------------------------------------------------||
C|--------------------------------------------------||
G|--------------------------------------------------||
D|--------------------------------------------------||
A|-11-11--12---3------------------------------------||

-----------------------------------------------------------

16.Eaten Up Inside

N/A

-----------------------------------------------------------

17.Last Legal Drug

Tuning : 7 String Tuned Low to High (A D G C F a d)

Vocal: Jonathan Houseman Davis 'Hiv'
Guitar: James Randal Shaffer 'Munky'
Bass: Reginald Arvizu 'Fieldy'
Drums: David Silveria

Intro:
d|-------------------------------------------|
a|-------------------------------------------|
F|-------------------------------------------|
C|-------------------------------------------|
G|-------------------------------------------|
D|-------------------------------------------|
A|-0-1-0-0--00-1-0-0--00-1-0-0--00-1-0-0-321-|
   . . . .  .. . . .  .. . . .  .. . . . ...  .palm mute

Fill1:
d|-------|
a|-------|
F|-------|
C|-------|
G|-2-543-|
D|-2-543-|
A|-0-321-|
   . ...   .palm mute

Verse:
d|-------------------------------------------|
a|-------------------------------------------|
F|-------------------------------------------|
C|-------------------------------------------|
G|-2-3-2-2--22-3-2-2--22-3-2-2--22-3-2-2-543-|
D|-2-3-2-2--22-3-2-2--22-3-2-2--22-3-2-2-543-|
A|-0-1-0-0--00-1-0-0--00-1-0-0--00-1-0-0-321-|
   . . . .  .. . . .  .. . . .  .. . . . ...  .palm mute

Pre-Chorus:
d|-------------------------------------------|
a|-------------------------------------------|
F|-------------------------------------------|
C|-------------------------------------------|
G|-2-3-2-2--22-3-2-2--22-3-2-2--22-3-2-2-543-|
D|-2-3-2-2--22-3-2-2--22-3-2-2--22-3-2-2-543-|
A|-0-1-0-0--00-1-0-0--00-1-0-0--00-1-0-0-321-|
   . . . .  .. . . .  .. . . .  .. . . . ...  .palm mute

d|------------------|-----------------------|
a|------------------|-----------------------|
F|-11~~~-9~~~-12~~~-|-11~~~-9~~~-12~~-8~~~~-|
C|------------------|-----------------------|
G|------------------|-----------------------|
D|------------------|-----------------------|
A|------------------|-----------------------|

Chorus:
d|---------------------------|
a|---------------------------|
F|---------------------------|
C|-4~~-6~~-7~~-3~~~----------|
G|-4~~-6~~-7~~-3~~~-5\4(2)\3-|
D|-2~~-4~~-5~~-1~~~-5\4(2)\3-|
A|------------------3\2(2)\1-|

d|--------------|
a|-14~~~-15~~14~|
F|--------------|
C|--------------|
G|--------------|
D|--------------|
A|--------------|

Bridge1:
d|--------------|
a|--------------|
F|-12---14-11~~-|
C|--------------|
G|--------------|
D|--------------|
A|--------------|

Pre-Verse:
d|-------------------------------------------|
a|-------------------------------------------|
F|-------------------------------------------|
C|-------------------------------------------|
G|-2-3-2-2--22-3-2-2--22-3-2-2--22-3-2-2-543-|
D|-2-3-2-2--22-3-2-2--22-3-2-2--22-3-2-2-543-|
A|-0-1-0-0--00-1-0-0--00-1-0-0--00-1-0-0-321-|
   . . . .  .. . . .  .. . . .  .. . . . ...  .palm mute

d|--------------------|
a|--------------------|
F|-11///14-11//14--13-|
C|-xxxxxxx-xxxxxx--xx-|
G|- 9///12- 9//12--11-|
D|--------------------|
A|--------------------|

Verse:
d|-------------------------------------------|
a|-------------------------------------------|
F|-------------------------------------------|
C|-------------------------------------------|
G|-2-3-2-2--22-3-2-2--22-3-2-2--22-3-2-2-543-|
D|-2-3-2-2--22-3-2-2--22-3-2-2--22-3-2-2-543-|
A|-0-1-0-0--00-1-0-0--00-1-0-0--00-1-0-0-321-|
   . . . .  .. . . .  .. . . .  .. . . . ...  .palm mute

d|--------------------|
a|--------------------|
F|-11///14-11//14--13-|
C|-xxxxxxx-xxxxxx--xx-|
G|- 9///12- 9//12--11-|
D|--------------------|
A|--------------------|

Pre-Chorus:
d|-------------------------------------------|
a|-------------------------------------------|
F|-------------------------------------------|
C|-------------------------------------------|
G|-2-3-2-2--22-3-2-2--22-3-2-2--22-3-2-2-543-|
D|-2-3-2-2--22-3-2-2--22-3-2-2--22-3-2-2-543-|
A|-0-1-0-0--00-1-0-0--00-1-0-0--00-1-0-0-321-|
   . . . .  .. . . .  .. . . .  .. . . . ...  .palm mute

d|------------------|-----------------------|
a|------------------|-----------------------|
F|-11~~~-9~~~-12~~~-|-11~~~-9~~~-12~~-8~~~~-|
C|------------------|-----------------------|
G|------------------|-----------------------|
D|------------------|-----------------------|
A|------------------|-----------------------|

Chorus:
d|---------------------------|
a|---------------------------|
F|---------------------------|
C|-4~~-6~~-7~~-3~~~----------|
G|-4~~-6~~-7~~-3~~~-5\4(2)\3-|
D|-2~~-4~~-5~~-1~~~-5\4(2)\3-|
A|------------------3\2(2)\1-|

d|--------------|
a|-14~~~-15~~14~|
F|--------------|
C|--------------|
G|--------------|
D|--------------|
A|--------------|

Bridge2:
d|-----------------------------|
a|-----------------------------|
F|-----------------------------|
C|----11~~----11--------14~~~~-|
G|-9~------9-----9-10~~--------|
D|-----------------------------|
A|-----------------------------| 

Bridge3:
d|-----------------------------|
a|-----------------------------|
F|-----------------------------|
C|----11~~----11--------14~~~~-|
G|-9~------9-----9-10~~--------|
D|-----------------------------|
A|-----------------------------| 

d|----------------------------------|
a|----------------------------------|
F|-11\\9//11~~~~-9//11\\9//11~~~~~~~|
C|-xxxxxxxxx~~~~-xxxxxxxxxxxx~~~~~~-|
G|- 9\\7// 9~~~~-7// 9\\7// 9~~~~~~-|
D|----------------------------------|
A|----------------------------------|

Bridge4:
d|--------------------------------------|
a|--------------------------------------|
F|--------------------------------------|
C|-4~~-~~~~~~6~~~~-7~~-3~~~-------------|
G|-4~~~~~~~~-6~~~~-7~~-3~~~----5\4(4)\3-|
D|-2~~~~~~~~-4~~~~-5~~-1~~~----5\4(4)\3-|
A|-----------------------------3\2(2)\1-|

d|--------------------------------------|
a|--------------------------------------|
F|--11111111--1111------1111---7\6(6)\5-|
C|--xxxxxxxx--xxxx------xxxx---xxxxxxxx-|
G|-- 9 9 9 9-- 9 9------ 9 9---5\4(4)\3-|
D|--------------------------------------|
A|--------------------------------------|

Chorus:
d|---------------------------|
a|---------------------------|
F|---------------------------|
C|-4~~-6~~-7~~-3~~~----------|
G|-4~~-6~~-7~~-3~~~-5\4(2)\3-|
D|-2~~-4~~-5~~-1~~~-5\4(2)\3-|
A|------------------3\2(2)\1-|

d|--------------|
a|-14~~~-15~~14~|
F|--------------|
C|--------------|
G|--------------|
D|--------------|
A|--------------|

Outro:
d|-----------------|
a|-14~14~~~-15~~14~|
F|-----------------|
C|-----------------|
G|-----------------|
D|-----------------|
A|-----------------|

d|- 9~~~~- 9~~~~-|
a|-10~~~~- 9~~~~-|
F|-11~~~~-10~~~~-|
C|-11~~~~-10~~~~-|
G|- 9~~~~- 9~~~~-|
D|---------------|
A|---------------|

comments
We did not receive enough feedback on this tab! Please rate:
print report bad tab
1 2 3 4 5
6 comments total. Showing first comments.
0 reply
blink 182 #1 wrote on April 19 2006, 07:01 pm

Korn is awesome! Andrew Zara you rock! This Tab rocks!

0 reply
here_to_stay wrote on April 22 2006, 03:55 pm

Yeah the "Love Song" and "It's Me Again" tabs were done by me, so how about next time you ****ing email me and ask my permission to use them *******. It clearly said my email address in Love Songs tab so there's no excuse for that.

Credit me for the two above mentioned tabs or remove them from the album tab.

My name's Gavin.

0 reply
here_to_stay wrote on April 22 2006, 03:57 pm

Ok they say my username next to them so i guess that counts as a credit to me. I just got pissed off because i'm ****ing fed up of waiting for a 10 or a 2 way and Open Up tab. Grrrr

I want to post or [tab]
guest
You may want to rate the tab now too:
select rating
Please do not post tabs as comments. Select "correction" instead!