Oops, an error
Loading. Please wait.

See You On The Other Side Tab

by Korn
ver2
ver2

Album

More versions @911Tabs.com
1,555 views 1 this week
1 commentread comment
1 2 3 4 5
excellent!
x 1
add to favorites launch autoscroll
font size
0
reset
Autoscroll
+/-
esc
set tempo
stop
Contributor
Difficulty
intermediate
WARNING: You are trying to view
                                    content from Ultimate-Guitar.com
                                    in an unauthorized application,
                                    which is prohibited.

                                    Please use an official Ultimate
                                    Guitar Tabs application for iPhone,
                                    iPad or Android to access legitimate
                                    chords, guitar, bass, and drum tabs
                                    from Ultimate-Guitar.com database.

                                    Type "ultimate guitar tabs" in Apple
                                    App Store's or Android Market's
                                    search to find the application.
KoRn - Twisted Tranzistor - See You On The Other Side

Tabbed by Elvisz (elvisz84@yahoo.com)

Tuning : 7 String Tuned Low to High (A D G C F a d)

Vocal: Jonathan Houseman Davis 'Hiv'
Guitar: James Randal Shaffer 'Munky'
Bass: Reginald Arvizu 'Fieldy'
Drums: David Silveria

Intro:
Some scratching on the string with the pick, and the first note....
d|-----------------------------------|
a|-----------------------------------|
F|-----------------------------------|
C|-12~~~~----12~~~~-----12~~~~~~-----| (sometime make the pinch harmonics and bend a little the
G|-----------------------------------|  the note to get he same effects)
D|-----------------------------------|
A|-----------------------------------|

d|---------------------------|
a|---------------------------|
F|---------------------------|
C|---------------------------| (in the background really disorted)
G|----5^6^5-----5--------5^6-|  
D|---------------------------|
A|-3~-------3-3---3-3--3-----|

Verse: (with no vocals)
d|-------------------------------|
a|-------------------------------|
F|-------------------------------|
C|-------------------------------|
G|-------5^6^5-----5---------5^6-|
D|-------------------------------|
A|-3-3-3-------3-3---3-3-3-3-----|
   . . .       . .   . . . .       .palm mute

Chorus: (with no vocals)
d|-------------------------------|
a|-------------------------------|
F|-------7/8\7-----7---------7/8-|
C|-------xxxxx-----x---------xxx-|
G|-------5/6\5-----5---------5/6-|
D|-------------------------------|
A|-3-3-3-------3-3---3-3-3-3-----|
   . . .       . .   . . . .       .palm mute

d|------------------------------------------------------------------|
a|------------------------------------------------------------------|
F|-1515151515151515151515151515151514141414141414141414141414141414-|
C|-xxxxxxxxxxxxxxxxxxxxxxxxxxxxxxxxxxxxxxxxxxxxxxxxxxxxxxxxxxxxxxxx-|
G|-1313131313131313131313131313131312121212121212121212121212121212-|
D|------------------------------------------------------------------|
A|------------------------------------------------------------------|

Verse:
d|-------------------------------|
a|-------------------------------|
F|-------------------------------|
C|-------------------------------|
G|-------5^6^5-----5---------5^6-|
D|-------------------------------|
A|-3-3-3-------3-3---3-3-3-3-----|
   . . .       . .   . . . .       .palm mute

d|------------------------------------------------------------------|
a|------------------------------------------------------------------|
F|-1515151515151515151515151515151514141414141414141414141414141414-|
C|-xxxxxxxxxxxxxxxxxxxxxxxxxxxxxxxxxxxxxxxxxxxxxxxxxxxxxxxxxxxxxxxx-|
G|-1313131313131313131313131313131312121212121212121212121212121212-|
D|------------------------------------------------------------------|
A|------------------------------------------------------------------|

Pre-Chorus:
d|----------------------------------------------------|
a|----------------------------------------------------|
F|----------------------------------------------------|
C|----5~~~~~--------5~~~~---------3~~~~~-------3~~~~~-|
G|----5~~~~~--------5~~~~---------3~~~~~-------3~~~~~-|
D|----3~~~~~--------3~~~~~--------1~~~~~-------1-~~~~-|
A|--3x------------3x------------3x-----------3x-------|

d|----------------------------------------------------|
a|----------------------------------------------------|
F|----------------------------------------------------|
C|----5~~~~~--------5~~~~---------3~~~~~-------3~~~~~-|
G|----5~~~~~--------5~~~~---------3~~~~~-------3~~~~~-|
D|----3~~~~~--------3~~~~~--------1~~~~~-------1-~~~~-|
A|-33x-----------33x----------------------------------|

Fill1:
d|-------------|----------|
a|-------------|----------|
F|-------------|----------|
C|-------------|----------|
G|-5x-6x-7x-8x-|-5x-6x-7x-|
D|-5x-6x-7x-8x-|-5x-6x-7x-|
A|-3x-4x-5x-6x-|-3x-4x-5x-|

Chorus:
d|-------------------------------|
a|-------------------------------|
F|-------7/8\7-----7---------7/8-|
C|-------xxxxx-----x---------xxx-|
G|-------5/6\5-----5---------5/6-|
D|-------------------------------|
A|-3-3-3-------3-3---3-3-3-3-----|
   . . .       . .   . . . .       .palm mute

Verse:
d|-------------------------------|
a|-------------------------------|
F|-------------------------------|
C|-------------------------------|
G|-------5^6^5-----5---------5^6-|
D|-------------------------------|
A|-3-3-3-------3-3---3-3-3-3-----|
   . . .       . .   . . . .       .palm mute


Pre-Chorus:
d|----------------------------------------------------|
a|----------------------------------------------------|
F|----------------------------------------------------|
C|----5~~~~~--------5~~~~---------3~~~~~-------3~~~~~-|
G|----5~~~~~--------5~~~~---------3~~~~~-------3~~~~~-|
D|----3~~~~~--------3~~~~~--------1~~~~~-------1-~~~~-|
A|--3x------------3x------------3x-----------3x-------|

d|----------------------------------------------------|
a|----------------------------------------------------|
F|----------------------------------------------------|
C|----5~~~~~--------5~~~~---------3~~~~~-------3~~~~~-|
G|----5~~~~~--------5~~~~---------3~~~~~-------3~~~~~-|
D|----3~~~~~--------3~~~~~--------1~~~~~-------1-~~~~-|
A|-33x-----------33x----------------------------------|

Fill1:
d|-------------|----------|
a|-------------|----------|
F|-------------|----------|
C|-------------|----------|
G|-5x-6x-7x-8x-|-5x-6x-7x-|
D|-5x-6x-7x-8x-|-5x-6x-7x-|
A|-3x-4x-5x-6x-|-3x-4x-5x-|

Chorus:
d|-------------------------------|
a|-------------------------------|
F|-------7/8\7-----7---------7/8-|
C|-------xxxxx-----x---------xxx-|
G|-------5/6\5-----5---------5/6-|
D|-------------------------------|
A|-3-3-3-------3-3---3-3-3-3-----|
   . . .       . .   . . . .       .palm mute

Bridge1:
d|----------------------|
a|----------------------|
F|----------------------|
C|-12-12121212-12\11\10-|
G|-xx-xxxxxxxx-xxxxxxxx-|
D|-10-10101010-10\ 9\ 8-|
A|----------------------|

Fill2:
d|-------------|
a|-------------|
F|-------------|
C|-------------|
G|-3/////5~~~--|
D|-------------|
A|-------------|

Bridge2:
d|-----------------|
a|-----------------|
F|-----------------|
C|-8~~~~-5~~~~~----|
G|-8~~~~-5~~~~~-5x-|
D|-6~~~~-3~~~~~-5x-|
A|--------------3x-|

d|-------21-----------21--------------------------|
a|----------22-----------22---22---21---19---1921-|
F|-19/21--------19/21-----------21---21---21------|
C|------------------------------------------------|
G|------------------------------------------------|
D|------------------------------------------------|
A|------------------------------------------------|

d|-2323232323-212121-232323-212121-232323-2121-23-|
a|------------------------------------------------|
F|------------------------------------------------|
C|------------------------------------------------|
G|------------------------------------------------|
D|------------------------------------------------|
A|------------------------------------------------|

d|-------21-----------21--------------------------|
a|----------22-----------22---22---21---19---1921-|
F|-19/21--------19/21-----------21---21---21------|
C|------------------------------------------------|
G|------------------------------------------------|
D|------------------------------------------------|
A|------------------------------------------------|

d|-------------|
a|-XXXXXXXXXXX-|
F|-XXXXXXXXXXX-|
C|-XXXXXXXXXXX-|
G|-XXXXXXXXXXX-|
D|-------------|
A|-------------|

d|-------21-----------21--------------------------|
a|----------22-----------22---22---21---19---1921-|
F|-19/21--------19/21-----------21---21---21------|
C|------------------------------------------------|
G|------------------------------------------------|
D|------------------------------------------------|
A|------------------------------------------------|

d|-2323232323-212121-23232321-|
a|----------------------------|
F|----------------------------|
C|----------------------------|
G|----------------------------|
D|----------------------------|
A|----------------------------|

Chorus:
d|-------------------------------|
a|-------------------------------|
F|-------7/8\7-----7---------7/8-|
C|-------xxxxx-----x---------xxx-|
G|-------5/6\5-----5---------5/6-|
D|-------------------------------|
A|-3-3-3-------3-3---3-3-3-3-----|
   . . .       . .   . . . .       .palm mute

Outro:
d|--------------------|
a|--------------------|
F|-------7/8\7-----7x-|
C|-------xxxxx-----xx-|
G|-------5/6\5-----5x-|
D|--------------------|
A|-3-3-3-------3-3----|
   . . .       . .      .palm mute

KoRn - Politics - See You On The Other Side

Tabbed by Elvisz (elvisz@kornkids.com)
                 (elvisz84@yahoo.com)

Tuning : 7 String Tuned Low to High (A D G C F a d)

Vocal: Jonathan Houseman Davis 'Hiv'
Guitar: James Randal Shaffer 'Munky'
Bass: Reginald Arvizu 'Fieldy'
Drums: David Silveria

Intro:
d|-------------------------------|-------------------------------|
a|-------------------------------|-------------------------------|
F|-------------------------------|-------------------------------|
C|-9~~---------7~--9~--------7~--|-9~~---------7~--9~--------7~--|
G|-9~~--5~~-7--7~--9~--5~--7-7~--|-9~~--5~~-7--7~--9~X-5~--7-7~~-|
D|-7~~-X5~~-7--5~--7~X-5~--7-5~X-|-7~~-X5~~-7--5~--7~X-5~--7-5~~-|
A|-----X3~~-5--------X-3~--5---X-|-----X3~~-5--------X-3~--5-----|

Verse:
d|-----------------------|
a|-----------------------|
F|-----------------------|
C|-----------------------|
G|-9~~-----7~~-----------|
D|-7~~-5~~-5~~-6~~-8-8-8-|
A|-----3~~-----4~~-6-6-6-|

Pre-Chorus:
d|-------------------------------|
a|-------------------------------|
F|-------------------------------|
C|-----9---10--------11----12----|
G|-7~~---77--77-7~~-----77----77-|
D|-------------------------------|
A|-------------------------------|
         ..  ..         ..    ..   .palm mute

Chorus:
d|-------------------------------|-------------------------------|
a|-------------------------------|-------------------------------|
F|-------------------------------|-------------------------------|
C|-9~~---------7~--9~--------7~--|-9~~---------7~--9~--------7~--|
G|-9~~--5~~-7--7~--9~--5~--7-7~--|-9~~--5~~-7--7~--9~X-5~--7-7~~-|
D|-7~~-X5~~-7--5~--7~X-5~--7-5~X-|-7~~-X5~~-7--5~--7~X-5~--7-5~~-|
A|-----X3~~-5--------X-3~--5---X-|-----X3~~-5--------X-3~--5-----|

Verse:
d|-----------------------|
a|-----------------------|
F|-----------------------|
C|-----------------------|
G|-9~~-----7~~-----------|
D|-7~~-5~~-5~~-6~~-8-8-8-|
A|-----3~~-----4~~-6-6-6-|

Pre-Chorus:
d|-------------------------------|
a|-------------------------------|
F|-------------------------------|
C|-----9---10--------11----12----|
G|-7~~---77--77-7~~-----77----77-|
D|-------------------------------|
A|-------------------------------|
         ..  ..         ..    ..   .palm mute

Chorus:
d|-------------------------------|-------------------------------|
a|-------------------------------|-------------------------------|
F|-------------------------------|-------------------------------|
C|-9~~---------7~--9~--------7~--|-9~~---------7~--9~--------7~--|
G|-9~~--5~~-7--7~--9~--5~--7-7~--|-9~~--5~~-7--7~--9~X-5~--7-7~~-|
D|-7~~-X5~~-7--5~--7~X-5~--7-5~X-|-7~~-X5~~-7--5~--7~X-5~--7-5~~-|
A|-----X3~~-5--------X-3~--5---X-|-----X3~~-5--------X-3~--5-----|

Bridge1:
d|-------------------------------|
a|-------------------------------|
F|-7~~~-------5~--7~---------5---|
C|-5~~-X3~~-5-3~--5~-X-3~--5-3-X-|
G|-----X1~~-3--------X-1~--3---X-|
D|-------------------------------|
A|-------------------------------|

d|----------------------------|
a|----------------------------|
F|-12~~-10~~------10----12-10-|
C|-----------12~~----12-------|
G|----------------------------|
D|----------------------------|
A|----------------------------|

Bridge2:
d|-----|
a|-----|
F|-----|
C|-9~~-|	(tremolo pick with wah-wah)
G|-9~~-|
D|-7~~-|

d|------------------|
a|------------------|
F|------------------|
C|------------------|
G|------------------|
D|------------------|
A|-10//121212121212-|

Bridge3:
d|--------------------------------------------------------------------------------|
a|--------------------------------------------------------------------------------|
F|--------------------------------------------------------------------------------|
C|--------------------------------------------------------------------------------|
G|--------------------------------------------------------------------------------|
D|--------------------------------------------------------------------------------|
A|-12^\\\\\\\\\\\\\\-13^\\\\\\\\\\\\\\\\-14^\\\\\\\\\\\\\\\\-15^\\\\\\\\\\\\\\\\\-|

Chorus:
d|-------------------------------|-------------------------------|
a|-------------------------------|-------------------------------|
F|-------------------------------|-------------------------------|
C|-9~~---------7~--9~--------7~--|-9~~---------7~--9~--------7~--|
G|-9~~--5~~-7--7~--9~--5~--7-7~--|-9~~--5~~-7--7~--9~X-5~--7-7~~-|
D|-7~~-X5~~-7--5~--7~X-5~--7-5~X-|-7~~-X5~~-7--5~--7~X-5~--7-5~~-|
A|-----X3~~-5--------X-3~--5---X-|-----X3~~-5--------X-3~--5-----|

d|------------------------------------------|------------------------------------------------|
a|-1010101010101010101010101010101012121010-|-10101010101010101010101010101212101010---------|
F|------------------------------------------|---------------------------------------11119977-|
C|------------------------------------------|------------------------------------------------|
G|------------------------------------------|------------------------------------------------|
D|------------------------------------------|------------------------------------------------|
A|------------------------------------------|------------------------------------------------|

Outro:
d|-------------------------------|-------------------------------|
a|-------------------------------|-------------------------------|
F|-------------------------------|-------------------------------|
C|-9~~---------7~--9~--------7~--|-9~~---------7~--9~--------7~--|
G|-9~~--5~~-7--7~--9~--5~--7-7~--|-9~~--5~~-7--7~--9~X-5~--7-7~~-|
D|-7~~-X5~~-7--5~--7~X-5~--7-5~X-|-7~~-X5~~-7--5~--7~X-5~--7-5~~-|
A|-----X3~~-5--------X-3~--5---X-|-----X3~~-5--------X-3~--5-----|

d|-----|
a|-----|
F|-----|
C|-9~~-|	(tremolo pick with wah-wah)
G|-9~~-|
D|-7~~-|
A|-----|

KoRn - Hypocrites - See You On The Other Side

Tabbed by Elvisz (elvisz@kornkids.com)
                 (elvisz84@yahoo.com)

Tuning : 7 String Tuned Low to High (A D G C F a d)

Vocal: Jonathan Houseman Davis 'Hiv'
Guitar: James Randal Shaffer 'Munky'
Bass: Reginald Arvizu 'Fieldy'
Drums: David Silveria

Intro:
d|------------------------|-------------------------|------------------------|
a|------------------------|-------------------------|------------------------|
F|------------------------|-------------------------|------------------------|
C|------------------------|-------------------------|------------------------|
G|---7-5h7-77-888-555-/10-|---7-5h7-77-101010-55555-|---7-5h7-77-888-555-/10-|
D|-0~~--------------------|-0~~---------------------|-0~~--------------------|
A|------------------------|-------------------------|------------------------|

d|-----------------------|--------------------------|-------------------------|
a|-----------------------|--------------------------|-------------------------|
F|-----------------------|--------------------------|-------------------------|
C|-----------------------|--------------------------|-------------------------|
G|---7-5h7-77-555-888-10-|---7-5h7-77-888-555-10-10-|---7-5h7-77-101010-888-5-|
D|-0~~-------------------|-0~~----------------------|-0~~---------------------|
A|-----------------------|--------------------------|-------------------------|

d|------------------------|-----------------------|-------------------------|
a|------------------------|-----------------------|-------------------------|
F|------------------------|-----------------------|-------------------------|
C|------------------------|-----------------------|-------------------------|
G|---7-5h7-77-888-555-/10-|---7-5h7-77-555-888-10-|---7--5h7-77-888-555-/10-|
D|-0~~--------------------|-0~~-------------------|-0~~---------------------|
A|------------------------|-----------------------|-------------------------|

d|-------------------------|-------------------------|------------------------|
a|-------------------------|-------------------------|------------------------|
F|-------------------------|-------------------------|------------------------|
C|-------------------------|-------------------------|------------------------|
G|---7-5h7-77-101010-55555-|---7--5h7-77-888-555-/10-|---7--5h7-77-555-888-10-|
D|-0~~---------------------|-0~~---------------------|-0~~--------------------|
A|-------------------------|-------------------------|------------------------|

d|---------------|
a|---------------|
F|---------------|
C|-12~~~~-11~~~~-|	(guitar in the background)
G|---------------|
D|---------------|
A|---------------|

Verse: (with no lyrics)
d|-----------------------|-------------------------|
a|-----------------------|-------------------------|
F|-----------------------|-------------------------|
C|-----------------------|-------------------------|
G|-----------------------|-------------------------|
D|-7-7-5/7-77-8-8-5-5-10-|-7-7-5/7-77-10~-10-8-8-6-|
A|-5-5-3/5-55-6-6-3-3- 8-|-5-5-3/5-55- 8~- 8-6-6-4-|
           ..   .   .              ..      .   .     .palm mute

d|-----------------------|-----------------------|
a|-----------------------|-----------------------|
F|-----------------------|-----------------------|
C|-----------------------|-----------------------|
G|-----------------------|-----------------------|
D|-7-7-5/7-77-8-8-5-5-10-|---7-5/7-77-6~X-8~X-10-|
A|-5-5-3/5-55-6-6-3-3- 8-|---5-3/5-55-4~X-6~X- 8-|
           ..   .   .              ..             .palm mute

d|-----------|
a|-----------|
F|-9-999-9-99|
C|-----------|	(background guitar)
G|-----------|
D|-----------|
A|-----------|

Verse:
d|-----------------------|-------------------------|
a|-----------------------|-------------------------|
F|-----------------------|-------------------------|
C|-----------------------|-------------------------|
G|-----------------------|-------------------------|
D|-7-7-5/7-77-8-8-5-5-10-|-7-7-5/7-77-10~-10-8-8-6-|
A|-5-5-3/5-55-6-6-3-3- 8-|-5-5-3/5-55- 8~- 8-6-6-4-|
           ..   .   .              ..      .   .     .palm mute

d|-----------------------|-----------------------|
a|-----------------------|-----------------------|
F|-----------------------|-----------------------|
C|-----------------------|-----------------------|
G|-----------------------|-----------------------|
D|-7-7-5/7-77-8-8-5-5-10-|---7-5/7-77-6~X-8~X-10-|
A|-5-5-3/5-55-6-6-3-3- 8-|---5-3/5-55-4~X-6~X- 8-|
           ..   .   .              ..             .palm mute

Verse-end:
d|----------------------------|
a|----------------------------|
F|----------------------------|
C|----------------------------|
G|----------------------------|
D|----------------------------|
A|-5--5h6r5r3-5-5h6r5r3-5-5-5-|

Pre-Chorus:
d|----------------------------|
a|----------------------------|
F|----------------------------|
C|----------------------------|
G|----------------------------|
D|-6-7-6-----6-7-6-----10~-7~-|
A|-------8-5-------8-5- 8~-5~-|

d|------------------------------|
a|------------------------------|
F|------------------------------|
C|-8-9-8------8-9-8-------------|
G|-------10-7-------10-7--------|
D|-----------------------10~-7~-|
A|----------------------- 8~-5~-|

Fill1:
d|---------------------|
a|---------------------|
F|---------------------|
C|---------------------|
G|---------------------|
D|-6-7-6-----6-7-6-----|
A|-------8-5-------8-5-|

d|-----------------------|
a|-----------------------|
F|-----------------------|
C|-8-9-8------8-9-8------|
G|-------10-7-------10-7-|
D|-----------------------|
A|-----------------------|

Chorus:
d|-----------------------|-------------------------|
a|-----------------------|-------------------------|
F|-----------------------|-------------------------|
C|-----------------------|-------------------------|
G|-----------------------|-------------------------|
D|-7-7-5/7-77-8-8-5-5-10-|-7-7-5/7-77-10~-10-8-8-6-|
A|-5-5-3/5-55-6-6-3-3- 8-|-5-5-3/5-55- 8~- 8-6-6-4-|
           ..   .   .              ..      .   .     .palm mute

d|-----------------------|
a|-----------------------|
F|-----------------------|
C|-----------------------|
G|-----------------------|
D|-7-7-5/7-77-8-8-5-5-10-|
A|-5-5-3/5-55-6-6-3-3- 8-|
           ..   .   .      .palm mute

d|-------------------------------------------|
a|-------------------------------------------|
F|-14~~13~~-(19~~)(17~~)-14~~-13~~-----------|
C|---------------------------------12~~-10~~-|	(background guitar)
G|-----------17~~--15~~~---------------------|
D|-------------------------------------------|
A|-------------------------------------------|

Verse: (with no lyrics)
d|-----------------------|-------------------------|
a|-----------------------|-------------------------|
F|-----------------------|-------------------------|
C|-----------------------|-------------------------|
G|-----------------------|-------------------------|
D|-7-7-5/7-77-8-8-5-5-10-|-7-7-5/7-77-10~-10-8-8-6-|
A|-5-5-3/5-55-6-6-3-3- 8-|-5-5-3/5-55- 8~- 8-6-6-4-|
           ..   .   .              ..      .   .     .palm mute

d|-----------------------|-----------------------|
a|-----------------------|-----------------------|
F|-----------------------|-----------------------|
C|-----------------------|-----------------------|
G|-----------------------|-----------------------|
D|-7-7-5/7-77-8-8-5-5-10-|---7-5/7-77-6~X-8~X-10-|
A|-5-5-3/5-55-6-6-3-3- 8-|---5-3/5-55-4~X-6~X- 8-|
           ..   .   .              ..             .palm mute

Verse:
d|-----------------------|-------------------------|
a|-----------------------|-------------------------|
F|-----------------------|-------------------------|
C|-----------------------|-------------------------|
G|-----------------------|-------------------------|
D|-7-7-5/7-77-8-8-5-5-10-|-7-7-5/7-77-10~-10-8-8-6-|
A|-5-5-3/5-55-6-6-3-3- 8-|-5-5-3/5-55- 8~- 8-6-6-4-|
           ..   .   .              ..      .   .     .palm mute

d|-----------------------|-----------------------|
a|-----------------------|-----------------------|
F|-----------------------|-----------------------|
C|-----------------------|-----------------------|
G|-----------------------|-----------------------|
D|-7-7-5/7-77-8-8-5-5-10-|---7-5/7-77-6~X-8~X-10-|
A|-5-5-3/5-55-6-6-3-3- 8-|---5-3/5-55-4~X-6~X- 8-|
           ..   .   .              ..             .palm mute

Verse-end:
d|----------------------------|
a|----------------------------|
F|----------------------------|
C|----------------------------|
G|----------------------------|
D|----------------------------|
A|-5--5h6r5r3-5-5h6r5r3-5-5-5-|

Pre-Chorus:
d|----------------------------|
a|----------------------------|
F|----------------------------|
C|----------------------------|
G|----------------------------|
D|-6-7-6-----6-7-6-----10~-7~-|
A|-------8-5-------8-5- 8~-5~-|

d|------------------------------|
a|------------------------------|
F|------------------------------|
C|-8-9-8------8-9-8-------------|
G|-------10-7-------10-7--------|
D|-----------------------10~-7~-|
A|----------------------- 8~-5~-|

Fill1:
d|---------------------|
a|---------------------|
F|---------------------|
C|---------------------|
G|---------------------|
D|-6-7-6-----6-7-6-----|
A|-------8-5-------8-5-|

d|-----------------------|
a|-----------------------|
F|-----------------------|
C|-8-9-8------8-9-8------|
G|-------10-7-------10-7-|
D|-----------------------|
A|-----------------------|

Chorus:
d|-----------------------|-------------------------|
a|-----------------------|-------------------------|
F|-----------------------|-------------------------|
C|-----------------------|-------------------------|
G|-----------------------|-------------------------|
D|-7-7-5/7-77-8-8-5-5-10-|-7-7-5/7-77-10~-10-8-8-6-|
A|-5-5-3/5-55-6-6-3-3- 8-|-5-5-3/5-55- 8~- 8-6-6-4-|
           ..   .   .              ..      .   .     .palm mute

d|-----------------------|
a|-----------------------|
F|-----------------------|
C|-----------------------|
G|-----------------------|
D|-7-7-5/7-77-8-8-5-5-10-|
A|-5-5-3/5-55-6-6-3-3- 8-|
           ..   .   .      .palm mute

d|-------------------------------------------|
a|-------------------------------------------|
F|-14~~13~~-(19~~)(17~~)-14~~-13~~-----------|
C|---------------------------------12~~-10~~-|	(background guitar)
G|-----------17~~--15~~~---------------------|
D|-------------------------------------------|
A|-------------------------------------------|

Verse: (with no lyrics)
d|-----------------------|-------------------------|
a|-----------------------|-------------------------|
F|-----------------------|-------------------------|
C|-----------------------|-------------------------|
G|-----------------------|-------------------------|
D|-7-7-5/7-77-8-8-5-5-10-|-7-7-5/7-77-10~-10-8-8-6-|
A|-5-5-3/5-55-6-6-3-3- 8-|-5-5-3/5-55- 8~- 8-6-6-4-|
           ..   .   .              ..      .   .     .palm mute

d|-----------------------|-----------------------|
a|-----------------------|-----------------------|
F|-----------------------|-----------------------|
C|-----------------------|-----------------------|
G|-----------------------|-----------------------|
D|-7-7-5/7-77-8-8-5-5-10-|---7-5/7-77-6~X-8~X-10-|
A|-5-5-3/5-55-6-6-3-3- 8-|---5-3/5-55-4~X-6~X- 8-|
           ..   .   .              ..             .palm mute

Bridge:
d|------------------------------|
a|------------------------------|
F|------------------------------|
C|-8-9-8------8-9-8-------------|
G|-------10-7-------10-7--------|
D|-----------------------10~-7~-|
A|----------------------- 8~-5~-|

Pre-Chorus:
d|----------------------------|
a|----------------------------|
F|----------------------------|
C|----------------------------|
G|----------------------------|
D|-6-7-6-----6-7-6-----10~-7~-|
A|-------8-5-------8-5- 8~-5~-|

d|------------------------------|
a|------------------------------|
F|------------------------------|
C|-8-9-8------8-9-8-------------|
G|-------10-7-------10-7--------|
D|-----------------------10~-7~-|
A|----------------------- 8~-5~-|

d|-------------------------------------------|
a|-------------------------------------------|
F|-14~~13~~-(19~~)(17~~)-14~~-13~~-----------|
C|---------------------------------12~~-10~~-|	(background guitar)
G|-----------17~~--15~~~---------------------|
D|-------------------------------------------|
A|-------------------------------------------|

Verse:
d|-----------------------|-------------------------|
a|-----------------------|-------------------------|
F|-----------------------|-------------------------|
C|-----------------------|-------------------------|
G|-----------------------|-------------------------|
D|-7-7-5/7-77-8-8-5-5-10-|-7-7-5/7-77-10~-10-8-8-6-|
A|-5-5-3/5-55-6-6-3-3- 8-|-5-5-3/5-55- 8~- 8-6-6-4-|
           ..   .   .              ..      .   .     .palm mute

d|-----------------------|-----------------------|
a|-----------------------|-----------------------|
F|-----------------------|-----------------------|
C|-----------------------|-----------------------|
G|-----------------------|-----------------------|
D|-7-7-5/7-77-8-8-5-5-10-|---7-5/7-77-6~X-8~X-10-|
A|-5-5-3/5-55-6-6-3-3- 8-|---5-3/5-55-4~X-6~X- 8-|
           ..   .   .              ..             .palm mute

Outro:
d|-----------------------|-------------------------|
a|-----------------------|-------------------------|
F|-----------------------|-------------------------|
C|-----------------------|-------------------------|
G|-----------------------|-------------------------|
D|-7-7-5/7-77-8-8-5-5-10-|-7-7-5/7-77-10~-10-8-8-6-|
A|-5-5-3/5-55-6-6-3-3- 8-|-5-5-3/5-55- 8~- 8-6-6-4-|
           ..   .   .              ..      .   .     .palm mute

d|-----------------------|-----------------------|
a|-----------------------|-----------------------|
F|-----------------------|-----------------------|
C|-----------------------|-----------------------|
G|-----------------------|-----------------------|
D|-7-7-5/7-77-8-8-5-5-10-|---7-5/7-77-6~X-8~X-10-|
A|-5-5-3/5-55-6-6-3-3- 8-|---5-3/5-55-4~X-6~X- 8-|
           ..   .   .              ..             .palm mute

d|-------------------------------------------|
a|-------------------------------------------|
F|-14~~13~~-(19~~)(17~~)-14~~-13~~-----------|
C|---------------------------------12~~-10~~-|	(background guitar)
G|-----------17~~--15~~~---------------------|
D|-------------------------------------------|
A|-------------------------------------------|

KoRn - Souvenir - See You On The Other Side

Tabbed by Elvisz (elvisz@kornkids.com)
                 (elvisz84@yahoo.com)

Tuning : 7 String Tuned Low to High (A D G C F a d)

Vocal: Jonathan Houseman Davis 'Hiv'
Guitar: James Randal Shaffer 'Munky'
Bass: Reginald Arvizu 'Fieldy'
Drums: David Silveria

Intro:
d|---------------------------------|
a|---------------------------------|
F|---------------------------------|
C|---------------------------------|
G|---------------------------------|
D|---------------------------------|
A|-5~~--533-633-53-5~~--533-633-53-|
   .    ... ... .. .    ... ... ..  .palm mute

Pre-Verse:
d|------------------------|------------------------|
a|------8-8-8-8-----10-11-|------8-8-8-8-----5--\3-|
F|------------------------|------------------------|
C|------------------------|------------------------|
G|-7-7----------7-7-------|-7-7----------7-7-------|
D|-7-7----------7-7-------|-7-7----------7-7-------|
A|-5-5----------5-5-------|-5-5----------5-5-------|

d|------------------------|------------------------|
a|------------------------|------------------------|
F|------------------------|------------------------|
C|------------------------|------------------------|
G|-7-7--10~~~~-7-7--12-13-|-7-7--10~~~~-7-7--7--\5-|
D|-7-7--10~~~~-7-7--12-13-|-7-7--10~~~~-7-7--7--\5-|
A|-5-5-- 8~~~~-5-5--10-11-|-5-5-- 8~~~~-5-5--5--\3-|

Verse:
d|---------------------------------|
a|---------------------------------|
F|---------------------------------|
C|---------------------------------|
G|---------------------------------|
D|---------------------------------|
A|-5~~--533-633-53-5~~--533-633-53-|
   .    ... ... .. .    ... ... ..  .palm mute

Pre-Chorus:
d|-----------------------|
a|-----------------------|
F|-----------------------|
C|-----------------------|
G|-----------------------|
D|-----------------------|
A|-5\\4-4\\3-3\\2-2-2345-|

d|-------|-------|-------|---------|
a|-------|-------|-------|---------|
F|-14~~~~|-14~~~~|-13~~~~|-13/14~~-|	(chorus or flanger pedal)
C|-------|-------|-------|---------|
G|-------|-------|-------|---------|
D|-------|-------|-------|---------|
A|-------|-------|-------|---------|

Chorus:
d|------------------------|------------------------|
a|------8-8-8-8-----10-11-|------8-8-8-8-----5--\3-|
F|------------------------|------------------------|
C|------------------------|------------------------|
G|-7-7----------7-7-------|-7-7----------7-7-------|
D|-7-7----------7-7-------|-7-7----------7-7-------|
A|-5-5----------5-5-------|-5-5----------5-5-------|

d|------------------------|------------------------|
a|------------------------|------------------------|
F|------------------------|------------------------|
C|------------------------|------------------------|
G|-7-7--10~~~~-7-7--12-13-|-7-7--10~~~~-7-7--7--\5-|
D|-7-7--10~~~~-7-7--12-13-|-7-7--10~~~~-7-7--7--\5-|
A|-5-5-- 8~~~~-5-5--10-11-|-5-5-- 8~~~~-5-5--5--\3-|

Verse:
d|---------------------------------|
a|---------------------------------|
F|---------------------------------|
C|---------------------------------|
G|---------------------------------|
D|---------------------------------|
A|-5~~--533-633-53-5~~--533-633-53-|
   .    ... ... .. .    ... ... ..  .palm mute

Pre-Chorus:
d|-----------------------|
a|-----------------------|
F|-----------------------|
C|-----------------------|
G|-----------------------|
D|-----------------------|
A|-5\\4-4\\3-3\\2-2-2345-|

d|-------|-------|-------|---------|
a|-------|-------|-------|---------|
F|-14~~~~|-14~~~~|-13~~~~|-13/14~~-|	(chorus or flanger pedal)
C|-------|-------|-------|---------|
G|-------|-------|-------|---------|
D|-------|-------|-------|---------|
A|-------|-------|-------|---------|

Chorus:
d|------------------------|------------------------|
a|------8-8-8-8-----10-11-|------8-8-8-8-----5--\3-|
F|------------------------|------------------------|
C|------------------------|------------------------|
G|-7-7----------7-7-------|-7-7----------7-7-------|
D|-7-7----------7-7-------|-7-7----------7-7-------|
A|-5-5----------5-5-------|-5-5----------5-5-------|

d|------------------------|------------------------|
a|------------------------|------------------------|
F|------------------------|------------------------|
C|------------------------|------------------------|
G|-7-7--10~~~~-7-7--12-13-|-7-7--10~~~~-7-7--7--\5-|
D|-7-7--10~~~~-7-7--12-13-|-7-7--10~~~~-7-7--7--\5-|
A|-5-5-- 8~~~~-5-5--10-11-|-5-5-- 8~~~~-5-5--5--\3-|

Bridge:
d|-----------------------------------------------------|
a|-----------------------------------------------------|
F|-12~~~-10~~-12~~~-10~~-12~~~-10~~--------------------|
C|----------------------------------12~~~---10~~~-(8~)-|
G|-----------------------------------------------------|
D|-----------------------------------------------------|
A|-----------------------------------------------------| 

d|-2222222222222222\\\\\\\\\(13)-|-22222222^22222222\\\\\\\\\(13)-|
a|-------------------------------|--------------------------------|
F|-------------------------------|--------------------------------|
C|-------------------------------|--------------------------------|
G|-------------------------------|--------------------------------|
D|-------------------------------|--------------------------------|
A|-------------------------------|--------------------------------|

                   bend this note half note up 
                   \            
d|-2222222222222222-242424242424-2424242424\\\\\\\\\\\\\(17)-|
a|------------------ ^          -----------------------------|
F|-----------------------------------------------------------|
C|-----------------------------------------------------------|
G|-----------------------------------------------------------|
D|-----------------------------------------------------------|
A|-----------------------------------------------------------|

Pre-Chorus:
d|-----------------------|
a|-----------------------|
F|-----------------------|
C|-----------------------|
G|-----------------------|
D|-----------------------|
A|-5\\4-4\\3-3\\2-2-2345-|

Chorus:
d|------------------------|------------------------|
a|------8-8-8-8-----10-11-|------8-8-8-8-----5--\3-|
F|------------------------|------------------------|
C|------------------------|------------------------|
G|-7-7----------7-7-------|-7-7----------7-7-------|
D|-7-7----------7-7-------|-7-7----------7-7-------|
A|-5-5----------5-5-------|-5-5----------5-5-------|

d|------------------------|------------------------|
a|------------------------|------------------------|
F|------------------------|------------------------|
C|------------------------|------------------------|
G|-7-7--10~~~~-7-7--12-13-|-7-7--10~~~~-7-7--7--\5-|
D|-7-7--10~~~~-7-7--12-13-|-7-7--10~~~~-7-7--7--\5-|
A|-5-5-- 8~~~~-5-5--10-11-|-5-5-- 8~~~~-5-5--5--\3-|

KoRn - 10 Or A 2 Way - See You On The Other Side

Tabbed by Elvisz (elvisz@kornkids.com)
                 (elvisz84@yahoo.com)

Tuning : 7 String Tuned Low to High (A D G C F a d)

Vocal: Jonathan Houseman Davis 'Hiv'
Guitar: James Randal Shaffer 'Munky'
Bass: Reginald Arvizu 'Fieldy'
Drums: David Silveria

Pre-Chorus:(with wah, at the mark bend with tremolo)
d|----------|
a|----------|
F|----------|
C|-9~~^~~---|
G|-9~~^~~---|
D|-7~~^~~---|
A|----------|

Chorus:
d|-------------------------|
a|-------------------------|
F|-------------------------|
C|----7~-5-2--3-5-3--2-3-2-|
G|-5~-7~-5-2--3-5-3--2-3-2-|
D|-5~-5~-3-0--1-3-1--0-1-0-|
A|-3~----------------------|

d|-18181818181818212121212119191919181818181818181818\\\1414141411111111-|
a|-----------------------------------------------------------------------|
F|-----------------------------------------------------------------------|
C|-----------------------------------------------------------------------|
G|-----------------------------------------------------------------------|
D|-----------------------------------------------------------------------|
A|-----------------------------------------------------------------------|

Fill1:
d|-------------------------|
a|-------------------------|
F|-------------------------|
C|----7~-5-2--3-5-3--XX-XX-|
G|-5~-7~-5-2--3-5-3--XX-XX-|
D|-5~-5~-3-0--1-3-1--XX-XX-|
A|-3~----------------------|

Pre-Chorus:(with wah, at the mark bend with tremolo)
d|----------|
a|----------|
F|----------|
C|-9~~^~~---|
G|-9~~^~~---|
D|-7~~^~~---|
A|----------|

Chorus:
d|-------------------------|
a|-------------------------|
F|-------------------------|
C|----7~-5-2--3-5-3--2-3-2-|
G|-5~-7~-5-2--3-5-3--2-3-2-|
D|-5~-5~-3-0--1-3-1--0-1-0-|
A|-3~----------------------|

d|-18181818181818212121212119191919181818181818181818\\\1414141411111111-|
a|-----------------------------------------------------------------------|
F|-----------------------------------------------------------------------|
C|-----------------------------------------------------------------------|
G|-----------------------------------------------------------------------|
D|-----------------------------------------------------------------------|
A|-----------------------------------------------------------------------|

Fill1:
d|-------------------------|
a|-------------------------|
F|-------------------------|
C|----7~-5-2--3-5-3--XX-XX-|
G|-5~-7~-5-2--3-5-3--XX-XX-|
D|-5~-5~-3-0--1-3-1--XX-XX-|
A|-3~----------------------|

Bridge1:
d|-------------------|
a|-------------------|
F|---------10\9------|
C|---------xx\x-10\9-|
G|--------- 8\7-xx\x-|
D|-X\7---------- 8\7-|
A|-X\5-56------------|

Bridge2:
d|----------------------------------|------------------------------------------|
a|----------------------------------|------------------------------------------|
F|-99999999999977771010101010101010-|-1212121299999999999977771010101010106666-|
C|-xxxxxxxxxxxxxxxxxxxxxxxxxxxxxxxx-|-xxxxxxxxxxxxxxxxxxxxxxxxxxxxxxxxxxxxxxxx-|
G|-7777777777775555 8 8 8 8 8 8 8 8-|-101010107777777777775555 8 8 8 8 8 84444-|
D|----------------------------------|------------------------------------------|
A|----------------------------------|------------------------------------------|

Bridge3:
d|-----------------------|-----------------------|
a|-----------------------|-----------------------|
F|-----------------------|-----------------------|
C|-----------------------|-----------------------|
G|-----------------------|-----------------------|
D|----5r1---1-3-1--0-1-0-|----5r1---1-3-1--0-1-0-|
A|-3~--------------------|-33--------------------|

Chorus:
d|-------------------------|
a|-------------------------|
F|-------------------------|
C|----7~-5-2--3-5-3--2-3-2-|
G|-5~-7~-5-2--3-5-3--2-3-2-|
D|-5~-5~-3-0--1-3-1--0-1-0-|
A|-3~----------------------|

d|-18181818181818212121212119191919181818181818181818\\\1414141411111111-|
a|-----------------------------------------------------------------------|
F|-----------------------------------------------------------------------|
C|-----------------------------------------------------------------------|
G|-----------------------------------------------------------------------|
D|-----------------------------------------------------------------------|
A|-----------------------------------------------------------------------|

KoRn - Throw Me Away - See You On The Other Side

Tabbed by Elvisz (elvisz@kornkids.com)
                 (elvisz84@yahoo.com)

Tuning : 7 String Tuned Low to High (A D G C F a d)

Vocal: Jonathan Houseman Davis 'Hiv'
Guitar: James Randal Shaffer 'Munky'
Bass: Reginald Arvizu 'Fieldy'
Drums: David Silveria

Verse:
d|-----------------------------------------------------------|
a|-----------------------------------------------------------|
F|-----------------------------------------------------------|
C|-16~~~-17~~~-19~~~-20~~-19~~---16~~~-17~~~-19~~~-20~~-22~~-|
G|-----------------------------------------------------------|
D|-----------------------------------------------------------|
A|-----------------------------------------------------------|

Chorus:
d|----------------------|
a|----------------------|
F|----------------------|
C|-4~~~-5~~~-7~~~-8~-7~-|
G|-4~~~-5~~~-7~~~-8~-7~-|
D|-2~~~-3~~~-5~~~-6~-5~-|
A|----------------------|

d|--------------------------------------------------|
a|--------------------------------------------------|
F|-111111111111121212121212141414141414151515141414-|
C|-xxxxxxxxxxxxxxxxxxxxxxxxxxxxxxxxxxxxxxxxxxxxxxxx-|
G|- 9 9 9 9 9 9101010101010121212121212131313121212-|
D|--------------------------------------------------|
A|--------------------------------------------------|

d|--------------------------------------------------|
a|--------------------------------------------------|
F|-111111111111121212121212141414141414151515171717-|
C|-xxxxxxxxxxxxxxxxxxxxxxxxxxxxxxxxxxxxxxxxxxxxxxxx-|
G|- 9 9 9 9 9 9101010101010121212121212131313151515-|
D|--------------------------------------------------|
A|--------------------------------------------------|

Verse:
d|-----------------------------------------------------------|
a|-----------------------------------------------------------|
F|-----------------------------------------------------------|
C|-16~~~-17~~~-19~~~-20~~-19~~---16~~~-17~~~-19~~~-20~~-22~~-|
G|-----------------------------------------------------------|
D|-----------------------------------------------------------|
A|-----------------------------------------------------------|

Chorus:
d|----------------------|
a|----------------------|
F|----------------------|
C|-4~~~-5~~~-7~~~-8~-7~-|
G|-4~~~-5~~~-7~~~-8~-7~-|
D|-2~~~-3~~~-5~~~-6~-5~-|
A|----------------------|

d|--------------------------------------------------|
a|--------------------------------------------------|
F|-111111111111121212121212141414141414151515141414-|
C|-xxxxxxxxxxxxxxxxxxxxxxxxxxxxxxxxxxxxxxxxxxxxxxxx-|
G|- 9 9 9 9 9 9101010101010121212121212131313121212-|
D|--------------------------------------------------|
A|--------------------------------------------------|

d|--------------------------------------------------|
a|--------------------------------------------------|
F|-111111111111121212121212141414141414151515171717-|
C|-xxxxxxxxxxxxxxxxxxxxxxxxxxxxxxxxxxxxxxxxxxxxxxxx-|
G|- 9 9 9 9 9 9101010101010121212121212131313151515-|
D|--------------------------------------------------|
A|--------------------------------------------------|

Bridge:
d|--------|
a|--------|
F|--------|
C|-4~~^~~-|
G|--------|
D|--------|
A|--------|

d|--------------------------------|--------------------------------|
a|--------------------------------|--------------------------------|
F|--------------------------------|--------------------------------|
C|-444444444777777766666662222222-|-444444444777777766666662222222-|
G|--------------------------------|--------------------------------|
D|--------------------------------|--------------------------------|
A|--------------------------------|--------------------------------|

d|--------------------------------------|---------------------------------------------|
a|--------------------------------------|---------------------------------------------|
F|--------------------------------------|---------------------------------------------|
C|-777777779777799777107999999109109997-|-777777779777799777107999999109109997-7~~^~~-|
G|--------------------------------------|---------------------------------------------|
D|--------------------------------------|---------------------------------------------|
A|--------------------------------------|---------------------------------------------|

Bridge2:
d|------------------------------------------------------------|
a|------------------------------------------------------------|
F|------------------------------------------------------------|
C|-12-12-12-1212-12-12-12-1212-17-17-17-17-17-1717-1414141515-|
G|------------------------------------------------------------|
D|------------------------------------------------------------|
A|------------------------------------------------------------|

d|-----------------------------------------------------------|
a|-----------------------------------------------------------|
F|-----------------------------------------------------------|
C|-16~~~-17~~~-19~~~-20~~-19~~---16~~~-17~~~-19~~~-20~~-22~~-|
G|-----------------------------------------------------------|
D|-----------------------------------------------------------|
A|-----------------------------------------------------------|

Chorus:
d|------------------------------------------------------------|
a|------------------------------------------------------------|
F|------------------------------------------------------------|
C|-12-12-12-1212-12-12-12-1212-17-17-17-17-17-1717-1414141515-|
G|------------------------------------------------------------|
D|------------------------------------------------------------|
A|------------------------------------------------------------|

d|----------------------|
a|----------------------|
F|----------------------|
C|-4~~~-5~~~-7~~~-8~-7~-|
G|-4~~~-5~~~-7~~~-8~-7~-|
D|-2~~~-3~~~-5~~~-6~-5~-|
A|----------------------|

d|--------------------------------------------------|
a|--------------------------------------------------|
F|-111111111111121212121212141414141414151515141414-|
C|-xxxxxxxxxxxxxxxxxxxxxxxxxxxxxxxxxxxxxxxxxxxxxxxx-|
G|- 9 9 9 9 9 9101010101010121212121212131313121212-|
D|--------------------------------------------------|
A|--------------------------------------------------|

d|--------------------------------------------------|
a|--------------------------------------------------|
F|-111111111111121212121212141414141414151515171717-|
C|-xxxxxxxxxxxxxxxxxxxxxxxxxxxxxxxxxxxxxxxxxxxxxxxx-|
G|- 9 9 9 9 9 9101010101010121212121212131313151515-|
D|--------------------------------------------------|
A|--------------------------------------------------|

KoRn - Love Song - See You On The Other Side

Tabbed by Elvisz (elvisz@kornkids.com)
                 (elvisz84@yahoo.com)

Tuning : 7 String Tuned Low to High (A D G C F a d)

Vocal: Jonathan Houseman Davis 'Hiv'
Guitar: James Randal Shaffer 'Munky'
Bass: Reginald Arvizu 'Fieldy'
Drums: David Silveria

Intro:
d|----------------------------------|
a|----------------------------------|
F|----------------------------------|
C|----------------------------------|
G|---9----9----9----9----9----9-----|
D|---7----7----7----7----7----7--7x-|
A|-0----0----0----0----0----0----0x-|
   .    .    .    .    .    .    .   .palm mute

in the background some scratching noise with pick (A), like:
d|---|---|
a|---|---|
F|---|---|
C|---|-9-|
G|-2-|-9-|
D|-2-|-7-|
A|-0-|---|

Pre-Chorus:
d|----------------------------|
a|----------------------------|
F|----------------------------|
C|---9------9----10-10----7-7-|
G|---x------x----xx-xx----x-x-|
D|---7------7---- 8- 8----5-5-|
A|-0---00-0---00-------00-----|
   .   .. .   ..       ..      .palm mute
 
d|---------------------------|
a|---------------------------|
F|---------------------------|
C|---9999999----10-10----7-7-|
G|---xxxxxxx----xx-xx----x-x-|
D|---7777777---- 8- 8----5-5-|
A|-0---------00-------00-----|
   .         ..       ..      .palm mute

d|----------------------------|
a|----------------------------|
F|----------------------------|
C|---9------9----10-10----7-7-|
G|---x------x----xx-xx----x-x-|
D|---7------7---- 8- 8----5-5-|
A|-0---00-0---00-------00-----|
   .   .. .   ..       ..      .palm mute
 
d|-----------------------|
a|-----------------------|
F|-----------------------|
C|---9999999----10-10----|
G|---xxxxxxx----xx-xx----|
D|---7777777---- 8- 8----|
A|-0---------00-------00-|
   .         ..       ..  .palm mute

Chorus:
d|----------------------------|
a|----------------------------|
F|----------------------------|
C|----------------------------|
G|----------------------------|
D|----------------------------|
A|-2-3-4-3-2-3-2-1-1-2-3-2-1x-|

Verse:
d|----------------------------------|
a|----------------------------------|
F|----------------------------------|
C|----------------------------------|
G|---9----9----9----9----9----9-----|
D|---7----7----7----7----7----7--7x-|
A|-0----0----0----0----0----0----0x-|
   .    .    .    .    .    .    .   .palm mute

Pre-Chorus:
d|----------------------------|
a|----------------------------|
F|----------------------------|
C|---9------9----10-10----7-7-|
G|---x------x----xx-xx----x-x-|
D|---7------7---- 8- 8----5-5-|
A|-0---00-0---00-------00-----|
   .   .. .   ..       ..      .palm mute
 
d|---------------------------|
a|---------------------------|
F|---------------------------|
C|---9999999----10-10----7-7-|
G|---xxxxxxx----xx-xx----x-x-|
D|---7777777---- 8- 8----5-5-|
A|-0---------00-------00-----|
   .         ..       ..      .palm mute

d|----------------------------|
a|----------------------------|
F|----------------------------|
C|---9------9----10-10----7-7-|
G|---x------x----xx-xx----x-x-|
D|---7------7---- 8- 8----5-5-|
A|-0---00-0---00-------00-----|
   .   .. .   ..       ..      .palm mute
 
d|-----------------------|
a|-----------------------|
F|-----------------------|
C|---9999999----10-10----|
G|---xxxxxxx----xx-xx----|
D|---7777777---- 8- 8----|
A|-0---------00-------00-|
   .         ..       ..  .palm mute

Fill1:
d|------|
a|------|
F|------|
C|------|
G|------|
D|------|
A|-3332-|
   ....   .palm mute

Chorus:
d|----------------------------|
a|----------------------------|
F|----------------------------|
C|----------------------------|
G|----------------------------|
D|----------------------------|
A|-2-3-4-3-2-3-2-1-1-2-3-2-1x-|

Bridge1:
d|---------------------------------------------------------|
a|---------------------------------------------------------|
F|---------------------------------------------------------|
C|----5----5---5----7----7---7----6----6---6----4----4---4-|
G|----x----x---x----x----x---x----x----x---x----x----x---x-|
D|----3----3---3----5----5---5----4----4---4----2----2---2-|
A|-00---00---0---00---00---0---00---00---0---00---00---0---|


Bridge2:
d|-------------|-------------|------------------------|
a|-------------|-------------|------------------------|
F|-------------|-------------|------------------------|
C|-------------|-------------|------------------------|
G|-5---------5-|-5---------5-|-5------------5---------|
D|-------------|-------------|------------------------|
A|---3-2-1-2---|---3-2-1-2---|---3-2-1-2-31---2-1-2-3-|

Chorus:
d|----------------------------|
a|----------------------------|
F|----------------------------|
C|----------------------------|
G|----------------------------|
D|----------------------------|
A|-2-3-4-3-2-3-2-1-1-2-3-2-1x-|

KoRn - Open Up - See You On The Other Side

Tabbed by Elvisz (elvisz@kornkids.com)
                 (elvisz84@yahoo.com)

Tuning : 7 String Tuned Low to High (A D G C F a d)

Vocal: Jonathan Houseman Davis 'Hiv'
Guitar: James Randal Shaffer 'Munky'
Bass: Reginald Arvizu 'Fieldy'
Drums: David Silveria

Verse:
d|-------------------|
a|-------------------|
F|-6~~7~~3~~4~~////9-|
C|-x~~x~~x~~x~~////X-|
G|-4~~5~~1~~2~~////7-|
D|-------------------|
A|-------------------|

Chorus:
d|--------------------------------------|
a|--------------------------------------|
F|--------------------------------------|
C|-----7~~~----5~~~7~~~6~~~10~~~9~~~/12-|
G|-4~~~7~~~2~~~5~~~7~~~6~~~10~~~9~~~/12-|
D|-4~~~5~~~2~~~3~~~5~~~4~~~ 8~~~7~~~/10-|
A|-2~~~----0~~~-------------------------|

d|--------------------------------------|
a|--------------------------------------|
F|--------------------------------------|
C|-----7~~~----5~~~4~~~6~~~7~~~9~~~-/12-|
G|-4~~~7~~~2~~~5~~~4~~~6~~~7~~~9~~~-/12-|
D|-4~~~5~~~2~~~3~~~2~~~4~~~5~~~7~~~-/10-|
A|-2~~~----0~~~-------------------------|

Verse:
d|-------------------|
a|-------------------|
F|-6~~7~~3~~4~~////9-|
C|-x~~x~~x~~x~~////X-|
G|-4~~5~~1~~2~~////7-|
D|-------------------|
A|-------------------|

Chorus:
d|--------------------------------------|
a|--------------------------------------|
F|--------------------------------------|
C|-----7~~~----5~~~7~~~6~~~10~~~9~~~/12-|
G|-4~~~7~~~2~~~5~~~7~~~6~~~10~~~9~~~/12-|
D|-4~~~5~~~2~~~3~~~5~~~4~~~ 8~~~7~~~/10-|
A|-2~~~----0~~~-------------------------|

d|--------------------------------------|
a|--------------------------------------|
F|--------------------------------------|
C|-----7~~~----5~~~4~~~6~~~7~~~9~~~-/12-|
G|-4~~~7~~~2~~~5~~~4~~~6~~~7~~~9~~~-/12-|
D|-4~~~5~~~2~~~3~~~2~~~4~~~5~~~7~~~-/10-|
A|-2~~~----0~~~-------------------------|

Bridge1:
d|-------------------|
a|-------------------|
F|-6~~~~~3~~4~~////9-|
C|-x~~~~~x~~x~~////X-|
G|-4~~~~~1~~2~~////7-|
D|-------------------|
A|-------------------|

Bridge2:
d|--------------------|
a|--------------------|
F|--------------------|
C|-----7~~~----5~~~9~-|
G|-4~~~7~~~2~~~5~~~9~-|
D|-4~~~5~~~2~~~3~~~7~-|
A|-2~~~----0~~~-------|

Chorus:
d|--------------------------------------|
a|--------------------------------------|
F|--------------------------------------|
C|-----7~~~----5~~~4~~~6~~~7~~~9~~~-/12-|
G|-4~~~7~~~2~~~5~~~4~~~6~~~7~~~9~~~-/12-|
D|-4~~~5~~~2~~~3~~~2~~~4~~~5~~~7~~~-/10-|
A|-2~~~----0~~~-------------------------|

Outro:
d|----|
a|----|
F|-6~~|
C|----|
G|----|
D|----|
A|----|

KoRn - Coming Undone - See You On The Other Side

Tabbed by Elvisz (elvisz@kornkids.com)
                 (elvisz84@yahoo.com)

Tuning : 7 String Tuned Low to High (A D G C F a d)

Vocal: Jonathan Houseman Davis 'Hiv'
Guitar: James Randal Shaffer 'Munky'
Bass: Reginald Arvizu 'Fieldy'
Drums: David Silveria

Intro:
d|----------------------------|
a|----------------------------|
F|----------------------------|
C|----------------------------|
G|----------------------------|
D|----------------------------|
A|-555-5-555-5-555-5-555-5-55-|

Verse:
d|----------------------------|
a|----------------------------|
F|----------------------------|
C|----------------------------|
G|----------------------------|
D|----------------------------|
A|-555-5-555-5-555-5-555-5-55-|

Pre-Chorus:
d|---------------------------|-------------------------|
a|---------------------------|-------------------------|
F|---------------------------|-------------------------|
C|-9-9-----------------------|-9-9---------------7^~~~-|
G|-7-7-10-10-------------8~~-|-7-7-10-10---------------|
D|----- 8- 8-10-10-7-(7)-6~~-|----- 8- 8-10-10-7-------|
A|----------- 8- 8-5-(5)-----|----------- 8- 8-5-------|

Chorus:
d|-------------------|-----------------|
a|-------------------|-----------------|
F|-------------------|-----------------|
C|-14~~--------------|-14~~------------|
G|-xx---7-7-8-8-10\8-|-xx---7-7-8-8-5~-|
D|-12~~-7-7-8-8-10\8-|-12~~-7-7-8-8-5~-|
A|------5-5-6-6- 8\6-|------5-5-6-6-3~-|

Fill1:
d|--------------|
a|--------------|
F|--------------|
C|--------------|
G|--------------|
D|-7777----7777-|
A|-5555----5555-|
   ....    ....   .palm mute

Verse:
d|----------------------------|
a|----------------------------|
F|----------------------------|
C|----------------------------|
G|----------------------------|
D|----------------------------|
A|-555-5-555-5-555-5-555-5-55-|

Pre-Chorus:
d|---------------------------|-------------------------|
a|---------------------------|-------------------------|
F|---------------------------|-------------------------|
C|-9-9-----------------------|-9-9---------------7^~~~-|
G|-7-7-10-10-------------8~~-|-7-7-10-10---------------|
D|----- 8- 8-10-10-7-(7)-6~~-|----- 8- 8-10-10-7-------|
A|----------- 8- 8-5-(5)-----|----------- 8- 8-5-------|

Chorus:
d|-------------------|-----------------|
a|-------------------|-----------------|
F|-------------------|-----------------|
C|-14~~--------------|-14~~------------|
G|-xx---7-7-8-8-10\8-|-xx---7-7-8-8-5~-|
D|-12~~-7-7-8-8-10\8-|-12~~-7-7-8-8-5~-|
A|------5-5-6-6- 8\6-|------5-5-6-6-3~-|

Bridge1:
d|-------------------------------------|
a|-------------------------------------|
F|-2020202020202020--------------------|
C|-xxxxxxxxxxxxxxxx--9-9--10-10--12-12-|
G|-1818181818181818--9-9--10-10--12-12-|
D|-------------------7-7-- 8- 8--10-10-|
A|-------------------------------------|
                     . .   .  .   .  .    .palm mute

Bridge2:
d|-----------------|
a|-----------------|
F|-----------------|
C|-----------------|
G|-----------------|
D|-----------------|
A|-5^~~5~\4~\3~\2~-|

Chorus:
d|-------------------|-----------------|
a|-------------------|-----------------|
F|-------------------|-----------------|
C|-14~~--------------|-14~~------------|
G|-xx---7-7-8-8-10\8-|-xx---7-7-8-8-5~-|
D|-12~~-7-7-8-8-10\8-|-12~~-7-7-8-8-5~-|
A|------5-5-6-6- 8\6-|------5-5-6-6-3~-|

d|-161616161616202020191919-|
a|--------------------------|
F|--------------------------|
C|--------------------------|
G|--------------------------|
D|--------------------------|
A|--------------------------|

Outro:
d|-------|
a|-------|
F|-------|
C|-------|
G|-------|
D|-------|
A|-5-/5~-|

KoRn - Getting Off - See You On The Other Side

Tabbed by Elvisz (elvisz@kornkids.com)
                 (elvisz84@yahoo.com)

Tuning : 7 String Tuned Low to High (A D G C F a d)

Vocal: Jonathan Houseman Davis 'Hiv'
Guitar: James Randal Shaffer 'Munky'
Bass: Reginald Arvizu 'Fieldy'
Drums: David Silveria

Intro:
d|------------|
a|------------|
F|------------|
C|------------|
G|------------|
D|-2-2-2-2222-|
A|-0-0-0-0000-|
   . . . ....   .palm mute

d|---------------------------------------------------------|
a|---------------------------------------------------------|
F|-11111111-11111111-12121212-12121212-8888-8888-7777-7777-|
C|-xxxxxxxx-xxxxxxxx-xxxxxxxx-xxxxxxxx-xxxx-xxxx-xxxx-xxxx-|
G|- 9 9 9 9- 9 9 9 9-10101010-10101010-6666-6666-5555-5555-|
D|---------------------------------------------------------|
A|---------------------------------------------------------|

Pre-Verse:
d|------------|
a|------------|
F|------------|
C|------------|
G|------------|
D|-2-2-2-2222-|
A|-0-0-0-0000-|
   . . . ....   .palm mute

Verse:
d|----------------|
a|----------------|
F|----------------|
C|-----9-9-99\8\7-|
G|-----x-x-xxxxxx-|
D|-222-7-7-77\6\5-|
A|-000-0-0--------|

Pre-Chorus:
d|------------------------------|-----------------------------|
a|------------------------------|-----------------------------|
F|------------------------------|-----------------------------|
C|-9--9109-9109-9109--910910910-|-9--9109-9109-9109--91012109-|
G|-x--xxxx-xxxx-xxxx--xxxxxxxxx-|-x--xxxx-xxxx-xxxx--xxxxxxxx-|
D|-7~-7 87-7 87-7 87--7 87 87 8-|-7~-7 87-7 87-7 87--7 810 87-|
A|------------------------------|-----------------------------|

d|-----------------------------|--------------|
a|-----------------------------|--------------|
F|-----------------------------|--------------|
C|-12~~~-14~~-9~~-9/10/12\10\9-|-12~~-14~~-9~-|
G|-12~~~-14~~-9~~-xxxxxxxxxxxx-|-12~~-14~~-9~-|
D|-10~~~-12~~-7~~-7/ 8/10\ 8\7-|-10~~-12~~-7~-|
A|-----------------------------|--------------|

Chorus:
d|--------------------|
a|--------------------|
F|--------------------|
C|-5-55-55-5-55-5-----|
G|-5-55-55-5-55-5-5~~-|
D|-3-33-33-3-33-3-5~~-|
A|----------------3~~-|

Pre-Verse:
d|------------|
a|------------|
F|------------|
C|------------|
G|------------|
D|-2-2-2-2222-|
A|-0-0-0-0000-|
   . . . ....   .palm mute

Verse:
d|----------------|
a|----------------|
F|----------------|
C|-----9-9-99\8\7-|
G|-----x-x-xxxxxx-|
D|-222-7-7-77\6\5-|
A|-000-0-0--------|

Pre-Chorus:
d|------------------------------|-----------------------------|
a|------------------------------|-----------------------------|
F|------------------------------|-----------------------------|
C|-9--9109-9109-9109--910910910-|-9--9109-9109-9109--91012109-|
G|-x--xxxx-xxxx-xxxx--xxxxxxxxx-|-x--xxxx-xxxx-xxxx--xxxxxxxx-|
D|-7~-7 87-7 87-7 87--7 87 87 8-|-7~-7 87-7 87-7 87--7 810 87-|
A|------------------------------|-----------------------------|

d|-----------------------------|--------------|
a|-----------------------------|--------------|
F|-----------------------------|--------------|
C|-12~~~-14~~-9~~-9/10/12\10\9-|-12~~-14~~-9~-|
G|-12~~~-14~~-9~~-xxxxxxxxxxxx-|-12~~-14~~-9~-|
D|-10~~~-12~~-7~~-7/ 8/10\ 8\7-|-10~~-12~~-7~-|
A|-----------------------------|--------------|

Chorus:
d|--------------------|
a|--------------------|
F|--------------------|
C|-5-55-55-5-55-5-----|
G|-5-55-55-5-55-5-5~~-|
D|-3-33-33-3-33-3-5~~-|
A|----------------3~~-|

Bridge1:
d|-------------------------|
a|-13~~-----24~~23~-24~~~~-|
F|-------------------------|
C|-------------------------|	(with delay)
G|-------------------------|
D|-------------------------|
A|-------------------------|

Bridge2:
d|--------------------|-----------|
a|--------------------|-----------|
F|--------------------|-----------|
C|--------------------|-----------|
G|-555-66-77----------|-555-66-77-|
D|-555-66-77----------|-555-66-77-|
A|-333-44-55----55-55-|-333-44-55-|
                .. ..               .palm mute
Bridge3:
d|------------------|
a|------------------|
F|------------------|
C|-----9-9-99\8\7-7-|
G|-----x-x-xxxxxx-x-|
D|-222-7-7-77\6\5-5-|
A|-000-0-0----------|

Bridge4:
d|-----------------------------|--------------|
a|-----------------------------|--------------|
F|-----------------------------|--------------|
C|-12~~~-14~~-9~~-9/10/12\10\9-|-12~~-14~~-9~-|
G|-12~~~-14~~-9~~-xxxxxxxxxxxx-|-12~~-14~~-9~-|
D|-10~~~-12~~-7~~-7/ 8/10\ 8\7-|-10~~-12~~-7~-|
A|-----------------------------|--------------|

Chorus:
d|--------------------|
a|--------------------|
F|--------------------|
C|-5-55-55-5-55-5-----|
G|-5-55-55-5-55-5-5~~-|
D|-3-33-33-3-33-3-5~~-|
A|----------------3~~-|

KoRn - Liar - See You On The Other Side

Tabbed by Elvisz (elvisz@kornkids.com)
                 (elvisz84@yahoo.com)

Tuning : 7 String Tuned Low to High (A D G C F a d)

Vocal: Jonathan Houseman Davis 'Hiv'
Guitar: James Randal Shaffer 'Munky'
Bass: Reginald Arvizu 'Fieldy'
Drums: David Silveria

Intro:
d|--------------------------|------------------------|
a|--------------------------|------------------------|
F|--------------------------|------------------------|
C|--------------------------|------------------------|
G|--------------------------|------------------------|
D|-55-55-55-55-55-55--------|-55-55-55-55-55-55------|
A|-33-33-33-33-33-33-336-56-|-33-33-33-33-33-33-336--|

d|----------------------------------------|----------------------------------------|
a|-15151515141414141515151717171718181717-|-151515----141414--1515--1717-1818-1717-|
F|----------------------------------------|----------------------------------------|
C|----------------------------------------|----------------------------------------|
G|----------------------------------------|----------------------------------------|
D|----------------------------------------|----------------------------------------|
A|----------------------------------------|----------------------------------------|

Verse:
d|--------------------------|----------------------------|
a|--------------------------|----------------------------|
F|--------------------------|----------------------------|
C|--------------------------|----------------------------|
G|--------------------------|----------------------------|
D|--------------------------|-55-5x-55-5x-55-5x----------|
A|-33-33-33-33-33-33-336-56-|-33-3x-33-3x-33-3x----3-6-5-|
   .. .. .. .. .. ..          ..    ..    ..               .palm mute

Pre-Chorus:
d|---------------------------------------------|
a|-5~~3~~2~~~~~~~2~3~5~3~2-5~~3~~2~~~~~~~2~3~5-|
F|-2~~2~~2~~~~~~~2~2~2~2~2-2~~2~~2~~~~~~~2~2~2-|
C|---------------------------------------------|
G|---------------------------------------------|
D|---------------------------------------------|
A|---------------------------------------------|

Chorus:
d|----------------------|--------------------|
a|----------------------|--------------------|
F|----------------------|--------------------|
C|----------------------|--------------------|
G|----------------------|--------------------|
D|-5\\3-5\\3-5\\3-8\7\5-|-5\\3-5\\3-5\\3-8\7-|
A|-3\\1-3\\1-3\\1-6\5\3-|-3\\1-3\\1-3\\1-6\5-|

Pre-Verse:
d|--------------------------|
a|--------------------------|
F|--------------------------|
C|--------------------------|
G|--------------------------|
D|-55-55-55-55-55-55--------|
A|-33-33-33-33-33-33-336-56-|

Verse:
d|--------------------------|----------------------------|
a|--------------------------|----------------------------|
F|--------------------------|----------------------------|
C|--------------------------|----------------------------|
G|--------------------------|----------------------------|
D|--------------------------|-55-5x-55-5x-55-5x----------|
A|-33-33-33-33-33-33-336-56-|-33-3x-33-3x-33-3x----3-6-5-|
   .. .. .. .. .. ..          ..    ..    ..               .palm mute

Pre-Chorus:
d|---------------------------------------------|
a|-5~~3~~2~~~~~~~2~3~5~3~2-5~~3~~2~~~~~~~2~3~5-|
F|-2~~2~~2~~~~~~~2~2~2~2~2-2~~2~~2~~~~~~~2~2~2-|
C|---------------------------------------------|
G|---------------------------------------------|
D|---------------------------------------------|
A|---------------------------------------------|

Chorus:
d|----------------------|--------------------|
a|----------------------|--------------------|
F|----------------------|--------------------|
C|----------------------|--------------------|
G|----------------------|--------------------|
D|-5\\3-5\\3-5\\3-8\7\5-|-5\\3-5\\3-5\\3-8\7-|
A|-3\\1-3\\1-3\\1-6\5\3-|-3\\1-3\\1-3\\1-6\5-|

Bridge1:
d|----------------------------------|
a|----------------------------------|
F|----------------------------------|
C|----------------------------------|
G|----------------------------------|
D|----------------------------------|
A|-333-333-333-333-665-665-665-6\\3-|

Bridge2:
d|-----------------------------------------|
a|-5~~3~~2~~2~222~3~5~3~2-5~~3~~2~22~2~3~5-|
F|-2~~2~~2~~2~222~2~2~2~2-2~~2~~2~22~2~2~2-|
C|-----------------------------------------|
G|-----------------------------------------|
D|-----------------------------------------|
A|-----------------------------------------|

Chorus:
d|----------------------|--------------------|
a|----------------------|--------------------|
F|----------------------|--------------------|
C|----------------------|--------------------|
G|----------------------|--------------------|
D|-5\\3-5\\3-5\\3-8\7\5-|-5\\3-5\\3-5\\3-8\7-|
A|-3\\1-3\\1-3\\1-6\5\3-|-3\\1-3\\1-3\\1-6\5-|

Bridge3:
d|----------------------------------|
a|----------------------------------|
F|----------------------------------|
C|----------------------------------|
G|----------------------------------|
D|----------------------------------|
A|-333-333-333-333-665-665-665-6\\3-|

d|----------------------------------------|
a|-15151515141414141515151717171718181717-|
F|----------------------------------------|
C|----------------------------------------|
G|----------------------------------------|
D|----------------------------------------|
A|----------------------------------------|

Outro:
d|--------------------------|
a|--------------------------|
F|--------------------------|
C|--------------------------|
G|--------------------------|
D|-55-55-55-55-55-55--------|
A|-33-33-33-33-33-33-336-56-|

d|---0---0---0---0---0---0---0---0-|
a|---3---3---3---3---2---2---2---2-|   (let the last note ring out)
F|-2---2---2---2---2---2---2---2---|
C|---------------------------------|  
G|---------------------------------|
D|---------------------------------|
A|---------------------------------|

d|----------------------------------------------------|
a|-55~~33~222~-555-5~33~222-555-5~33~22222~5~-3~-2~-2-|
F|-22~~22~222~-222-2~22~222-222-2~22~22222~2~-2~-2~---|
C|----------------------------------------------------|
G|----------------------------------------------------|
D|----------------------------------------------------|
A|----------------------------------------------------|

Fill:
d|----|
a|----|
F|----|
C|-10~|	(with wah-wah)
G|-10~|
D|- 8~|
A|----|

KoRn - For No One - See You On The Other Side

Tabbed by Elvisz (elvisz@kornkids.com)
                 (elvisz84@yahoo.com)

Tuning : 7 String Tuned Low to High (A D G C F a d)

Vocal: Jonathan Houseman Davis 'Hiv'
Guitar: James Randal Shaffer 'Munky'
Bass: Reginald Arvizu 'Fieldy'
Drums: David Silveria

Intro:
d|------------------------|
a|------------------------|
F|------------------------|
C|------------------------|
G|------------------------|
D|------------------------|
A|-5r3--5r3h5-3h5-3h5-5h6-|

Pre-Verse:
d|------------------------|
a|------------------------|
F|------------------------|
C|------------------------|
G|------------------------|
D|------------------------|
A|-5r3--5r3h5-3h5-3h5-5h6-|

d|------------------------|
a|------------------------|
F|------------------------|
C|------------------------|	(2 guitar)
G|-7r5--7r5h7-5h7-5h7-7h8-|
D|------------------------|
A|------------------------|

Verse:
d|----------------------------|----------------------------|
a|----------------------------|----------------------------|
F|----------------------------|----------------------------|
C|----------------------------|----------------------------|
G|----------------------------|----------------------------|
D|-2~~-2-2~~-2-2~~-2----------|-22---2-2--2-2~~-2----------|
A|-0~~-0-0~~-0-0~~-0-3203202~-|-00~~-0-0~-0-0~~-0-3203202~-|
       .     .     . .......    .    .    .     . .......    .palm mute

Pre-Chorus:
d|-------------------------------|
a|-------------------------------|
F|-------------------------------|
C|-------------------------------|
G|--------------5~~-7~~-9~~-10~~-|
D|-22~~-2-2--2--5~~-7~~-9~~-10~~-|
A|-00~~-0-0~-0--3~~-5~~-7~~- 8~~-|
   .    .    .                     .palm mute

Verse:
d|----------------------------|----------------------------|
a|----------------------------|----------------------------|
F|----------------------------|----------------------------|
C|----------------------------|----------------------------|
G|----------------------------|----------------------------|
D|-2~~-2-2~~-2-2~~-2----------|-22---2-2--2-2~~-2----------|
A|-0~~-0-0~~-0-0~~-0-3203202~-|-00~~-0-0~-0-0~~-0-3203202~-|
       .     .     . .......    .    .    .     . .......    .palm mute

Pre-Chorus:
d|-------------------------------|
a|-------------------------------|
F|-------------------------------|
C|-------------------------------|
G|--------------5~~-7~~-9~~-10~~-|
D|-22~~-2-2--2--5~~-7~~-9~~-10~~-|
A|-00~~-0-0~-0--3~~-5~~-7~~- 8~~-|
   .    .    .                     .palm mute
 
Chorus:
d|------------------------|
a|------------------------|
F|------------------------|
C|------------------------|
G|------------------------|
D|------------------------|
A|-5r3--5r3h5-3h5-3h5-5h6-|

d|------------------------|
a|------------------------|
F|------------------------|
C|------------------------|	(2 guitar)
G|-7r5--7r5h7-5h7-5h7-7h8-|
D|------------------------|
A|------------------------|

Verse:
d|----------------------------|----------------------------|
a|----------------------------|----------------------------|
F|----------------------------|----------------------------|
C|----------------------------|----------------------------|
G|----------------------------|----------------------------|
D|-2~~-2-2~~-2-2~~-2----------|-22---2-2--2-2~~-2----------|
A|-0~~-0-0~~-0-0~~-0-3203202~-|-00~~-0-0~-0-0~~-0-3203202~-|
       .     .     . .......    .    .    .     . .......    .palm mute

Pre-Chorus:
d|-------------------------------|
a|-------------------------------|
F|-------------------------------|
C|-------------------------------|
G|--------------5~~-7~~-9~~-10~~-|
D|-22~~-2-2--2--5~~-7~~-9~~-10~~-|
A|-00~~-0-0~-0--3~~-5~~-7~~- 8~~-|
   .    .    .                     .palm mute

Verse:
d|----------------------------|----------------------------|
a|----------------------------|----------------------------|
F|----------------------------|----------------------------|
C|----------------------------|----------------------------|
G|----------------------------|----------------------------|
D|-2~~-2-2~~-2-2~~-2----------|-22---2-2--2-2~~-2----------|
A|-0~~-0-0~~-0-0~~-0-3203202~-|-00~~-0-0~-0-0~~-0-3203202~-|
       .     .     . .......    .    .    .     . .......    .palm mute

Pre-Chorus:
d|-------------------------------|
a|-------------------------------|
F|-------------------------------|
C|-------------------------------|
G|--------------5~~-7~~-9~~-10~~-|
D|-22~~-2-2--2--5~~-7~~-9~~-10~~-|
A|-00~~-0-0~-0--3~~-5~~-7~~- 8~~-|
   .    .    .                     .palm mute

Chorus:
d|------------------------|
a|------------------------|
F|------------------------|
C|------------------------|
G|------------------------|
D|------------------------|
A|-5r3--5r3h5-3h5-3h5-5h6-|

d|------------------------|
a|------------------------|
F|------------------------|
C|------------------------|	(2 guitar)
G|-7r5--7r5h7-5h7-5h7-7h8-|
D|------------------------|
A|------------------------|

Bridge1: (same as chorus)
d|------------------------|
a|------------------------|
F|------------------------|
C|------------------------|
G|------------------------|
D|------------------------|
A|-5r3--5r3h5-3h5-3h5-5h6-|

d|------------------------|
a|------------------------|
F|------------------------|
C|------------------------|	(2 guitar)
G|-7r5--7r5h7-5h7-5h7-7h8-|
D|------------------------|
A|------------------------|

Bridge2:
d|--------------------------------------------------------------------|
a|--------------------------------------------------------------------|
F|--------------------------------------------------------------------|
C|-----------7~---------------------7~--------------------------------|
G|--------8~-5~-7/8\7------------8~-5~-7/8\7----10~~~-7/8\7-----7/8\7-|
D|-7~-10~-6~----5/6\5-10~-7~-10~-6~----5/6\5-10- 8~~~-5/6\5-----5/6\5-|
A|-5~- 8~------------- 8~-5~- 8~------------- 8-------------5-5-------| 
                                                            . .         .palm mute
Bridge3:
d|------------------------------|
a|-15---------15----------------|
F|-17^--------17^---------------|
C|------------------------------|
G|------------------------------|
D|------------------------------|
A|------------------------------| 

d|------------------------------|
a|------------------------------|
F|------------------------------|
C|-------------------------12---|
G|----7/9~8~-----8~7~------xx---|
D|----6/7~6~-----6~5~--/10~1010-|
A|---------------------/ 8~-- 8-| 

Chorus:
d|------------------------|
a|------------------------|
F|------------------------|
C|------------------------|
G|------------------------|
D|------------------------|
A|-5r3--5r3h5-3h5-3h5-5h6-|

d|------------------------|
a|------------------------|
F|------------------------|
C|------------------------|	(2 guitar)
G|-7r5--7r5h7-5h7-5h7-7h8-|
D|------------------------|
A|------------------------|

Outro:
d|-------|-----|
a|-------|-----|
F|-------|-----|
C|-------|-----|
G|-------|-----|
D|-3-4-5-|-3-4-|
A|-1-2-3-|-1-2-| 

KoRn - Seen it All - See You On The Other Side

Tabbed by Elvisz (elvisz@kornkids.com)
                 (elvisz84@yahoo.com)

Tuning : 7 String Tuned Low to High (A D G C F a d)

Vocal: Jonathan Houseman Davis 'Hiv'
Guitar: James Randal Shaffer 'Munky'
Bass: Reginald Arvizu 'Fieldy'
Drums: David Silveria

Intro:
d|---------------------|
a|---------------------|
F|---------------------|
C|---------------------|
G|----------\44-4\3-3~-|
D|-5~--55-5-\22-2\1-1~-|
A|-3~--33-3-\22-2\1-1~-| 

Fill1:
d|-------------------|
a|-------------------|
F|-------------------|
C|-------------------|
G|----------\44-5555-|
D|-5~--55-5-\22-3333-|
A|-3~--33-3-\22-3333-|

Verse:
d|------------------------|
a|------------------------|
F|------------------------|
C|------------------------|
G|----------1111-11\10-10-|
D|-5~--55-5- 9 9- 9\ 8- 8-|
A|-3~--33-3- 9 9- 9\ 8- 8-|

Fill2:
d|---------------------------|
a|---------------------------|
F|---------------------------|
C|---------------------------|
G|----------11~-10~-10-11-13-|
D|-5~--55-5- 9~- 8~- 8- 9-11-|
A|-3~--33-3- 9~- 8~- 8- 9-11-|

Chorus:
d|-----------------------------------------|
a|-----------------------------------------|
F|-----------------------------------------|
C|-----4~~-------------4~~-----------------|
G|-2~~-4~~-5~~-8~~-2~~-4~~--------888-55\4-|
D|-2~~-2~~-5~~-8~~-2~~-2~~-2-4-5--888-55\4-|
A|-0~~-----3~~-6~~-0~~-----0-2-3--666-33\2-|

d|-----------------------------------------|
a|-----------------------------------------|
F|-----------------------------------------|
C|-----4~~-------------4~~-----777-10-1010-|
G|-2~~-4~~-8~~-5~~-2~~-4~~-----777-10-1010-|
D|-2~~-2~~-8~~-5~~-2~~-2~~-----555- 8- 8 8-|
A|-0~~-----6~~-3~~-0~~---------------------|

Pre-Verse:
d|---------------------|
a|---------------------|
F|---------------------|
C|---------------------|
G|----------\44-4\3-3~-|
D|-5~--55-5-\22-2\1-1~-|
A|-3~--33-3-\22-2\1-1~-| 

Fill3:
d|-------------------|
a|-------------------|
F|-------------------|
C|-------------------|
G|----------\44-5555-|
D|-5~--55-5-\22-3333-|
A|-3~--33-3-\22-3333-|

Verse:
d|------------------------|
a|------------------------|
F|------------------------|
C|------------------------|
G|----------1111-11\10-10-|
D|-5~--55-5- 9 9- 9\ 8- 8-|
A|-3~--33-3- 9 9- 9\ 8- 8-|

Fill3:
d|---------------------------|
a|---------------------------|
F|---------------------------|
C|---------------------------|
G|----------11~-10~-10-11-13-|
D|-5~--55-5- 9~- 8~- 8- 9-11-|
A|-3~--33-3- 9~- 8~- 8- 9-11-|

Chorus:
d|-----------------------------------------|
a|-----------------------------------------|
F|-----------------------------------------|
C|-----4~~-------------4~~-----------------|
G|-2~~-4~~-5~~-8~~-2~~-4~~--------888-55\4-|
D|-2~~-2~~-5~~-8~~-2~~-2~~-2-4-5--888-55\4-|
A|-0~~-----3~~-6~~-0~~-----0-2-3--666-33\2-|

d|-----------------------------------------|
a|-----------------------------------------|
F|-----------------------------------------|
C|-----4~~-------------4~~-----777-10-1010-|
G|-2~~-4~~-8~~-5~~-2~~-4~~-----777-10-1010-|
D|-2~~-2~~-8~~-5~~-2~~-2~~-----555- 8- 8 8-|
A|-0~~-----6~~-3~~-0~~---------------------|

Bridge1:
d|---------------------------|
a|---------------------------|
F|---------------------------|
C|-17~~--14-16---11~~--14-16-|
G|---------------------------|
D|---------------------------|
A|---------------------------| 

Bridge2:
d|--------------------------------------------------------------------------------|
a|--------------------------------------19-19-19-19-21-18-18-18-18-19-16-16-16-16-|
F|-17~~---------16~---17~--17-17-17-17--17-17-17-17-17-17-17-17-17-17-17-17-17-17-|
C|--------------------------------------------------------------------------------|
G|--------------------------------------------------------------------------------|
D|--------------------------------------------------------------------------------|
A|--------------------------------------------------------------------------------| 

Bridge3:
d|-----------------------------------------|
a|-----------------------------------------|
F|-----------------------------------------|
C|-----4~~-------------4~~-----------------|
G|-2~~-4~~-5~~-8~~-2~~-4~~--------888-55\4-|
D|-2~~-2~~-5~~-8~~-2~~-2~~--------888-55\4-|
A|-0~~-----3~~-6~~-0~~------------666-33\2-|

d|-----------------------------------------|
a|-----------------------------------------|
F|-----------------------------------------|
C|-----4~~-------------4~~-----777-10-1010-|
G|-2~~-4~~-8~~-5~~-2~~-4~~-----777-10-1010-|
D|-2~~-2~~-8~~-5~~-2~~-2~~-----555- 8- 8 8-|
A|-0~~-----6~~-3~~-0~~---------------------|

Bridge4:
d|-----------------------------------------|
a|-----------------------------------------|
F|-----------------------------------------|
C|-----4~~-------------4~~-----------------|
G|-2~~-4~~-5~~-8~~-2~~-4~~--------888-55\4-|
D|-2~~-2~~-5~~-8~~-2~~-2~~-2-4-5--888-55\4-|
A|-0~~-----3~~-6~~-0~~-----0-2-3--666-33\2-|

d|-----------------------------------------|
a|-----------------------------------------|
F|-----------------------------------------|
C|-----4~~-------------4~~-----777-10-1010-|
G|-2~~-4~~-8~~-5~~-2~~-4~~-----777-10-1010-|
D|-2~~-2~~-8~~-5~~-2~~-2~~-----555- 8- 8 8-|
A|-0~~-----6~~-3~~-0~~---------------------|

Chorus:
d|-----------------------------------------|
a|-----------------------------------------|
F|-----------------------------------------|
C|-----4~~-------------4~~-----------------|
G|-2~~-4~~-5~~-8~~-2~~-4~~--------888-55\4-|
D|-2~~-2~~-5~~-8~~-2~~-2~~-2-4-5--888-55\4-|
A|-0~~-----3~~-6~~-0~~-----0-2-3--666-33\2-|

d|-----------------------------------------|
a|-----------------------------------------|
F|-----------------------------------------|
C|-----4~~-------------4~~-----777-10-1010-|
G|-2~~-4~~-8~~-5~~-2~~-4~~-----777-10-1010-|
D|-2~~-2~~-8~~-5~~-2~~-2~~-----555- 8- 8 8-|
A|-0~~-----6~~-3~~-0~~---------------------|

KoRn - Tearjerker - See You On The Other Side

Tabbed by Elvisz (elvisz@kornkids.com)
                 (elvisz84@yahoo.com)

Tuning : 7 String Tuned Low to High (A D G C F a d)

Vocal: Jonathan Houseman Davis 'Hiv'
Guitar: James Randal Shaffer 'Munky'
Bass: Reginald Arvizu 'Fieldy'
Drums: David Silveria

This song has lots of weird effects, but i only gonna tab the guitar...
d|------------------------------------|------------------------------------|
a|------10~~~-------------------------|------10~~~~------------------------|
F|-9~~~- 9~~~-6~/7~~~-6~/7~~~-6~/7~~~-|-9~~~- 9~~~-6~/7~~~-6~/7~~~-5~/11~~-|
C|-9~~~- 7~~~-6~/7~~~-6~/7~~~-6~/7~~~-|-9~~~- 7~~~-6~/7~~~-6~/7~~~-5~/11~~-|
G|-7~~~-------4~/5~~~-4~/5~~~-4~/5~~~-|-7~~~-------4~/5~~~-4~/5~~~-7~/ 9~~~|
D|------------------------------------|------------------------------------|
A|------------------------------------|------------------------------------|

d|------------------------------------------|
a|-19~~~-/22~~--17~~~~-19~~~-15~~~-17~~-19~~|
F|------------------------------------------|
C|------------------------------------------|
G|------------------------------------------|
D|------------------------------------------|
A|------------------------------------------|

Outro:
d|--------------------------|
a|-3-----5-----5~~~~--5-----|
F|---4-----4------------4---|
C|-----4-----4------------4-|
G|--------------------------|
D|--------------------------|
A|--------------------------|
comments
We did not receive enough feedback on this tab! Please rate:
print report bad tab
1 2 3 4 5
1 comment total.
0 reply
soldierkahn wrote on September 11 2007, 03:24 pm

good job bro..

I want to post or [tab]
guest
You may want to rate the tab now too:
select rating
Please do not post tabs as comments. Select "correction" instead!