Oops, an error
Loading. Please wait.

Take A Look In The Mirror Bass Tab

by Korn
1,657 views 3 this week
no commentswrite comment
1 2 3 4 5
please rate
add to favorites launch autoscroll
font size
0
reset
Autoscroll
+/-
esc
set tempo
stop
Contributor
WARNING: You are trying to view
                                    content from Ultimate-Guitar.com
                                    in an unauthorized application,
                                    which is prohibited.

                                    Please use an official Ultimate
                                    Guitar Tabs application for iPhone,
                                    iPad or Android to access legitimate
                                    chords, guitar, bass, and drum tabs
                                    from Ultimate-Guitar.com database.

                                    Type "ultimate guitar tabs" in Apple
                                    App Store's or Android Market's
                                    search to find the application.
Band- Korn
Album- Take A Look In the Mirror

Right Now

Intro:
F--------|
C--------|
G--------|
D--------|
A--00----|

Chorus:
F--------------------------------------|
C--------------------------------------|
G----------5---------4---------3-------|
D--------------------------------------|
A--0010--0--0-010-0---0-010-0---0-010--|

Verse:
F-------------------|
C-------------------|
G-------------------|
D-------------------|
A-0-0-10---000010---|

Brigde:
F---------------------|
C---------------------|
G---------------------|
D---------------------|
A-6~~~7\--7\--7\--7\--|

Heavy Bridge:
F--------------------|
C--------------------|
G--------------------|
D--------------------|
A--5565-555565-------|

Part After The Heavy Bridge:
F-------------------|
C-------------------|
G-------------------|
D-------------------|
A--00--000010-------|

Outro:
F------------------|
C------------------|
G------------------|
D------------------|
A--000010--000010--|

Break Some Off

Intro:
F----------------------|
C----------------------|
G----------------------|
D----------------------|
A-0000-0000-0000-0000--|

Chorus:
F-----------------------|
C-----------------------|
G-----------------------|
D-----------------------|
A-0h3-3-3-333/44-4/5-5--|

Lower Part:
F-----------------------|
C-----------------------|
G-----------------------|
D-----------------------|
A-0h3-3-3-333/44-4/5-5--|

Verse:
F-----------------------------------|
C-----------------------------------|
G-------7-7------5------------------|
D------------------5-------4--------|
A-0h3--------2-------3---2---2--(3)-|

Bridge:
F----------------------|
C----------------------|
G----------------------|
D----------------------|
A-0000-0000-0000-0000--|

F-----------|
C-----------|
G-----------|
D-----------|
A-3330---1--|  Repeat Whole Bridge


Counting On Me

Intro:
F-----------------------|
C-----------------------|
G-----------------------|
D-----------------------|
A-5-x-x-5-x-x-5-x-x-7^--|

Verse:
F------------------------|
C-----10----10--10-11-8--|
G--8-----8---------------|
D------------------------|
A------------------------|

Pre-Chorus:
F-----------------------|
C-----------------------|
G-----------------------|
D-----------------------|
A-6-x-x-6-x-x-6-x-x-8^--|

Chorus:
F-----------------------|
C-----------------------|
G-----------------------|
D-1----------4--6-----2-|
A----1--2----------4----|

Soft Part:
F---------------------|
C---------------------|
G---------------------|
D---------------------|
A-5----5-5---5-7-7-7--|

Bridge:
F----------------------------------|
C----------------------------------|
G-----------3-------------3--------|
D-4-3------------------------------|
A------1111---1-x-1111111---1-x-1--|

Ourto:
F-----------------------------|
C-----------------------------|
G-----------------------------|
D-----------------------------|
A-6-x-x-6-x-x-6-x-x-8~~~~~~~~-|


Here It Comes Again

Intro:
F-------------------------------|
C-------------------------------|
G-------------------------------|
D---7----7---8---8-----7--7-8-7-|
A-0---0--------0-----0----------|

Verse:
F----------------------------------------------------|
C----------------------------------------------------|
G----------------------------------------------------|
D----------------------------------------------------|
A-6~~~~~~~~~~\10/~~~~~/3~~~~~~~5~~~~~~~~/8~~~~~~3~~~~

Pre-Chorus: w/Fuzz Distortion
F-------------------------|
C-------------------------|
G-------------------------|
D----5-----------3--------|
A-6-----3-----5-----3-----|

Bridge:
F-------------------|
C-------------------|
G-------------------|
D-------------------|
A--6\~~~~~~~~~~~~~--

Heavy Bridge:
F-------------|
C-------------|
G-------------|
D-------------|
A-666656------|


Deep Inside

Intro:
F---------|
C---------|
G---------|
D---------|
A-3-2-1---|

Chorus:
F--------------------------------------------------------------|
C--------------------------------------------------------------|
G--------------------------------------------------------------|
D--------------------------------------------------------------|
A-0---7-7-7-7--0--8-8-8-8--0--7-7-7-7---0--10-10--  --3-2-1----|   Replace w/on Lower Part

Verse:
F---------------------------------------------|
C---------------------------------------------|
G---------------------------------------------|
D---------------------------------------------|
A-0---x-x--0---x-x--0---x-x--1-2--  --3-2-1---|

Bridge:
F-----------------------------------------------------------------|
C-----------------------------------------------------------------|
G------9-9---------10-10-----------9-9----------10-10-------------|
D-----------8-------------9-------------8----------------9--------|
A--7------------8-------------7-------------8-----------------3-2-|

F----------------------------------------------|
C----------------------------------------------|
G----------------------------------------------|
D----------------------------------------------|
A-----0-----0---0----3-2-1------0---0----3-2-1-|   Volume Swell w/first 0

Outro:
F----------------------|
C----------------------|
G----------------------|
D-2---3---2------------|
A---0---0---0--3-2-1---|

Ending:
F------|
C------|
G------|
D------|
A-0----|


Did My Time

Ill Post It Later


Everything I've Known

Intro:
F-------------|
C-------------|
G-------------|
D-------------|
A--15/3~~~~-\-|

Chorus:
F----------------------|
C----------------------|
G----------------------|
D----------------------|
A-3--3-0-0---3--3-4--1-|

Verse:
F-------------------------------------|
C-------------------------------------|
G-------------------------------------|
D-------------------------------------|
A-15/3-3--3--5-7-----15/3-3--3--3-3---|  Not Sure About This

Bridge:
F------------------------------------------|
C------------------------------------------|
G------------------------------------------|
D------------------------------------------|
A--3----3\15---3/15---3----15\3---3/15-----|

F--------|
C--------|
G--------|
D--------|
A-3--43--|  x2

F--------|
C--------|
G--------|
D--------|
A-3--41--|

F--------|
C--------|
G--------|
D--------|
A-3--43--|  Repeat

F---------------|
C---------------|
G---------------|
D---------------|
A--4-3----2-1---|


Play Me

Intro:
F-------------------|
C-------------------|
G-------------------|
D-------------------|
A--03001---0-0-1-0--|

Verse:
F----------------------|
C----------------------|
G----------------------|
D----------------------|
A-0--0-1-0---0--0-1-0--|

Chorus: I Think
F----------------------------|
C----------------------------|
G----------------------------|
D----------------------------|
A-0-0-232-0---0-00232--/8----|

Slide:
F------|
C------|
G------|
D-12/--
A------


Alive:
F------------------------------------|
C------------------------------------|
G------------------------------------|
D------------------------------------|
A--0/2-2-2-3\2-2-2-3\2-2-2-3\2-0-0-0-|

Verse:
F------------------------|
C------------------------|
G------------------------|
D------------------------|
A-0-2-----0-2---3\2-0-0--|

Post Verse:
F----------------------|
C----------------------|
G----------------------|
D----------------------|
A-0-2~~~~~~~~-01~~~~~~-|

Pre-Verse/Post-Chorus:
F------------------------|
C------------------------|
G------------------------|
D------------------------|
A-0/2--3\2--3\2--3\2-0-0-|

Chorus:
F----------------------|
C----------------------|
G----------------------|
D-0-------3--2--1--0---|
A----0-1----------(2)--| () Last Time

F----------------------|
C----------------------|
G----------------------|
D----------------------|
A-2----2-----2-----2---|  Alot of Times


Let's Do This Now

Intro/Chorus:
F-------------------------------|
C-------------------------------|
G-------------------------------|
D--3------------3-------2-------|
A----1-1----1-1-----1-1---1-1---|

Verse:
F-----------------------------------------|
C-----------------------------------------|
G-----------------------------------------|
D-------5-------5--------5-------5------6-|
A-4-4-4---4-4-4----4-4-4---4-4-4---4-4----|

F----------------------------------------|
C----------------------------------------|
G----------------------------------------|
D-------2-------2--------2-------2-----3-|
A-1-1-1---1-1-1----1-1-1---1-1-1---1-1---|

Verse 2:
F----------------------------------------|
C----------------------------------------|
G----------------------------------------|
D----------------------------------------|
A-4-4-4--4--4-4-4--4--4-4-4--4--4-4-4--5-|

Bridge:
F------------------|
C------------------|
G------------------|
D------------------|
A-6----9----8----7-|  Let Note Ring

F--------------------|
C--------------------|
G--------------------|
D--------------------|
A-6----9----8/9\8--7-|

Ending:
F------|
C------|
G------|
D------|
A-1-1--|


I'm Donw

Intro:
F---------------------|
C---------------------|
G---------------------|
D---------------------|
A-3---3-3---3-3---3-6-|

F--------------|
C--------------|
G--------------|
D--------------|
A-3--3-3---3-3-|

Chorus:
F----------------------------------------------------------|
C----------------------------------------------------------|
G----------------------------------------------------------|
D----------------------------------------------------------|
A-3---3-3---3-3---3/6- x3  Then on 4th Time Do This --3/4--|

Verse:
Same As Chorus play then start slapping

Pre-Chorus
F------------------------------------------------|
C------------------------------------------------|
G------------------------------------------------|
D------------------------------------------------|
A-0000-7--0--0000--7-6-5---0000-7--0--0000-3-5-1-|

F---------------------------|
C---------------------------|
G---------------------------|
D---------------------------|
A--0\---0--2--3---5--8--7---|

F----------|
C----------|
G----------|
D----------|
A-0-00-00--|

F-------------|
C-------------|
G-------------|
D-------------|
A-0-00-00-8-7-|

Y'all Wanta Single

Intro - (0:02)
=============
F--------------------------------------------------|
C--------------------------------------------------|
G--------------------------------------------------|
D--------------------------------------------------|
A-1-0----1-0----1-0----1-0----1-0----1-0----1-0----|

Chorus - (0:16)
===============
F---------------------------------|
C---------------------------------|
G---------------------------------|
D---------------------------------|
A-1-0-333322-0-1---1-0-33332-0-1--|

Riff 2 - (0:33)
===============
F-----------------------------------------------------------------------|
C-----------------------------------------------------------------------|
G-----------------------------------------------------------------------|
D-----------------------------------------------------------------------|
A-1-0---0---0---00-1-0---0---0---00-1-0---0---0---00-1-0---0---0---00-1-|

Riff 3 - (0:41)
===============
F-----------------------|
C-----------------------|
G-----------------------|
D-----------------------|
A-0--1-3--3-8--8-7-8-10-|

Main Riff - (0:45)
==================
F--------------------------------------------------|
C--------------------------------------------------|
G--------------------------------------------------|
D--------------------------------------------------|
A-0---0---0---0-0--1-0---0---0---0-0--1------------|
Chorus - (1:05)
===============
F-----------------------------------------------------------------------|
C-----------------------------------------------------------------------|
G-----------------------------------------------------------------------|
D-----------------------------------------------------------------------|
A-0-333322-0-1---1-0-33332-0-1-------1-0-333322-0-1---1-0-33332-0-1-----|

Riff 3 - (1:22)
===============
F-------------------------|
C-------------------------|
G-------------------------|
D-------------------------|
A-1-0--1-3--3-8--8-7-8-10-|

Main Riff - (1:26)
==================
F--------------------------------------------------|
C--------------------------------------------------|
G--------------------------------------------------|
D--------------------------------------------------|
A-0---0---0---0-0--1-0---0---0---0-0--1------------|

Chorus - (1:46)
===============
F-----------------------------------------------------------------------|
C-----------------------------------------------------------------------|
G-----------------------------------------------------------------------|
D-----------------------------------------------------------------------|
A-0-333322-0-1---1-0-33332-0-1-------1-0-333322-0-1---1-0-33332-0-1-----|

Riff 3 - (2:02)
===============
F-------------------------------------------------------|
C-------------------------------------------------------|
G-------------------------------------------------------|
D-------------------------------------------------------|
A-1-0--1-3--3-8--8-7-8-10------0--1-3--3-8--8-7-8-10----|

Riff 4 - (2:19)
===============
F---------------------------|
C---------------------------|
G---------------------------|
D---------------------------|
A-0----1-0----1-0----1-0----|

Riff 5 - (2:26)
===============
F--------------------------------------------------------|
C--------------------------------------------------------|
G--------------------------------------------------------|
D--------------------------------------------------------|
A-1-0---0---1-0---1--1--1-------0---0---1-0---1-1--1-----|

Bridge - (2:44)
===============
F-----------------------------|
C-----------------------------|
G-----------------------------|
D-----------------------------|
A-0-333322-0-1--0-33332-0-1---|

Bridge 2 - (2:52)
=================
F----------------------------------------------------------------|
C----------------------------------------------------------------|
G----------------------------------------------------------------|
D----------------------------------------------------------------|
A-0-333322-0-1---1-0-33332-0-1---1-0-333322-0-1---1-0-33332-0-1--|

Chorus - (3:00)
===============
F----------------------------------------------------------------|
C----------------------------------------------------------------|
G----------------------------------------------------------------|
D----------------------------------------------------------------|
A-0-333322-0-1---1-0-33332-0-1---1-0-333322-0-1---1-0-33332-0-1--|

Outro - (3:08)
==============
F------------------------------|
C------------------------------|
G------------------------------|
D------------------------------|
A-1-0----1-0----1-0----1-0-----|

When Will This End

Don't Know
comments
We did not receive enough feedback on this tab! Please rate:
1 2 3 4 5
I want to post or [tab]
guest
You may want to rate the tab now too:
select rating
Please do not post tabs as comments. Select "correction" instead!