Oops, an error
Loading. Please wait.

Take A Look In The Mirror Tab

by Korn
ver1
ver1
More versions @911Tabs.com
5,198 views 12 this week
no commentswrite comment
1 2 3 4 5
accurate
x 8
add to favorites launch autoscroll
font size
0
reset
Autoscroll
+/-
esc
set tempo
stop
Contributor
WARNING: You are trying to view
                                    content from Ultimate-Guitar.com
                                    in an unauthorized application,
                                    which is prohibited.

                                    Please use an official Ultimate
                                    Guitar Tabs application for iPhone,
                                    iPad or Android to access legitimate
                                    chords, guitar, bass, and drum tabs
                                    from Ultimate-Guitar.com database.

                                    Type "ultimate guitar tabs" in Apple
                                    App Store's or Android Market's
                                    search to find the application.
KoRn - Take A Look In The Mirror

Tabbed by Elvisz (elvisz@kornkids.com)
Tuning : 7 String Tuned Low to High (A D G C F a d)

Vocal: Jonathan Houseman Davis 'Hiv'
Guitar1: Brian Phillip Welch 'Head'
Guitar2: James Randal Shaffer 'Munky'
Bass: Reginald Arvizu 'Fieldy'
Drums: David Silveria

This is a more corrected version of the album...
Lot of corrections were made, and sounds lot better...(I think so)
(lot of corrections are from Travis Lausch (the4elements2001@hotmail.com)
Thanks a lot Travis!
Hope you'll be satisfied... 

KoRn - Right Now - Take A Look In The Mirror

Intro:(Guitar2)
d|-----------------------------------------------|
a|-----------------------------------------------|
F|-----------------------------------------------|
C|-----------------------------------------------|
G|-----------/12----------/11----------/10-------|
D|-----------/10----------/ 9----------/ 8-------|
A|-0-0-10x-0-----00-10x-0-----00-10x-0-----00-10x|

Pre-verse:(Guitar1 & Guitar2)
d|-----------------------------------------------|
a|-----------------------------------------------|
F|-----------------------------------------------|
C|-----------------------------------------------|
G|-----------/12----------/11----------/10-------|
D|-----------/10----------/ 9----------/ 8-------|
A|-0-0-10x-0-----00-10x-0-----00-10x-0-----00-10x|

d|-----------------------------------------------|
a|-----------------------------------------------|
F|-----------------------------------------------|
C|-----------------------------------------------|
G|-----------/12----------/11----------/10-------|
D|-----------/10----------/ 9----------/ 8-------|
A|0000-10x-0-----00-10x-0-----00-10x-0-----00-10x|

Verse:(Guitar1 & Guitar2)
d|----------------|
a|----------------|
F|----------------|
C|----------------|
G|----------------|
D|----------------|
A|-0-0-10x-000010x|

Chorus:(Guitar1 & Guitar2)
d|-----------------------------------------------|
a|-----------------------------------------------|
F|-----------------------------------------------|
C|-----------------------------------------------|
G|-----------/12----------/11----------/10-------|
D|-----------/10----------/ 9----------/ 8-------|
A|-0-0-10x-0-----00-10x-0-----00-10x-0-----00-10x|

d|-----------------------------------------------|
a|-----------------------------------------------|
F|-----------------------------------------------|
C|-----------------------------------------------|
G|-----------/12----------/11----------/10-------|
D|-----------/10----------/ 9----------/ 8-------|
A|0000-10x-0-----00-10x-0-----00-10x-0-----00-10x|

Fill1:(Guitar1 & Guitar2)
d|--------|
a|--------|
F|--------|
C|--------|
G|--------|
D|--------|
A|-0-0-10x|

Verse:(Guitar1 & Guitar2)
d|----------------|
a|----------------|
F|----------------|
C|----------------|
G|----------------|
D|----------------|
A|-0-0-10x-000010x|

Chorus:(Guitar1 & Guitar2)
d|-----------------------------------------------|
a|-----------------------------------------------|
F|-----------------------------------------------|
C|-----------------------------------------------|
G|-----------/12----------/11----------/10-------|
D|-----------/10----------/ 9----------/ 8-------|
A|-0-0-10x-0-----00-10x-0-----00-10x-0-----00-10x|

d|-----------------------------------------------|
a|-----------------------------------------------|
F|-----------------------------------------------|
C|-----------------------------------------------|
G|-----------/12----------/11----------/10-------|
D|-----------/10----------/ 9----------/ 8-------|
A|0000-10x-0-----00-10x-0-----00-10x-0-----00-10x|

Bridge1:
d|-------|
a|-------|
F|-------|
C|-------|	(Guitar2)
G|-------|
D|-------|
A|-0~~~~~|

d|---------|---------|---------|
a|---------|---------|---------|
F|---------|---------|---------|
C|---------|---------|---------|	(Guitar1 with effect)
G|---------|---------|---------|
D|-6-6-6/7-|-66666/7-|-6-666/7-|
A|-4-4-4/5-|-44444/5-|-4-444/5-|

d|-----------------+12}-|
a|------------+12}------|
F|----------------------|
C|----------------------|	(Guitar2 slow)
G|-+7~~~+8~~~-----------|
D|----------------------|
A|----------------------|

Bridge2:(Guitar1 & Guitar2)
d|----------------|
a|----------------|
F|----------------|
C|----------------|
G|----------------|
D|-2-2-32~~222232~|
A|-0-0-10~~000010~|

Fill3:(Guitar2)
d|-----------------------|
a|-----------------------|
F|-----------------------|
C|-----------------------|
G|-----------------------|
D|-2-2-32~~2222/////\\\\\|
A|-0-0-10~~0000/////\\\\\|

Bridge3:(Guitar2)
d|-----------------------------------------------|
a|-----------------------------------------------|
F|-----------------------------------------------|
C|-----------------------------------------------|
G|-----------/12----------/11----------/10-------|
D|-----------/10----------/ 9----------/ 8-------|
A|-0-0-10x-0-----00-10x-0-----00-10x-0-----00-10x|

Fill4:(Guitar1 & Guitar2)      (Guitar2 only)
		d|---------|---------------------------------------|
		a|---------|---------------------------------------|
		F|---------|---------------------------------------|
		C|---------|---------------------------------------|
		G|---------|---/12----------/11----------/10-------|
		D|---------|---/10----------/ 9----------/ 8-------|
		A|0000-10x-|-0-----00-10x-0-----00-10x-0-----00-10x|

Chorus:(Guitar1 & Guitar2)
d|-----------------------------------------------|
a|-----------------------------------------------|
F|-----------------------------------------------|
C|-----------------------------------------------|
G|-----------/12----------/11----------/10-------|
D|-----------/10----------/ 9----------/ 8-------|
A|-0-0-10x-0-----00-10x-0-----00-10x-0-----00-10x|

d|-----------------------------------------------|
a|-----------------------------------------------|
F|-----------------------------------------------|
C|-----------------------------------------------|
G|-----------/12----------/11----------/10-------|
D|-----------/10----------/ 9----------/ 8-------|
A|0000-10x-0-----00-10x-0-----00-10x-0-----00-10x|

Outro1:(Guitar1 & Guitar2)
d|--------|
a|--------|
F|--------|
C|--------|
G|--------|
D|-222232x|
A|-000010x|

Outro2:(Guitar1 & Guitar2)
d|---------|
a|---------|
F|---------|
C|---------|
G|---------|
D|-222232~~|
A|-000010~~|

Outro3:(Guitar1 & Guitar2)
d|--------|
a|--------|
F|--------|
C|--------|
G|--------|
D|-222232x|
A|-000010x|
   .......  . Palm Muted

KoRn - Break Some Off - Take A Look In The Mirror

Intro:(Only Guitar2)
d|---------------------|
a|---------------------|
F|---------------------|
C|---------------------|
G|---------------------|
D|---------------------|
A|-2221-2221-2221-2221-|

Pre-verse1:(Guitar1 & Guitar2)
d|------------------|------------------|
a|------------------|------------------|
F|------------------|------------------|
C|------------------|------------------|
G|------------------|------------------|
D|---5-5-55-5-6-6-7-|-5-5-5-55-5-4-4-3-|
A|-0-3-3-33-3-4-4-5-|-3-3-3-33-3-2-2-1-|

Pre-verse2:
d|------------------|------------------|
a|------------------|------------------|
F|------------------|------------------|
C|------------------|------------------|	(Guitar1)
G|------------------|------------------|
D|---5-5-55-5-6-6-7-|-5-5-5-55-5-4-4-3-|
A|-0-3-3-33-3-4-4-5-|-3-3-3-33-3-2-2-1-|

d|------------------|------------------|
a|------------------|------------------|
F|------------------|------------------|
C|------------------|------------------|	(Guitar2)
G|---5-5-55-5-6-6-7-|-5-5-5-55-5-4-4-3-|
D|---5-5-55-5-6-6-7-|-5-5-5-55-5-4-4-3-|
A|-0-3-3-33-3-4-4-5-|-3-3-3-33-3-2-2-1-|

Verse:
d|-15-----14~--12-----12------|
a|---17----------15-----15---/|
F|-----16----------14-----14~-|
C|----------------------------|	(Guitar1)
G|----------------------------|
D|----------------------------|
A|----------------------------|

d|----------------------------|
a|----------------------------|
F|-16~~~~~~~~~\15~~~~\7~~~~~~~|
C|----------------------------|	(Guitar2)
G|----------------------------|
D|----------------------------|
A|----------------------------|

Fill1:
d|-15-----14~--12-----12----|
a|---17----------15-----15~-|
F|-----16----------14-------|
C|--------------------------|	(Guitar1)
G|--------------------------|
D|--------------------------|
A|--------------------------|

Chorus:
d|------------------|
a|------------------|
F|------------------|
C|------------------|	(Guitar1)
G|------------------|
D|---5-5-55-5-4-4-3-|
A|-0-3-3-33-3-2-2-1-|

d|----------------------------|
a|----------------------------|
F|-77777777888888111111118888-|
C|-77777777888888111111118888-|	(Guitar2 this would be tremolo pick....)
G|----------------------------|
D|----------------------------|
A|----------------------------|

Verse:
d|-15-----14~--12-----12------|
a|---17----------15-----15---/|
F|-----16----------14-----14~-|
C|----------------------------|	(Guitar1)
G|----------------------------|
D|----------------------------|
A|----------------------------|

d|----------------------------|
a|----------------------------|
F|-16~~~~~~~~~\15~~~~\7~~~~~~~|
C|----------------------------|	(Guitar2)
G|----------------------------|
D|----------------------------|
A|----------------------------|

Fill1:
d|-15-----14~--12-----12----|
a|---17----------15-----15~-|
F|-----16----------14-------|
C|--------------------------|	(Guitar1)
G|--------------------------|
D|--------------------------|
A|--------------------------|

Chorus:
d|------------------|
a|------------------|
F|------------------|
C|------------------|	(Guitar1)
G|------------------|
D|---5-5-55-5-4-4-3-|
A|-0-3-3-33-3-2-2-1-|

d|----------------------------|--------------------------|
a|----------------------------|--------------------------|
F|-77777777888888111111118888-|-777777778888855555558888-|  (Guitar2 with 
C|-77777777888888111111118888-|-777777778888885555558888-|   tremolo pick)
G|----------------------------|--------------------------|
D|----------------------------|--------------------------|
A|----------------------------|--------------------------|

Fill2:(Guitar2)
d|----|
a|----|
F|-8~-|
C|-8~-|
G|----|
D|----|
A|----|

Bridge1:(Guitar1)
d|------------|--------------------|
a|------------|--------------------|
F|------------|--------------------|
C|------------|--------------------|
G|------------|--------------------|
D|-5555-3-4~~-|-5555---5555---5555-|
A|------------|--------------------|

Bridge2:(Guitar1 & Guitar2)
d|------------|----------|------------------------|
a|------------|----------|------------------------|
F|------------|----------|------------------------|
C|------------|----------|------------------------|
G|------------|----------|------------------------|
D|-5555-3-4~~-|-5-5-3-4~-|-5555--5555--5555--5555-|
A|-5555-3-4~~-|-5-5-3-4~-|-5555--5555--5555--5555-|

Fill1:(Guitar1 & Guitar2)
d|----|
a|----|
F|----|
C|----|
G|----|
D|-4~-|
A|-4~-|

Bridge3:(Guitar1 & Guitar2)
d|------------|----------|------------------------|
a|------------|----------|------------------------|
F|------------|----------|------------------------|
C|------------|----------|------------------------|
G|------------|----------|------------------------|
D|-5555-3-4~~-|-5-5-3-4~-|-5555--5555--5555--5555-|
A|-5555-3-4~~-|-5-5-3-4~-|-5555--5555--5555--5555-|

Fill2:(Guitar1 & Guitar2)
d|----|
a|----|
F|----|
C|----|
G|----|
D|-4~-|
A|-4~-|

Chorus:
d|------------------|
a|------------------|
F|------------------|
C|------------------|	(Guitar1)
G|------------------|
D|---5-5-55-5-4-4-3-|
A|-0-3-3-33-3-2-2-1-|

d|----------------------------|--------------------------|
a|----------------------------|--------------------------|
F|-77777777888888111111118888-|-777777778888855555558888-|  (Guitar2 with 
C|-77777777888888111111118888-|-777777778888885555558888-|   tremolo pick)
G|----------------------------|--------------------------|
D|----------------------------|--------------------------|
A|----------------------------|--------------------------|

Outro:
d|------------------|------------------|
a|------------------|------------------|
F|------------------|------------------|
C|------------------|------------------|	(Guitar1)
G|------------------|------------------|
D|---5-5-55-5-6-6-7-|-5-5-5-55-5-4-4-3-|
A|-0-3-3-33-3-4-4-5-|-3-3-3-33-3-2-2-1-|

d|----------------------------|
a|----------------------------|
F|-7~~~88888811111111888877~~-|
C|-7~~~88888811111111888877~~-|	(Guitar2 this would be tremoloe pick....)
G|----------------------------|
D|----------------------------|
A|----------------------------|

KoRn - Counting On Me - Take A Look In The Mirror

Intro:(Guitar1)
d|------------------------|---------------------|
a|------------------------|---------------------|
F|------------------------|---------------------|
C|------------------------|---------------------|
G|------------------------|---------------------|
D|-1-XX-1-XX-1-XX-1x-1-3^-|-1-XX-1-XX-1-XX-1-XX-|
A|------------------------|---------------------|

Pre-verse:(Guitar1 & Guitar2)
d|-------------------------|
a|-------------------------|
F|-------------------------|
C|-------------------------|
G|---88---88---88--8-------|
D|---------------------10^-|
A|-6----6----6----6--6- 8^-|

Verse:
d|------------------------|
a|------------------------|
F|------------------------|
C|------------------------|	(Guitar1)
G|------------------------|
D|-1-XX-1-XX-1-XX-1x-1-3^-|
A|------------------------|

d|---------------------|
a|---------------------|
F|-4^---b4-4^--2--0----|
C|-------------------3~|	(Guitar2)
G|---------------------|
D|---------------------|
A|---------------------|

Pre-verse:(Guitar1 & Guitar2)
d|-------------------------|
a|-------------------------|
F|-------------------------|
C|-------------------------|
G|---88---88---88--8-------|
D|---------------------10^-|
A|-6----6----6----6--6- 8^-|

Chorus:(Guitar1 & Guitar2)
d|---------------------------|
a|---------------------------|
F|---------------------------|
C|-3~~~6~-------6~~~8~----4~~|
G|-3~~~6~4~~~~~~6~~~8~6~~~4~~|
D|-1~~~4~4~~~~~~4~~~6~6~~~2~~|
A|-------2~~~~~~------4~~~---|

Verse:
d|------------------------|
a|------------------------|
F|------------------------|
C|------------------------|	(Guitar1)
G|------------------------|
D|-1-XX-1-XX-1-XX-1x-1-3^-|
A|------------------------|

d|---------------------|
a|---------------------|
F|-4^---b4-4^--2--0----|
C|-------------------3~|	(Guitar2)
G|---------------------|
D|---------------------|
A|---------------------|

Pre-verse:(Guitar1 & Guitar2)
d|-------------------------|
a|-------------------------|
F|-------------------------|
C|-------------------------|
G|---88---88---88--8-------|
D|---------------------10^-|
A|-6----6----6----6--6- 8^-|

Chorus:(Guitar1 & Guitar2)
d|---------------------------|
a|---------------------------|
F|---------------------------|
C|-3~~~6~-------6~~~8~----4~~|
G|-3~~~6~4~~~~~~6~~~8~6~~~4~~|
D|-1~~~4~4~~~~~~4~~~6~6~~~2~~|
A|-------2~~~~~~------4~~~---|

Bridge1:
d|------------------|------------------|
a|------------------|------------------|
F|-------------7779-|-------------7776-|
C|-------------7779-|-------------7776-|	(Guitar1)
G|------------------|------------------|
D|-1-----1--1-------|-1-----1--1-------|
A|------------------|------------------|

d|---1-3-------1//3-|---1-3-------1//3-|
a|-------1~---------|-------1~---------|
F|------------------|------------------|
C|------------------|------------------|	(Guitar2)
G|------------------|------------------|
D|-1--------1-------|-1---------1------|
A|------------------|------------------|

Bridge2:
d|-----------------------------|
a|-----------------------------|
F|-----------------------------|
C|-3~~~2~~~--------------------|	(Guitar2)
G|-3~~~2~~~33-333433-33-333433-|
D|-1~~~0~~~33-333433-33-333433-|
A|---------11-111211-11-111211-|

d|-----------------------------|
a|-----------------------------|
F|-5~~~4~~~--------------------|
C|-x~~~x~~~--------------------|	(Guitar1)
G|-3~~~2~~~33-333433-33-333433-|
D|---------33-333433-33-333433-|
A|---------11-111211-11-111211-|

Fill1:
d|---------|
a|---------|
F|---------|
C|-3~~~2~~~|	(Guitar2)
G|-3~~~2~~~|
D|-1~~~0~~~|
A|---------|

d|---------|
a|---------|
F|-5~~~4~~~|
C|-x~~~x~~~|	(Guitar1)
G|-3~~~2~~~|
D|---------|
A|---------|

Bridge3:(Guitar1 & Guitar2 real fast)
d|-----------|
a|-----------|
F|-----------|
C|-----------|
G|-3-3433343-|
D|-3-3433343-|
A|-1-1211121-|

Fill2:
d|---------|
a|---------|
F|---------|
C|-3~~~2~~~|	(Guitar2)
G|-3~~~2~~~|
D|-1~~~0~~~|
A|---------|

d|---------|
a|---------|
F|-5~~~4~~~|
C|-x~~~x~~~|	(Guitar1)
G|-3~~~2~~~|
D|---------|
A|---------|

Pre-verse:(Guitar1 & Guitar2)
d|------------------------|
a|------------------------|
F|------------------------|
C|------------------------|
G|---33---33---33--3---5^-|
D|---------------------5^-|
A|-1----1----1----1--1-3^-|

Chorus:(Guitar1 & Guitar2)
d|---------------------------|
a|---------------------------|
F|---------------------------|
C|-3~~~6~-------6~~~8~----4~~|
G|-3~~~6~4~~~~~~6~~~8~6~~~4~~|
D|-1~~~4~4~~~~~~4~~~6~6~~~2~~|
A|-------2~~~~~~------4~~~---|

Outro:(Guitar2)
d|-16--16--15--15--16--16--15~---|-16--16--15--15--16--16---|
a|-18--18--16--16--18--18--16~16~|-18--18--16--16--18--1816~|
F|---17--17--17--17--17--17---17~|---17--17--17--17--17--17~|
C|-------------------------------|--------------------------|
G|-------------------------------|--------------------------|
D|-------------------------------|--------------------------|
A|-------------------------------|--------------------------|

KoRn - Here It Comes Again - Take A Look In The Mirror

Intro:(Guitar1 this is little hard,the chorus part helps to figure it out)
d|--------------------------------|
a|--------------------------------|
F|--------------------------------|
C|--------------------------------|
G|----9--9h10-7--10-----9--9h10-7-|
D|--------------------------------|
A|-7----7----------7---7--7-------|

Pre-verse:(Guitar1 & Guitar2)
d|--------------------------------|--------------------------------|
a|--------------------------------|--------------------------------|
F|--------------------------------|--------------------------------|
C|--------------------------------|--------------------------------|
G|---9--9/10\7/10-----9---99/10\7-|---9--9/10\7/10-x---9---99/10\7-|
D|---7--7/ 8\5/ 8\7---7---77/ 8\5-|---7--7/ 8\5/ 8-x---7---77/ 8\5-|
A|-0--0-----------0-0---0---------|-0--0-----------x-0---0---------|

Verse:(Guitar1 & Guitar2)
d|---------------------------------------------------------|
a|---------------------------------------------------------|
F|---------------------------------------------------------|
C|---------------------------------------------------------|
G|---------------------------------------------------------|
D|-----------555-------------------------333---------------|
A|-6666-6666-----3333-3333-333-5555-5555-----3333-3333-333-|

Pre-chorus:(Guitar1 & Guitar2)
d|-------------------|
a|-------------------|
F|-------------------|
C|-------------------|
G|----7~~------5~~---|
D|-8~~5~~5~~7~~3~~5~~|
A|-6~~---3~~5~~---3~~|

Chorus:
d|--------------------------------|--------------------------------|
a|--------------------------------|--------------------------------|
F|--------------------------------|--------------------------------|
C|--------------------------------|--------------------------------|(Guitar2)
G|---9--9/10\7/10-----9---99/10\7-|---9--9/10\7/10-x---9---99/10\7-|
D|---7--7/ 8\5/ 8\7---7---77/ 8\5-|---7--7/ 8\5/ 8-x---7---77/ 8\5-|
A|-0--0-----------0-0---0---------|-0--0-----------x-0---0---------|

d|-2323232323232323232323232323232324242121-|
a|-2121212121212121212121212121212122221919-|
F|------------------------------------------|
C|------------------------------------------|	(Guitar1)
G|------------------------------------------|
D|------------------------------------------|
A|------------------------------------------|

Verse:(Guitar1 & Guitar2)
d|---------------------------------------------------------|
a|---------------------------------------------------------|
F|---------------------------------------------------------|
C|---------------------------------------------------------|
G|---------------------------------------------------------|
D|-----------555-------------------------333---------------|
A|-6666-6666-----3333-3333-333-5555-5555-----3333-3333-333-|

Pre-chorus:(Guitar1 & Guitar2)
d|-------------------|
a|-------------------|
F|-------------------|
C|-------------------|
G|----7~~------5~~---|
D|-8~~5~~5~~7~~3~~5~~|
A|-6~~---3~~5~~---3~~|

Chorus:
d|--------------------------------|--------------------------------|
a|--------------------------------|--------------------------------|
F|--------------------------------|--------------------------------|
C|--------------------------------|--------------------------------|(Guitar2)
G|---9--9/10\7/10-----9---99/10\7-|---9--9/10\7/10-x---9---99/10\7-|
D|---7--7/ 8\5/ 8\7---7---77/ 8\5-|---7--7/ 8\5/ 8-x---7---77/ 8\5-|
A|-0--0-----------0-0---0---------|-0--0-----------x-0---0---------|

d|-2323232323232323232323232323232324242121-|
a|-2121212121212121212121212121212122221919-|
F|------------------------------------------|
C|------------------------------------------|	(Guitar1)
G|------------------------------------------|
D|------------------------------------------|
A|------------------------------------------|

Bridge1:
d|-------------------------------------|
a|-------------------------------------|
F|-------------------------------------|
C|-------------------------------------|	(Guitar1)
G|-------------------------------------|
D|-------------------------------------|
A|-5555-555-5555-666-5555-555-5555-666-|
   .... ... .... ... .... ... .... ...     .mute this notes

d|------|
a|-12~~~|
F|------|
C|------|	(Guitar2, this note fades in)
G|------|
D|------|
A|------|

Bridge2:(Guitar1 & Guitar2)
d|-----------------------------------|--------------------------------|
a|-----------------------------------|--------------------------------|
F|-----------------------------------|--------------------------------|
C|------------------------------888x-|--------------------------------|
G|------------------------------888x-|--------------------------------|
D|------------------------------xxxx-|----------------------------555-|
A|-555565x-555565x-555565x-5555-666x-|-555565x-555565x-555565x-555333-|

d|-----------------------------------|--------------------------------|
a|-----------------------------------|--------------------------------|
F|-----------------------------------|--------------------------------|
C|------------------------------888x-|--------------------------------|
G|------------------------------888x-|--------------------------------|
D|------------------------------xxxx-|----------------------------555-|
A|-555565~~555565~-555565~~5555-666x-|-555565~~555565~~555565~~555333-|

Pre-chorus:(Guitar1 & Guitar2)
d|-------------------|
a|-------------------|
F|-------------------|
C|----7~~------5~~---|
G|-8~~7~~5~~7~~5~~5~~|
D|-8~~5~~5~~7~~3~~5~~|
A|-6~~---3~~5~~---3~~|

Chorus:
d|--------------------------------|--------------------------------|
a|--------------------------------|--------------------------------|
F|--------------------------------|--------------------------------|
C|--------------------------------|--------------------------------|(Guitar2)
G|---9--9/10\7/10-----9---99/10\7-|---9--9/10\7/10-x---9---99/10\7-|
D|---7--7/ 8\5/ 8\7---7---77/ 8\5-|---7--7/ 8\5/ 8-x---7---77/ 8\5-|
A|-0--0-----------0-0---0---------|-0--0-----------x-0---0---------|

d|-2323232323232323232323232323232324242121-|
a|-2121212121212121212121212121212122221919-|
F|------------------------------------------|
C|------------------------------------------|	(Guitar1)
G|------------------------------------------|
D|------------------------------------------|
A|------------------------------------------|

KoRn - Deep Inside - Take A Look In The Mirror

Intro:(Guitar1 & Guitar2)
d|-------------------------------------------------------|
a|-------------------------------------------------------|
F|---6666---7777---6666---------6666---7777---6666-------|
C|---xxxx---xxxx---xxxx----77---xxxx---xxxx---xxxx-------|
G|---4444---5555---4444--7-77---4444---5555---4444-------|
D|-----------------------7-55----------------------5-4-3-|
A|-0------0------0-------5----0------0------0------3-2-1-|

Verse:(Guitar1 & Guitar2)
d|---------------------------|
a|---------------------------|
F|---------------------------|
C|---------------------------|
G|---------------------------|
D|-2~--22-2~--22-2~--22-3~4~-|
A|-0~--00-0~--00-0~--00-1~2~-|

Fill1:(Guitar1 & Guitar2)
d|-------|
a|-------|
F|-------|
C|-------|
G|-------|
D|-5-4-3-|
A|-3-2-1-|

Chorus:(Guitar1 & Guitar2)
d|-------------------------------------------------------|
a|-------------------------------------------------------|
F|---6666---7777---6666---------6666---7777---6666-------|
C|---xxxx---xxxx---xxxx----77---xxxx---xxxx---xxxx-------|
G|---4444---5555---4444--7-77---4444---5555---4444-------|
D|-----------------------7-55----------------------5-4-3-|
A|-0------0------0-------5----0------0------0------3-2-1-|

Verse:(Guitar1 & Guitar2)
d|---------------------------|
a|---------------------------|
F|---------------------------|
C|---------------------------|
G|---------------------------|
D|-2~--22-2~--22-2~--22-3~4~-|
A|-0~--00-0~--00-0~--00-1~2~-|

Fill2:(Guitar1 & Guitar2)
d|-------|
a|-------|
F|-------|
C|-------|
G|-------|
D|-5-4-3-|
A|-3-2-1-|

Chorus:(Guitar1 & Guitar2)
d|-------------------------------------------------------|
a|-------------------------------------------------------|
F|---6666---7777---6666---------6666---7777---6666-------|
C|---xxxx---xxxx---xxxx----77---xxxx---xxxx---xxxx-------|
G|---4444---5555---4444--7-77---4444---5555---4444-------|
D|-----------------------7-55----------------------5-4-3-|
A|-0------0------0-------5----0------0------0------3-2-1-|

Bridge1:
d|---------------|-------------------|
a|---------------|-------------------|
F|---------------|-------------------|
C|-9~--/12~ 9~--9|-9~--/12~ 9~--9/10\|	(Guitar1)
G|10~--/13~10~-10|10~--/13~10~-10/11\|
D|---------------|-------------------|
A|---------------|-------------------|

d|------------|
a|------------|
F|------------|
C|------------|	(Guitar2 with effect)
G|-7!!!/10!!!-|
D|------------|
A|------------|


Fill3:(Guitar1)
d|----|
a|----|
F|----|
C|-7~-|
G|-8~-|
D|----|
A|----|

Bridge2:
d|----------------------------|
a|----------------------------|
F|----------------------------|
C|----------------------------|	(Guitar2 with effect)
G|----4444---5555---4444------|
D|-------------------------55-|
A|-0-------0------0------5----|

d|----|----|----------|----|--------|
a|----|----|----------|----|--------|
F|----|----|----------|----|--------|
C|----|----|----------|----|--------|	(Guitar1)
G|----|----|----------|----|--------|
D|-4x-|-4x-|-5-4-3-4x-|-4x-|-5-4-3x-|
A|-2x-|-2x-|-3-2-1-2x-|-2x-|-3-2-1x-|

Chorus:(Guitar1 & Guitar2)
d|-------------------------------------------------------|
a|-------------------------------------------------------|
F|---6666---7777---6666---------6666---7777---6666-------|
C|---xxxx---xxxx---xxxx----77---xxxx---xxxx---xxxx-------|
G|---4444---5555---4444--7-77---4444---5555---4444-------|
D|-----------------------7-55----------------------5-4-3-|
A|-0------0------0-------5----0------0------0------3-2-1-|

Outro:(Guitar1 & Guitar2)
d|-----------------------|
a|-----------------------|
F|-----------------------|
C|-----------------------|
G|-9~---10~---9~---5-4-3-|
D|-9~---10~---9~---5-4-3-|
A|-7~-0--8~-0-7~-0-3-2-1-|

Fill4:(Guitar1 & Guitar2)
d|-----------------|
a|-----------------|
F|-----------------|
C|-----------------|
G|-9~---10~---9~---|
D|-9~---10~---9~---|
A|-7~-0--8~-0-7~-0~|

KoRn - Did My Time - Take A Look In The Mirror

Intro:
d|------------------------------------|
a|------------------------------------|
F|------------------------------------|
C|------------------------------------|	(Guitar2)
G|------------------------------------|
D|-7999-7999-7999-7999-7999-7999-7999-|
A|------------------------------------|

d|-------------------------|
a|-------------------------|
F|-------------------------|
C|-------------------------|	(Guitar1)
G|-5/888-5/888-5/888-5/888-|
D|-xxxxx-xxxxx-xxxxx-xxxxx-|
A|-3/666-3/666-3/666-3/666-|

d|---------------------------------|
a|---------------------------------|
F|---------------------------------|
C|---------------------------------|	(Guitar2)
G|---------------------------------|
D|-7101010-7101010-7101010-7101010-|
A|---------------------------------|

d|---------------------|
a|---------------------|
F|---------------------|
C|---------------------|	(Guitar2)
G|---------------------|
D|-7999-7999-7999-7999-|
A|---------------------|

d|-------------------------|
a|-------------------------|
F|-------------------------|
C|-------------------------|	(Guitar1)
G|-5/888-5/888-5/888-5/888-|
D|-xxxxx-xxxxx-xxxxx-xxxxx-|
A|-3/666-3/666-3/666-3/666-|

d|---------------------------------|
a|---------------------------------|
F|---------------------------------|
C|---------------------------------|	(Guitar2)
G|---------------------------------|
D|-7101010-7101010-7101010-7101010-|
A|---------------------------------|

Pre-Verse:(Guitar1 & Guitar2)
d|---------------------|---------------------|
a|---------------------|---------------------|
F|---------------------|---------------------|
C|-222-----------------|-222-----------------|
G|-----222-------------|-----222-------------|
D|---------333-----2222|---------333-----222-|
A|-------------333-----|-------------333-----|

Verse:
d|-----------------------------------------|
a|-----------------------------------------|
F|-----------------------------------------|
C|-----------------------------------------|	(Guitar1 & Guitar2)
G|-----------------------------------------|
D|---44---44---44---44---55---55---55---55-|
A|-0-22-0-22-0-22-0-22-0-33-0-33-0-33-0-33-|

Pre-Chorus:
d|---------------------|
a|---------------------|
F|---------------------|
C|-222-----------------|	(Guitar2)
G|-----222-------------|
D|---------333-----2222|
A|-------------333-----|

Chorus:
d|---------------------|---------------------|
a|---------------------|---------------------|
F|---------------------|---------------------|
C|-222-----------------|-222-----------------|	(Guitar2)
G|-----222-------------|-----222-------------|
D|---------333-----2222|---------333-----222-|
A|-------------333-----|-------------333-----|

d|------------------------------------------|
a|-5555555577777777888888881010101010101010-|
F|-xxxxxxxxxxxxxxxxxxxxxxxxxxxxxxxxxxxxxxxx-|
C|-222222224444444455555555 7 7 7 7 7 7 7 7-|	(Guitar1)
G|------------------------------------------|
D|------------------------------------------|
A|------------------------------------------|

Verse:
d|-----------------------------------------|
a|-----------------------------------------|
F|-----------------------------------------|
C|-----------------------------------------|	(Guitar1 & Guitar2)
G|-----------------------------------------|
D|---44---44---44---44---55---55---55---55-|
A|-0-22-0-22-0-22-0-22-0-33-0-33-0-33-0-33-|

Pre-Chorus:
d|---------------------|
a|---------------------|
F|---------------------|
C|-222-----------------|	(Guitar2)
G|-----222-------------|
D|---------333-----2222|
A|-------------333-----|

Chorus:
d|---------------------|---------------------|
a|---------------------|---------------------|
F|---------------------|---------------------|
C|-222-----------------|-222-----------------|	(Guitar2)
G|-----222-------------|-----222-------------|
D|---------333-----2222|---------333-----222-|
A|-------------333-----|-------------333-----|

d|------------------------------------------|
a|-5555555577777777888888881010101010101010-|
F|-xxxxxxxxxxxxxxxxxxxxxxxxxxxxxxxxxxxxxxxx-|
C|-222222224444444455555555 7 7 7 7 7 7 7 7-|	(Guitar1)
G|------------------------------------------|
D|------------------------------------------|
A|------------------------------------------|

Bridge1:
d|-------------------|
a|-------------------|
F|-------------------|
C|-------------------|	(Guitar2)
G|----5-4~----5-4----|
D|----------------5~-|
A|-0~------0~--------|

Bridge2:
d|-----------------|
a|-----------------|
F|-----------------|
C|-----------------|	(Guitar1 & Guitar2)
G|-----------------|
D|-2--232-22-2-320-|
A|-0--010-00-0-100-|

Bridge3:
d|-----------------------------------------|
a|-----------------------------------------|
F|-----------------------------------------|
C|-----------------------------------------|	(Guitar1 & Guitar2)
G|-----------------------------------------|
D|---22---22---22---22---33---33---33---33-|
A|-0-22-0-22-0-22-0-22-0-33-0-33-0-33-0-33-|

Chorus:
d|---------------------|---------------------|
a|---------------------|---------------------|
F|---------------------|---------------------|
C|-222-----------------|-222-----------------|	(Guitar2)
G|-----222-------------|-----222-------------|
D|---------333-----2222|---------333-----222-|
A|-------------333-----|-------------333-----|

d|------------------------------------------|
a|-5555555577777777888888881010101010101010-|
F|-xxxxxxxxxxxxxxxxxxxxxxxxxxxxxxxxxxxxxxxx-|
C|-222222224444444455555555 7 7 7 7 7 7 7 7-|	(Guitar1)
G|------------------------------------------|
D|------------------------------------------|
A|------------------------------------------|

Outro:
d|-----------------------------------------|
a|-----------------------------------------|
F|-----------------------------------------|
C|-----------------------------------------|	(Guitar1 & Guitar2)
G|-----------------------------------------|
D|---44---44---44---44---55---55---55---55-|
A|-0-22-0-22-0-22-0-22-0-33-0-33-0-33-0-33-|

KoRn - Everything I've Known - Take A Look In The Mirror

Intro:(Guitar2)
d|-------------------------------------|
a|-------------------------------------|
F|-------------------------------------|
C|--------------------------------/7---|
G|-----7-8~------7-5~-------7-8-5----5-|
D|-------------------------------------|
A|-3~~~-----3~~~~------0-3~------------|

Pre-verse:(Guitar1 & Guitar2)
d|--------------------|
a|--------------------|
F|--------------------|
C|--------------------|
G|-5~~\(5)~XX-5-5-6-3-|
D|-5~~\(5)~XX-5-5-6-3-|
A|-3~~\(3)~XX-3-3-4-1-|

Verse:
d|-------------------------------------|
a|-------------------------------------|
F|-------------------------------------|
C|--------------------------------/7---|
G|-----7-8~------7-5~-------7-8-5----5-|
D|-------------------------------------|
A|-3~~~-----3~~~~------0-3~------------|

d|-----------------------------------|--------------------------------|
a|-----15~~15~~--------13~~13-11~10~-|-----15~~15~~--------13~~11~10~-|
F|-12~~--------12~~10~~--------------|-12~~--------12~~10~~-----------|
C|-----------------------------------|--------------------------------|(Guitar1)
G|-----------------------------------|--------------------------------|
D|-----------------------------------|--------------------------------|
A|-----------------------------------|--------------------------------|

Pre-chorus:
d|---------------|
a|---------------|
F|---------------|
C|---------------|	(Guitar2)
G|-5~~7~~9~~10~~-|
D|-5~~7~~9~~10~~-|
A|-3~~5~~7~~ 8~~-|

d|---------------------------------------------------|
a|----15------------15------------15----------15--16-|
F|-14-xx-141514--14-xx-141514--14-xx-141514-14xx14xx-|
C|-xx-12-xxxxxx--xx-12-xxxxxx--xx-12-xxxxxx-xx12xx13-|	(Guitar1)
G|-12----121312--12----121312--12----121312-12--12---|
D|---------------------------------------------------|
A|---------------------------------------------------|

Chorus:(Guitar1 & Guitar2)
d|--------------------|
a|--------------------|
F|--------------------|
C|--------------------|
G|-5~~\(5)~XX-5-5-6-3-|
D|-5~~\(5)~XX-5-5-6-3-|
A|-3~~\(3)~XX-3-3-4-1-|

Verse:
d|-------------------------------------|
a|-------------------------------------|
F|-------------------------------------|
C|--------------------------------/7---|	(Guitar2)
G|-----7-8~------7-5~-------7-8-5----5-|
D|-------------------------------------|
A|-3~~~-----3~~~~------0-3~------------|

d|-----------------------------------|--------------------------------|
a|-----15~~15~~--------13~~13-11~10~-|-----15~~15~~--------13~~11~10~-|
F|-12~~--------12~~10~~--------------|-12~~--------12~~10~~-----------|
C|-----------------------------------|--------------------------------|(Guitar1)
G|-----------------------------------|--------------------------------|
D|-----------------------------------|--------------------------------|
A|-----------------------------------|--------------------------------|

Pre-chorus:
d|---------------|
a|---------------|
F|---------------|
C|---------------|	(Guitar2)
G|-5~~7~~9~~10~~-|
D|-5~~7~~9~~10~~-|
A|-3~~5~~7~~ 8~~-|

d|---------------------------------------------------|
a|----15------------15------------15----------15--16-|
F|-14-xx-141514--14-xx-141514--14-xx-141514-14xx14xx-|
C|-xx-12-xxxxxx--xx-12-xxxxxx--xx-12-xxxxxx-xx12xx13-|	(Guitar1)
G|-12----121312--12----121312--12----121312-12--12---|
D|---------------------------------------------------|
A|---------------------------------------------------|

Chorus:(Guitar1 & Guitar2)
d|--------------------|
a|--------------------|
F|--------------------|
C|--------------------|
G|-5~~\(5)~XX-5-5-6-3-|
D|-5~~\(5)~XX-5-5-6-3-|
A|-3~~\(3)~XX-3-3-4-1-|

Bridge1:(Guitar2)
d|-------------------------------------|
a|-------------------------------------|
F|-------------------------------------|
C|--------------------------------/7---|
G|-----7-8~------7-5~-------7-8-5----5-|
D|-------------------------------------|
A|-3~~~-----3~~~~------0-3~------------|

Bridge2:(Guitar1 & Guitar2 together,and at the end Guitar2 plays the next riff)
d|--------------------------|-----|
a|--------------------------|-----|
F|--------------------------|-----|
C|--------------------------|-----|
G|--------------------------|-----|
D|-5-6-5--5-6-5--5-6-3--6-5-|-4-3-|
A|-3-4-3--3-4-3--3-4-1--4-3-|-2-1-|

d|--------------------------|-----|
a|--------------------------|-----|
F|--------------------------|-----|
C|--------------------------|-----|	(Guitar2)
G|-5-6-5--5-6-5--5-6-3--6-5-|-4-3-|
D|-x-x-x--x-x-x--x-x-x--x-x-|-x-x-|
A|-3-4-3--3-4-3--3-4-1--4-3-|-2-1-|

Pre-chorus:
d|---------------|
a|---------------|
F|---------------|
C|---------------|	(Guitar2)
G|-5~~7~~9~~10~~-|
D|-5~~7~~9~~10~~-|
A|-3~~5~~7~~ 8~~-|

d|---------------------------------------------------|
a|----15------------15------------15----------15--16-|
F|-14-xx-141514--14-xx-141514--14-xx-141514-14xx14xx-|
C|-xx-12-xxxxxx--xx-12-xxxxxx--xx-12-xxxxxx-xx12xx13-|	(Guitar1)
G|-12----121312--12----121312--12----121312-12--12---|
D|---------------------------------------------------|
A|---------------------------------------------------|

Chorus:(Guitar1 & Guitar2)
d|--------------------|
a|--------------------|
F|--------------------|
C|--------------------|
G|-5~~\(5)~XX-5-5-6-3-|
D|-5~~\(5)~XX-5-5-6-3-|
A|-3~~\(3)~XX-3-3-4-1-|

KoRn - Play Me - Take A Look In The Mirror

Intro:(Guitar2 with effect after a while Guitar1 joins in playing the same)
d|---------|---------|
a|---------|---------|
F|---------|---------|
C|---------|---------|
G|---------|---------|
D|-2-2-3-2-|-2-2-4-2-|
A|-2-2-3-2-|-2-2-4-2-|

Pre-verse:(Guitar1 & Guitar2)
d|---------------------|
a|---------------------|
F|---------------------|
C|---------------------|
G|---------------------|
D|-4-3-22-3-2--2-2-3-2-|
A|-4-3-22-3-2--2-2-3-2-|

Verse:(Guitar1 & Guitar2)
d|-----------|-------------|
a|-----------|-------------|
F|-----------|-------------|
C|-----------|-------------|
G|-----------|-------------|
D|-2x-2x-32x-|-2x-2x-3322x-|
A|-2x-2x-32x-|-2x-2x-3322x-|

Fill1:(Guitar1 & Guitar2)
d|-----------|------------|
a|-----------|------------|
F|-----------|------------|
C|-----------|------------|
G|-----------|------------|
D|-2x-2x-32x-|-2222x3322x-|
A|-2x-2x-32x-|-2222x3322x-|

Chorus:(Guitar1 & Guitar2)
d|--------------------------------|-----------------------------|
a|--------------------------------|-----------------------------|
F|--------------------------------|-----------------------------|
C|--------------------------------|-----------------------------|
G|-2~~3-h4h3h2-h5-22~3-h4h3h2-h5~-|-2~~3-h4h3h2-h5-2~3-h4h3h2-h5|
D|-2~~3-h4h3h2-h5-22~3-h4h3h2-h5~-|-2~~3-h4h3h2-h5-2~3-h4h3h2-h5|
A|-2~~3-h4h3h2-h5-22~3-h4h3h2-h5~-|-2~~3-h4h3h2-h5-2~3-h4h3h2-h5|

Verse:(Guitar1 & Guitar2)
d|-----------|-------------|
a|-----------|-------------|
F|-----------|-------------|
C|-----------|-------------|
G|-----------|-------------|
D|-2x-2x-32x-|-2x-2x-3322x-|
A|-2x-2x-32x-|-2x-2x-3322x-|

Fill2:(Guitar1 & Guitar2)
d|-----------|------------|
a|-----------|------------|
F|-----------|------------|
C|-----------|------------|
G|-----------|------------|
D|-2x-2x-32x-|-2222x3322x-|
A|-2x-2x-32x-|-2222x3322x-|

Chorus:(Guitar1 & Guitar2)
d|--------------------------------|-----------------------------|
a|--------------------------------|-----------------------------|
F|--------------------------------|-----------------------------|
C|--------------------------------|-----------------------------|
G|-2~~3-h4h3h2-h5-22~3-h4h3h2-h5~-|-2~~3-h4h3h2-h5-2~3-h4h3h2-h5|
D|-2~~3-h4h3h2-h5-22~3-h4h3h2-h5~-|-2~~3-h4h3h2-h5-2~3-h4h3h2-h5|
A|-2~~3-h4h3h2-h5-22~3-h4h3h2-h5~-|-2~~3-h4h3h2-h5-2~3-h4h3h2-h5|

Bridge1:(Guitar1 with effect)
d|---------------------------------------------------------|
a|---------------------------------------------------------|
F|---------------------------------------------------------|
C|-----(11)/12-11----(11)/12-11-----(11)/12-14---(11)///14-|
G|-10~~-----------9~~------------8~~-----------10----------|
D|---------------------------------------------------------|
A|---------------------------------------------------------|

Bridge2:
d|---------|-----------|----------|
a|---------|-----------|----------|
F|---------|-----------|----------|
C|---------|-----------|----------|	(Guitar1)
G|---------|-----------|----------|
D|---------|-----------|----------|
A|-2-2-3-2-|-2-2-33-22-|-22223322-|

d|-----------------------------------------------------|
a|-----------------------------------------------------|
F|-11^-11-12^-12-14^-14-16^-16-11^-11-12^-12-9^-9-8^-8-|
C|-----------------------------------------------------|	(Guitar2)
G|-----------------------------------------------------|
D|-----------------------------------------------------|
A|-----------------------------------------------------|

Fill3:
d|------------------------------------------------------|
a|------------------------------------------------------|
F|-11^-11-12^-12-14^-14-16^-16^-16^-16^-16^-16^-16^-16^-|
C|------------------------------------------------------|	(Guitar2)
G|------------------------------------------------------|
D|------------------------------------------------------|
A|------------------------------------------------------|

Bridge3:(Guitar1 & Guitar2)
d|------------|
a|------------|
F|------------|
C|------------|
G|------------|
D|-2-2--33-22-|
A|-2-2--33-22-|

Fiil4:(Guitar1 & Guitar2)
d|------------|
a|------------|
F|------------|
C|------------|
G|------------|
D|-2222-33-22-|
A|-2222-33-22-|

Chorus:(Guitar1 & Guitar2)
d|--------------------------------|-----------------------------|
a|--------------------------------|-----------------------------|
F|--------------------------------|-----------------------------|
C|--------------------------------|-----------------------------|
G|-2~~3-h4h3h2-h5-22~3-h4h3h2-h5~-|-2~~3-h4h3h2-h5-2~3-h4h3h2-h5|
D|-2~~3-h4h3h2-h5-22~3-h4h3h2-h5~-|-2~~3-h4h3h2-h5-2~3-h4h3h2-h5|
A|-2~~3-h4h3h2-h5-22~3-h4h3h2-h5~-|-2~~3-h4h3h2-h5-2~3-h4h3h2-h5|

Outro:(Guitar1 & Guitar2)
d|-----------|-------------|
a|-----------|-------------|
F|-----------|-------------|
C|-----------|-------------|
G|-----------|-------------|
D|-2x-2x-32x-|-2x-2x-3322x-|
A|-2x-2x-32x-|-2x-2x-3322x-|

KoRn - Alive - Take A Look In The Mirror

Intro1:
d|-----------------------|
a|-11111111---1414149999-|
F|-----------------------|
C|-----------------------|	(Guitar1 with fingernail)
G|-----------------------|
D|-----------------------|
A|-----------------------|

d|-------------|
a|-9999\\\\\\\-|
F|-------------|
C|-------------|	(Guitar2 with fingernail, after Guitar1 is finished)
G|-------------|
D|-------------|
A|-------------|

Intro2:
d|---------------------------------------------|
a|---------------------------------------------|
F|---------------------------------------------|
C|-8888881010101077777788888811111111777777777-|	(Guitar2)
G|-8888881010101077777788888811111111777777777-|
D|-666666 8 8 8 8555555666666 9 9 9 9555555555-|
A|---------------------------------------------|

d|---------------------------------------------|
a|---------------------------------------------|
F|---------------------------------------------|
C|-8888881010101077777788888811111111777-------|
G|-8888881010101077777788888811111111777888888-|
D|-666666 8 8 8 8555555666666 9 9 9 9555888888-|
A|--------------------------------------666666-|

d|---------------------------------|
a|---------------------------------|
F|---------------------------------|
C|---------------------------------|	(Guitar1)
G|---------------------------------|
D|-2-4-4-4-5-4-4-4-5-4-4-4-7-5-5-5-|
A|-0-2-2-2-3-2-2-2-3-2-2-2-5-3-3-3-|

Verse:(Guitar1 & Guitar2)
d|-----------------|
a|-----------------|
F|-----------------|
C|-----------------|
G|-----------------|
D|--4x--54x--7555x-|
A|-02x--32x--5333x-|

Fill1:(Guitar1 & Guitar2)
d|-----------|
a|-----------|
F|-----------|
C|-----------|
G|-----------|
D|---1~---0~-|
A|-2-1~-2-0~-|

Pre-chorus:(Guitar1 & Guitar2)
d|------------------|
a|------------------|
F|------------------|
C|------------------|
G|------------------|
D|---4-5\4-5\4-7555-|
A|-0`2-3\2-3\2-5333-|

Chorus:
d|-------------------------|
a|---------------0---------|
F|-----------------0-------|
C|-2~~~~----5-4~~~~~~4~~3~~|	(Guitar1)
G|-2~~~~2~3-5-4~~~~~~~~~3~~|
D|-0~~~~2~3-3-2~~~~~~~~~1~~|
A|------0~1----------------|

d|---------------------------------|----|
a|-00000000000000000000000000000000|0~0~|
F|-44444444444444444444444444444444|4~2~|
C|---------------------------------|----|	(Guitar2)
G|---------------------------------|----|
D|---------------------------------|----|
A|---------------------------------|----|

Pre-chorus:(Guitar1 & Guitar2)
d|------------------|
a|------------------|
F|------------------|
C|------------------|
G|------------------|
D|---4-5\4-5\4-7555-|
A|-0`2-3\2-3\2-5333-|

Verse:(Guitar1 & Guitar2)
d|-----------------|
a|-----------------|
F|-----------------|
C|-----------------|
G|-----------------|
D|--4x--54x--7555x-|
A|-02x--32x--5333x-|

Fill2:(Guitar1 & Guitar2)
d|-----------|
a|-----------|
F|-----------|
C|-----------|
G|-----------|
D|---1~---0~-|
A|-2-1~-2-0~-|

Chorus:
d|-------------------------|
a|---------------0---------|
F|-----------------0-------|
C|-2~~~~----5-4~~~~~~4~~3~~|	(Guitar1)
G|-2~~~~2~3-5-4~~~~~~~~~3~~|
D|-0~~~~2~3-3-2~~~~~~~~~1~~|
A|------0~1----------------|

d|---------------------------------|----|
a|-00000000000000000000000000000000|0~0~|
F|-44444444444444444444444444444444|4~2~|
C|---------------------------------|----|	(Guitar2)
G|---------------------------------|----|
D|---------------------------------|----|
A|---------------------------------|----|

Bridge1:(Guitar1 & Guitar2)
d|----|-------------|-------------|
a|----|-------------|-------------|
F|----|-------------|-------------|
C|----|-------------|-------------|
G|----|----4-44-5-4-|----4-44-544-|
D|-4~-|-4~----------|-4~----------|
A|-2~-|-2~----------|-2~----------|


Bridge2:
d|---------------------------------------------|
a|---------------------------------------------|
F|---------------------------------------------|
C|-8888881010101077777788888811111111777777777-|	(Guitar2)
G|-8888881010101077777788888811111111777777777-|
D|-666666 8 8 8 8555555666666 9 9 9 9555555555-|
A|---------------------------------------------|

d|---------------------------------------------|
a|---------------------------------------------|
F|---------------------------------------------|
C|-8888881010101077777788888811111111777-------|
G|-8888881010101077777788888811111111777888888-|
D|-666666 8 8 8 8555555666666 9 9 9 9555888888-|
A|--------------------------------------666666-|

d|---------------------------------|
a|---------------------------------|
F|---------------------------------|
C|---------------------------------|	(Guitar1)
G|---------------------------------|
D|-2-4-4-4-5-4-4-4-5-4-4-4-7-5-5-5-|
A|-0-2-2-2-3-2-2-2-3-2-2-2-5-3-3-3-|

Chorus:
d|-------------------------|
a|---------------0---------|
F|-----------------0-------|
C|-2~~~~----5-4~~~~~~4~~3~~|	(Guitar1)
G|-2~~~~2~3-5-4~~~~~~~~~3~~|
D|-0~~~~2~3-3-2~~~~~~~~~1~~|
A|------0~1----------------|

d|---------------------------------|----|
a|-00000000000000000000000000000000|0~0~|
F|-44444444444444444444444444444444|4~2~|
C|---------------------------------|----|	(Guitar2)
G|---------------------------------|----|
D|---------------------------------|----|
A|---------------------------------|----|

Outro:(Guitar1 & Guitar2)
d|---------------------------------|
a|---------------------------------|
F|---------------------------------|
C|---------------------------------|
G|---------------------------------|
D|-2-4-4-4-5-4-4-4-5-4-4-4-7-5-5-5-|
A|-0-2-2-2-3-2-2-2-3-2-2-2-5-3-3-3-|

KoRn - Let's Do This Now - Take A Look In The Mirror

Intro:(Jonathan comes with the bagpipes)
(It's hard to get out the bagpipes I'll skip it...sorry)
Intro:
d|----------------|
a|----------------|
F|----------------|
C|----------------|	(Guitar1)
G|----------------|
D|----------------|
A|-87-0-0~~~~~~~~~|

d|----------------|
a|----------------|
F|----------------|
C|----------------|	(Guitar2 with fingernail)
G|----------------|
D|-------8~~~8~~~8|
A|----------------|

Pre-verse:(Guitar1 & Guitar2 goes pretty fast, specially the slides)
d|-------------------------------|-----------------------------|
a|-------------------------------|-----------------------------|
F|-------------------------------|-----------------------------|
C|-------------------------------|-----------------------------|
G|-------------------------------|-----------------------------|
D|-(10)\9---------10\9----9\8----|-(10)\9---------10\9----9\8x-|
A|-( 8)\7-00-0-00- 8\7-00-7\6-00-|-( 8)\7-00-0-00- 8\7-00-7\6x-|

Verse:
d|----------------------------------------|-------------------------|
a|----------------------------------------|-------------------------|
F|----------------------------------------|-------------------------|
C|----------------------------------------|-------------------------|
G|------5~x------5x------5~x------5x----6x|------5~x-------5x----6x-|
D|------4~x------4x------4~x------4x----5x|------4~x-------4x----5x-|
A|-3-33----3-3-3----3-33-----3-3-3---33---|-3-33-----3-3-3----33----|

d|----------------------------------------|
a|----------------------------------------|
F|----------------------------------------|
C|----------------------------------------|
G|------3~x-------3x-----3x------33---4~~~|
D|------2~x-------2x-----2x------22---3~~~|
A|-1-11-----1-1-1----1-1----11-1----1-----|

Chorus:
d|-------------------------------|-----------------------------|
a|-------------------------------|-----------------------------|
F|-------------------------------|-----------------------------|
C|-------------------------------|-----------------------------| (Guitar1)
G|-------------------------------|-----------------------------|
D|-(10)\9---------10\9----9\8----|-(10)\9---------10\9----9\8x-|
A|-( 8)\7-00-0-00- 8\7-00-7\6-00-|-( 8)\7-00-0-00- 8\7-00-7\6x-|

d|-------------------------------------------------|
a|-------------------------------------------------|
F|-8888888899998899991111111111111111131313131515\\|
C|-xxxxxxxxxxxxxxxxxxxxxxxxxxxxxxxxxxxxxxxxxxxxxxxx|	(Guitar2)
G|-666666667777667777 9 9 9 9 9 9 9 9111111111313\\|
D|-------------------------------------------------|
A|-------------------------------------------------|

d|-------------------------------------------------|
a|-------------------------------------------------|
F|-8888888899998899991111111111111111131313131111\\|
C|-xxxxxxxxxxxxxxxxxxxxxxxxxxxxxxxxxxxxxxxxxxxxxxxx|	(Guitar2)
G|-666666667777667777 9 9 9 9 9 9 9 911111111 9 9\\|
D|-------------------------------------------------|
A|-------------------------------------------------|

Verse:
d|----------------------------------------|-------------------------|
a|----------------------------------------|-------------------------|
F|----------------------------------------|-------------------------|
C|----------------------------------------|-------------------------|
G|------5~x------5x------5~x------5x----6x|------5~x-------5x----6x-|
D|------4~x------4x------4~x------4x----5x|------4~x-------4x----5x-|
A|-3-33----3-3-3----3-33-----3-3-3---33---|-3-33-----3-3-3----33----|

d|----------------------------------------|
a|----------------------------------------|
F|----------------------------------------|
C|----------------------------------------|
G|------3~x-------3x-----3x------33---4~~~|
D|------2~x-------2x-----2x------22---3~~~|
A|-1-11-----1-1-1----1-1----11-1----1-----|

Chorus:
d|-------------------------------|-----------------------------|
a|-------------------------------|-----------------------------|
F|-------------------------------|-----------------------------|
C|-------------------------------|-----------------------------| (Guitar1)
G|-------------------------------|-----------------------------|
D|-(10)\9---------10\9----9\8----|-(10)\9---------10\9----9\8x-|
A|-( 8)\7-00-0-00- 8\7-00-7\6-00-|-( 8)\7-00-0-00- 8\7-00-7\6x-|

d|-------------------------------------------------|
a|-------------------------------------------------|
F|-8888888899998899991111111111111111131313131515\\|
C|-xxxxxxxxxxxxxxxxxxxxxxxxxxxxxxxxxxxxxxxxxxxxxxxx|	(Guitar2)
G|-666666667777667777 9 9 9 9 9 9 9 9111111111313\\|
D|-------------------------------------------------|
A|-------------------------------------------------|

d|-------------------------------------------------|
a|-------------------------------------------------|
F|-8888888899998899991111111111111111131313131111\\|
C|-xxxxxxxxxxxxxxxxxxxxxxxxxxxxxxxxxxxxxxxxxxxxxxxx|	(Guitar2)
G|-666666667777667777 9 9 9 9 9 9 9 911111111 9 9\\|
D|-------------------------------------------------|
A|-------------------------------------------------|

Bridge1:
d|--------------|
a|--------------|
F|--------------|
C|--------------|	(Guitar1)
G|--------------|
D|--------------|
A|-2~~~5~~~4~3~~|

d|----0-----0-----0-----0-|
a|---0-----0-----0-----0--|
F|-4-----5-----3-----4----|
C|------------------------|	(Guitar2)
G|------------------------|
D|------------------------|
A|------------------------|

Bridge2:(Guitar1 & Guitar2)
d|------------------|
a|------------------|
F|------------------|
C|------------------|
G|-4~~~7~~~6/7\6~5~~|
D|-4~~~7~~~6/7\6~5~~|
A|-2~~~5~~~4/5\4~3~~|

Bridge3:(Guitar1)
d|----------------|
a|----------------|
F|----------------|
C|----------------|
G|----------------|
D|----------------|
A|-87-0-0~~~~~~~~~|

Bridge4:(Guitar1 & Guitar2 goes pretty fast, specially the slides)
d|-------------------------------|-----------------------------|
a|-------------------------------|-----------------------------|
F|-------------------------------|-----------------------------|
C|-------------------------------|-----------------------------|
G|-------------------------------|-----------------------------|
D|-(10)\9---------10\9----9\8----|-(10)\9---------10\9----9\8x-|
A|-( 8)\7-00-0-00- 8\7-00-7\6-00-|-( 8)\7-00-0-00- 8\7-00-7\6x-|

Chorus:
d|-------------------------------|-----------------------------|
a|-------------------------------|-----------------------------|
F|-------------------------------|-----------------------------|
C|-------------------------------|-----------------------------| (Guitar1)
G|-------------------------------|-----------------------------|
D|-(10)\9---------10\9----9\8----|-(10)\9---------10\9----9\8x-|
A|-( 8)\7-00-0-00- 8\7-00-7\6-00-|-( 8)\7-00-0-00- 8\7-00-7\6x-|

d|-------------------------------------------------|
a|-------------------------------------------------|
F|-8888888899998899991111111111111111131313131515\\|
C|-xxxxxxxxxxxxxxxxxxxxxxxxxxxxxxxxxxxxxxxxxxxxxxxx|	(Guitar2)
G|-666666667777667777 9 9 9 9 9 9 9 9111111111313\\|
D|-------------------------------------------------|
A|-------------------------------------------------|

d|-------------------------------------------------|
a|-------------------------------------------------|
F|-8888888899998899991111111111111111131313131111\\|
C|-xxxxxxxxxxxxxxxxxxxxxxxxxxxxxxxxxxxxxxxxxxxxxxxx|	(Guitar2)
G|-666666667777667777 9 9 9 9 9 9 9 911111111 9 9\\|
D|-------------------------------------------------|
A|-------------------------------------------------|

KoRn - I'm Done - Take A Look In The Mirror

Intro:
d|-----17~-----18~------------------|-----17~-----18~---------------|
a|-15~-----15~-----15~-18~----15-18-|-15~-----15~-----15~-18~----18-|
F|-------------------------15-------|-------------------------15----|
C|----------------------------------|-------------------------------|(Guitar1)
G|----------------------------------|-------------------------------|
D|----------------------------------|-------------------------------|
A|----------------------------------|-------------------------------|

d|--------------------|--------------------|
a|--------------------|--------------------|
F|--------------------|--------------------|
C|-8~~~~~~~/11\8~~~~~~|88~~~~~~~/11\8~~~~~~|	(Guitar2)
G|-xxxxxxxxxxxxxxxxxxx|xxxxxxxxxxxxxxxxxxxx|
D|-6~~~~~~~/ 9\6~~~~~~|66~~~~~~~/ 9\6~~~~~~|
A|--------------------|--------------------|

Fill1:(Guitar1 & Guitar2)
d|----------|
a|----------|
F|----------|
C|----------|
G|----------|
D|-5x55x55x-|
A|-3x33x33x-|

Pre-verse:(Guitar1 & Guitar2)
d|-----------------------------------------------------------|
a|-----------------------------------------------------------|
F|-----------------------------------------------------------|
C|-----------------------------------------------------------|
G|-----------------------------------------------------------|
D|-5x55x55x-5//8--5x55x55x-5//8--5x55x55x-5//8--5x55x55x-5/6-|
A|-3x33x33x-3//6--3x33x33x-3//6--3x33x33x-3//6--3x33x33x-3/4-|

Verse:
d|-----17~-----18~------------------|-----17~-----18~---------------|
a|-15~-----15~-----15~-18~----15-18-|-15~-----15~-----15~-18~----18-|
F|-------------------------15-------|-------------------------15----|
C|----------------------------------|-------------------------------|(Guitar1)
G|----------------------------------|-------------------------------|
D|----------------------------------|-------------------------------|
A|----------------------------------|-------------------------------|

d|-----------------|----------------|
a|-----------------|----------------|
F|-----------------|----------------|
C|-----------------|----------------|	(Guitar2)
G|-----5x5x--------|-----5x5x-------|
D|------------5//8-|------------5\6-|
A|-3x3x----3x-3//6-|-3x3x----3x-3\4-|

Chorus:
d|------------------------------------------------------|
a|------------------------------------------------------|
F|-1616161616161616161616161212121212121212111111119999-|
C|-xxxxxxxxxxxxxxxxxxxxxxxxxxxxxxxxxxxxxxxxxxxxxxxxxxxx-|	(Guitar2)
G|-1414141414141414141414141010101010101010 9 9 9 97777-|
D|------------------------------------------------------|
A|------------------------------------------------------|

d|------------------------------------------|
a|------------------------------------------|
F|------------------------------------------|
C|------------------------------------------|	(Guitar1)
G|-------4~-------5~4-4------4~-------------|
D|-2-22-22~-2-22-23~2-2-22-222~-22-22/5/7\3-|
A|-0-00-0---0-00-0------00-00---00-00/3/5\1-|

Verse:
d|-----17~-----18~------------------|-----17~-----18~---------------|
a|-15~-----15~-----15~-18~----15-18-|-15~-----15~-----15~-18~----18-|
F|-------------------------15-------|-------------------------15----|
C|----------------------------------|-------------------------------|(Guitar1)
G|----------------------------------|-------------------------------|
D|----------------------------------|-------------------------------|
A|----------------------------------|-------------------------------|

d|-----------------|----------------|
a|-----------------|----------------|
F|-----------------|----------------|
C|-----------------|----------------|	(Guitar2)
G|-----5x5x--------|-----5x5x-------|
D|------------5//8-|------------5\6-|
A|-3x3x----3x-3//6-|-3x3x----3x-3\4-|

Chorus:
d|------------------------------------------------------|
a|------------------------------------------------------|
F|-1616161616161616161616161212121212121212111111119999-|
C|-xxxxxxxxxxxxxxxxxxxxxxxxxxxxxxxxxxxxxxxxxxxxxxxxxxxx-|	(Guitar2)
G|-1414141414141414141414141010101010101010 9 9 9 97777-|
D|------------------------------------------------------|
A|------------------------------------------------------|

d|------------------------------------------|
a|------------------------------------------|
F|------------------------------------------|
C|------------------------------------------|	(Guitar1)
G|-------4~-------5~4-4------4~-------------|
D|-2-22-22~-2-22-23~2-2-22-222~-22-22/5/7\3-|
A|-0-00-0---0-00-0------00-00---00-00/3/5\1-|

Pre-verse:(Guitar1 & Guitar2)
d|-----------------------------------------------------------|
a|-----------------------------------------------------------|
F|-----------------------------------------------------------|
C|-----------------------------------------------------------|
G|-----------------------------------------------------------|
D|-5x55x55x-5//8--5x55x55x-5//8--5x55x55x-5//8--5x55x55x-5/6-|
A|-3x33x33x-3//6--3x33x33x-3//6--3x33x33x-3//6--3x33x33x-3/4-|

Bridge1:
d|---------------------------|-----------------------------|
a|-12~~~15-10~~~9~~~12-5~~4~~|-12~~~15-10~~17-9~~~12-5~~4~~|
F|---------------------------|-----------------------------|
C|---------------------------|-----------------------------|	(Guitar2)
G|---------------------------|-----------------------------|
D|---------------------------|-----------------------------|
A|---------------------------|-----------------------------|

d|---------------------------------|
a|---------------------------------|
F|---------------------------------|
C|---------------------------------|	(Guitar1)
G|---------------------------------|
D|---------------------------------|
A|-3-33-3-3-3-3333-3-33-3-3-3-3333-|

Bridge2:(Guitar1 & Guitar2)
d|---------------------|
a|---------------------|
F|-4!!!6!!!7!!9!!12!11!|
C|-xxxxxxxxxxxxxxxxxxxx|
G|-2!!!4!!!5!!7!!10! 9!| !tremolo pick but you'll
D|---------------------| hear it
A|---------------------|

Bridge3:
d|---------------------|
a|---------------------|
F|-4!!!6!!!7!!9!!12!11!|
C|-xxxxxxxxxxxxxxxxxxxx|	(Guitar2)
G|-2!!!4!!!5!!7!!10! 9!| !tremolo pick but you'll
D|---------------------| hear it
A|---------------------|

d|----------|
a|----------|
F|----------|
C|----------|	(Guitar1)
G|----------|
D|-5x55x55x-|
A|-3x33x33x-|

Chorus:
d|------------------------------------------------------|
a|------------------------------------------------------|
F|-1616161616161616161616161212121212121212111111119999-|
C|-xxxxxxxxxxxxxxxxxxxxxxxxxxxxxxxxxxxxxxxxxxxxxxxxxxxx-|	(Guitar2)
G|-1414141414141414141414141010101010101010 9 9 9 97777-|
D|------------------------------------------------------|
A|------------------------------------------------------|

d|------------------------------------------|
a|------------------------------------------|
F|------------------------------------------|
C|------------------------------------------|	(Guitar1)
G|-------4~-------5~4-4------4~-------------|
D|-2-22-22~-2-22-23~2-2-22-222~-22-22/5/7\3-|
A|-0-00-0---0-00-0------00-00---00-00/3/5\1-|

Outro:(Guitar1 & Guitar2)
d|-------------------------------------------------------|
a|-------------------------------------------------------|
F|-------------------------------------------------------|
C|-------------------------------------------------------|
G|-------------------------------------------------------|
D|-5x55x55x-5//8--5x55x55x-5//8--5x55x55x-5//8--5x55x55x-|
A|-3x33x33x-3//6--3x33x33x-3//6--3x33x33x-3//6--3x33x33x-|

KoRn - Y'All Want A Single - Take A Look In The Mirror

Intro:(Guitar1 & Guitar2)
d|------|
a|------|
F|------|
C|------|
G|------|
D|-3-2x-|
A|-1-0x-|

Pre-verse:(Guitar1 & Guitar2)
d|----------------|
a|----------------|
F|----------------|
C|----------------|
G|----------------|
D|-3-2-55554-2-3x-|
A|-1-0-33332-0-1x-|

Verse:(Guitar1 & Guitar2)
d|---|---------------|
a|---|---------------|
F|---|---------------|
C|---|---------------|
G|---|---------------|
D|-3-|-2x-2x-2x-223x-|
A|-1-|-0x-0x-0x-001x-|

Fill1:(Guitar1 & Guitar2)
d|---------------------|
a|---------------------|
F|---------------------|
C|---------------------|
G|---------------------|
D|-2~-4-5~-10~--9-10-12|
A|-0~-2-3~--8~--7- 8-10|

Verse:(Guitar1 & Guitar2)
d|---------------|---------------------------|
a|---------------|---------------------------|
F|---------------|---------------------------|
C|---------------|---------------------------|
G|---------------|---------------------------|
D|-2x-2x-2x-223x-|-7x-7x-7x-7-9-5x-5x-5x-5-7-|
A|-0x-0x-0x-001x-|-5x-5x-5x-5-7-3x-3x-3x-3-5-|

Chorus:(Guitar1 & Guitar2)
d|----------------|
a|----------------|
F|----------------|
C|----------------|
G|----------------|
D|-3-2-55554-2-3x-|
A|-1-0-33332-0-1x-|

Fill2:(Guitar1 & Guitar2)
d|---------------------|
a|---------------------|
F|---------------------|
C|---------------------|
G|---------------------|
D|-2~-4-5~-10~--9-10-12|
A|-0~-2-3~--8~--7- 8-10|

Verse:(Guitar1 & Guitar2)
d|---------------|---------------------------|
a|---------------|---------------------------|
F|---------------|---------------------------|
C|---------------|---------------------------|
G|---------------|---------------------------|
D|-2x-2x-2x-223x-|-7x-7x-7x-7-9-5x-5x-5x-5-7-|
A|-0x-0x-0x-001x-|-5x-5x-5x-5-7-3x-3x-3x-3-5-|

Chorus:(Guitar1 & Guitar2)
d|----------------|
a|----------------|
F|----------------|
C|----------------|
G|----------------|
D|-3-2-55554-2-3x-|
A|-1-0-33332-0-1x-|

Bridge1:
d|---------------------|
a|---------------------|
F|---------------------|
C|---------------------|	(Guitar2)
G|---------------------|
D|-2~-4-5~-10~--9-10-12|
A|-0~-2-3~--8~--7- 8-10|

d|-------------------------------------|
a|-17171717----------------------------|
F|-xxxxxxxx1616161614141414131314141616|
C|-14141414xxxxxxxxxxxxxxxxxxxxxxxxxxxx|	(Guitar1 tremolo pick)
G|---------1414141412121212111112121414|
D|-------------------------------------|
A|-------------------------------------|

Bridge2:(Guitar1 & Guitar2)
d|----|------|
a|----|------|
F|----|------|
C|----|------|
G|----|------|
D|-2~-|-3-2~-|
A|-0~-|-1-0~-|

Bridge3:
d|--------|
a|--------|
F|--------|
C|--------|	(Guitar2)
G|--------|
D|-3-2~-2x|
A|-1-0~-0x|

Chorus:(Guitar1 & Guitar2)
d|----------------|
a|----------------|
F|----------------|
C|----------------|
G|----------------|
D|-3-2-55554-2-3x-|
A|-1-0-33332-0-1x-|

Outro:(Guitar1 & Guitar2)
d|----|------|
a|----|------|
F|----|------|
C|----|------|
G|----|------|
D|-2~-|-3-2~-|
A|-0~-|-1-0~-|

KoRn - When Will This End - Take A Look In The Mirror

Intro1:(Guitar1 & Guitar2)
d|----------------------------|
a|----------------------------|
F|----------------------------|
C|----------------------------|
G|----------------------------|
D|---5-4-3--------[5\4]\[4\3]-|
A|-0-3-2-1--0-0-3-[3\2]\[2\1]-|

Intro2:(Guitar1 & Guitar2)
d|----------------------|
a|----------------------|
F|----------------------|
C|----------------------|
G|----------------------|
D|---5-4-3-/9---5--5.4.-|
A|-0-3-2-1-/7-0-3--3.2.-|

Fill1:(Guitar1 & Guitar2)
d|-----|
a|-----|
F|-----|
C|-----|
G|-----|
D|-----|
A|-00x-|

Pre-verse:(Guitar1 & Guitar2)
d|----------------------------|
a|----------------------------|
F|----------------------------|
C|----------------------------|
G|----------------------------|
D|----------------------------|
A|-0-3-2-1--0-0-3-[3\2]\[2\1]-|

Verse:(Guitar1 & Guitar2)
d|----------------------------|
a|----------------------------|
F|----------------------------|
C|----------------------------|
G|----------------------------|
D|---5-4-3--------[5\4]\[4\3]-|
A|-0-3-2-1--0-0-3-[3\2]\[2\1]-|

Chorus:
d|--------------------|--------------------|
a|--------------------|--------------------|
F|--------------------|--------------------|
C|--------------------|--------------------|	(Guitar2)
G|-----------9---9/10-|---------------9/10-|
D|-----7-6---7---7/ 8-|-----7-6-------7/ 8-|
A|-0-0-5-4-0---0------|-0-0-5-4-0----------|

d|-1111111111111111111111111111121212129999888888888888899996666-|
a|-xxxxxxxxxxxxxxxxxxxxxxxxxxxxxxxxxxxxxxxxxxxxxxxxxxxxxxxxxxxxx-|
F|- 8 8 8 8 8 8 8 8 8 8 8 8 8 8 9 9 9 96666555555555555566663333-|
C|---------------------------------------------------------------|(Guitar1)
G|---------------------------------------------------------------|
D|---------------------------------------------------------------|
A|---------------------------------------------------------------|

Pre-verse:(Guitar1 & Guitar2)
d|----------------------------|
a|----------------------------|
F|----------------------------|
C|----------------------------|
G|----------------------------|
D|----------------------------|
A|-0-3-2-1--0-0-3-[3\2]\[2\1]-|

Verse:(Guitar1 & Guitar2)
d|----------------------------|
a|----------------------------|
F|----------------------------|
C|----------------------------|
G|----------------------------|
D|---5-4-3--------[5\4]\[4\3]-|
A|-0-3-2-1--0-0-3-[3\2]\[2\1]-|

Chorus:
d|--------------------|--------------------|
a|--------------------|--------------------|
F|--------------------|--------------------|
C|--------------------|--------------------|	(Guitar2)
G|-----------9---9/10-|---------------9/10-|
D|-----7-6---7---7/ 8-|-----7-6-------7/ 8-|
A|-0-0-5-4-0---0------|-0-0-5-4-0----------|

d|-1111111111111111111111111111121212129999888888888888899996666-|
a|-xxxxxxxxxxxxxxxxxxxxxxxxxxxxxxxxxxxxxxxxxxxxxxxxxxxxxxxxxxxxx-|
F|- 8 8 8 8 8 8 8 8 8 8 8 8 8 8 9 9 9 96666555555555555566663333-|
C|---------------------------------------------------------------|(Guitar1)
G|---------------------------------------------------------------|
D|---------------------------------------------------------------|
A|---------------------------------------------------------------|

Bridge1:
d|-----------|----------------------------------|
a|----12~----|----------------------------------|
F|-12~---12~-|---9-------11-----12-----9--7-----|	(Guitar1)
C|-----------|-10@@@@@@12@@@@@13@@@@@@9@@@@@@@@@|
G|-----------|----------------------------------|
D|-----------|----------------------------------|
A|-----------|----------------------------------|

d|-----|
a|-----|
F|-----|
C|-----|	(Guitar2)
G|-----|
D|-----|
A|-00x-|

Bridge2:(Guitar1 & Guitar2)
d|----------------------|
a|----------------------|
F|----------------------|
C|----------------------|
G|----------------------|
D|---5-4-3-/9---5--5.4.-|
A|-0-3-2-1-/7-0-3--3.2.-|

Verse:(Guitar1 & Guitar2)
d|----------------------------|
a|----------------------------|
F|----------------------------|
C|----------------------------|
G|----------------------------|
D|---5-4-3--------[5\4]\[4\3]-|
A|-0-3-2-1--0-0-3-[3\2]\[2\1]-|

Chorus:
d|--------------------|--------------------|
a|--------------------|--------------------|
F|--------------------|--------------------|
C|--------------------|--------------------|	(Guitar2)
G|-----------9---9/10-|---------------9/10-|
D|-----7-6---7---7/ 8-|-----7-6-------7/ 8-|
A|-0-0-5-4-0---0------|-0-0-5-4-0----------|

d|-1111111111111111111111111111121212129999888888888888899996666-|
a|-xxxxxxxxxxxxxxxxxxxxxxxxxxxxxxxxxxxxxxxxxxxxxxxxxxxxxxxxxxxxx-|
F|- 8 8 8 8 8 8 8 8 8 8 8 8 8 8 9 9 9 96666555555555555566663333-|
C|---------------------------------------------------------------|(Guitar1)
G|---------------------------------------------------------------|
D|---------------------------------------------------------------|
A|---------------------------------------------------------------|

KoRn - One(live) - Take A Look In The Mirror

Intro1:(Guitar2)
d|---------|---------|---------|-----------|
a|---------|---------|---------|-----------|
F|---------|---------|---------|---------0~|
C|---4---0-|---4---0-|---4---0-|---4---0---|
G|-2---2---|---------|-2---2---|-----------|
D|---------|-3---3---|---------|-3---3-----|
A|---------|---------|---------|-----------|

d|---------|---------|---------|---------|
a|---------|---------|---------|---------|
F|---------|---------|---------|---------|
C|---4---0-|---4---0-|---4---0-|---------|
G|-2---2---|-0---0---|---------|---2---2-|
D|---------|---------|-3---3---|-0---2---|
A|---------|---------|---------|---------|

d|---------|---------|---------|-----------|
a|---------|---------|---------|-----------|
F|---------|---------|---------|---------0~|
C|---4---0-|---4---0-|---4---0-|---4---0---|
G|-2---2---|---------|-2---2---|-----------|
D|---------|-3---3---|---------|-3---3-----|
A|---------|---------|---------|-----------|

d|---------|---------|---------|-------------------|
a|---------|---------|---------|-------------------|
F|---------|---------|---------|-------------------|
C|---4---0-|---4---0-|---4---0-|-------------------|
G|-2---2---|-0---0---|---------|---2---2---2-2/4-2-|
D|---------|---------|-3---3---|-0---2---0---------|
A|---------|---------|---------|-------------------|

Solo:(Guitar1)
d|------------------------------------------------------------------|
a|---------------3p2---3p2----3-3p2---7\5---5\4---4\2---2p0---------|
F|-----2-4b6b4-------4-----2--------4-----7-----------4-----0h2-2/4-|
C|-2h4--------------------------------------------------------------|
G|------------------------------------------------------------------|
D|------------------------------------------------------------------|
A|------------------------------------------------------------------|
 
d|---------------------------------|
a|-----2h3-2-------2--3p2----------|
F|-2/4--------2/4----------2---2/4-|
C|---------------------------------|
G|---------------------------------|
D|---------------------------------|
A|---------------------------------|

Verse:
d|---------------------|---------------------|
a|---------------------|---------------------|
F|---------------------|---------------------|	(Guitar2)
C|----4-----0--0--4----|----4-----0--4--4--0-|
G|-2-----2-----------0-|---------------------|
D|---------------------|-3-----3-------------|
A|---------------------|---------------------|
 
d|---------------------|---------------------|
a|---------------------|---------------------|
F|---------------------|---------------------|	(Guitar2)
C|----4-----0--0--4----|----4-----0--4--4--0-|
G|-2-----2-----------0-|---------------------|
D|---------------------|-3-----3-------------|
A|---------------------|---------------------|

d|---------------------|---------------------|
a|---------------------|---------------------|
F|---------------------|-------------------0-|	(Guitar2)
C|----4-----0--0--4--0-|----4-----0--4--4----| 
G|-2-----2-------------|-0-----0-------------|
D|---------------------|---------------------|
A|---------------------|---------------------|

d|---------------------|------------|
a|---------------------|------------|
F|---------------------|------------|	(Guitar2)
C|----4-----0--0--4--0-|------------|
G|---------------------|----2-----2-|
D|-3-----3-------------|-0-----2----|
A|---------------------|------------|

d|-----------------------------------------------|
a|-0-0-0-0-0-0-0-0-0-0-0-0-0-0-0-0-0-0-0-0-0-0-0-|
F|-4-4-4-4-4-2-4-4-4-6-6-2-4-4-4-6-6-6-7-7-7-7-6-|	(Guitar1)
C|-4-4-4-4-4-2-4-4-4-6-6-2-4-4-4-6-6-6-7-7-7-7-6-|
G|-----------------------------------------------|
D|-----------------------------------------------|
A|-----------------------------------------------|

Chorus:(Guitar1 & Guitar2)
d|----------------------------------------------------|
a|----------------------------------------------------|
F|----------------------------------------------------|
C|---2-4-2-------2-4-6-4-2-4-7--------6------5------4-|
G|-5-0-2-0-5-4-5-0-2-4-2-0-2-5-5-5555-4-5555-3-5555-2-|
D|-3-------3-2-3---------------3-3333---3333---3333---|
A|----------------------------------------------------|

Verse:
d|---------------------|---------------------|
a|---------------------|---------------------|
F|---------------------|---------------------|	(Guitar2)
C|----4-----0--0--4----|----4-----0--4--4--0-|
G|-2-----2-----------0-|---------------------|
D|---------------------|-3-----3-------------|
A|---------------------|---------------------|
 
d|---------------------|---------------------|
a|---------------------|---------------------|
F|---------------------|---------------------|	(Guitar2)
C|----4-----0--0--4----|----4-----0--4--4--0-|
G|-2-----2-----------0-|---------------------|
D|---------------------|-3-----3-------------|
A|---------------------|---------------------|

d|---------------------|---------------------|
a|---------------------|---------------------|
F|---------------------|-------------------0-|	(Guitar2)
C|----4-----0--0--4--0-|----4-----0--4--4----| 
G|-2-----2-------------|-0-----0-------------|
D|---------------------|---------------------|
A|---------------------|---------------------|

d|---------------------|------------|
a|---------------------|------------|
F|---------------------|------------|	(Guitar2)
C|----4-----0--0--4--0-|------------|
G|---------------------|----2-----2-|
D|-3-----3-------------|-0-----2----|
A|---------------------|------------|

d|-----------------------------------------------|
a|-----------------------------------------------|
F|-4-4-4-4-4-2-4-4-4-6-6-2-4-4-4-6-6-6-8-8-8-8-6-|	(Guitar1)
C|-4-4-4-4-4-2-4-4-4-6-6-2-4-4-4-6-6-6-8-8-8-8-6-|
G|-2-2-2-2-2-0-2-2-2-4-4-0-2-2-2-4-4-4-6-6-6-6-4-|
D|-----------------------------------------------|
A|-----------------------------------------------|

Chorus:(Guitar1 & Guitar2)
d|----------------------------------------------------|
a|----------------------------------------------------|
F|----------------------------------------------------|
C|---2-4-2-------2-4-6-4-2-4-7--------6------5------4-|
G|-5-0-2-0-5-4-5-0-2-4-2-0-2-5-5-5555-4-5555-3-5555-2-|
D|-3-------3-2-3---------------3-3333---3333---3333---|
A|----------------------------------------------------|

Solo:(Guitar1)
d|-------------------------10-8-7-8p7---17p14---14-17-17-15-14-15p14-------|
a|-10p7---7-10-10-8-7-8p7-------------8-------15---------------------15-19-|
F|------7-----------------7------------------------------------------------|
C|-------------------------------------------------------------------------|
G|-------------------------------------------------------------------------|
D|-------------------------------------------------------------------------|
A|-------------------------------------------------------------------------|

d|-15-17-19p17p15-19p17p15-19p17p15-19p17p15-14-15----14----|
a|-------------------------------------------------17----15-|
F|----------------------------------------------------------|
C|----------------------------------------------------------|
G|----------------------------------------------------------|
D|----------------------------------------------------------|
A|----------------------------------------------------------|

Chorus:(Guitar1 & Guitar2)
d|-----------------------------|
a|-----------------------------|
F|-----------------------------|
C|---2-4-2-------2-4-6-4-2-4-7-|
G|-5-0-2-0-5-4-5-0-2-4-2-0-2-5-|
D|-3-------3-2-3---------------|
A|-----------------------------|

Bridge1:(Guitar1 & Guitar2)
d|-----------------------------|---------------|
a|-----------------------------|---------------|
F|-----------------------------|---------------|
C|---2-4-2-------2-4-6-4-2-4-7-|---2-4-2-----6-|
G|-5-0-2-0-5-4-5-0-2-4-2-0-2-5-|-5-0-2-0-5-4-4-|
D|-3-------3-2-3---------------|-3-------3-2---|
A|-----------------------------|---------------|

Bridge2:
d|-------------------------------|---------------------------------|
a|-------------------------------|---------------------------------|
F|-------------------------------|---------------------------------|
C|-2-0-2-0---4-4---4---5-5---5---|-2-0-2-0-----4-4---4---5-5---5---|(Guitar1)
G|-3-2-3-0-2-2-2---2---3-3---3---|-3-2-3-0-2---2-2---2---3-3---3---|
D|---------3-----2---2-----3---3-|-----------3-----2---2-----3---3-|
A|-------------------------------|---------------------------------|

d|-------------------------------------|------------------------------------|
a|-------------------------------------|------------------------------------|
F|-------------------------------------|------------------------------------|
C|-555-7-5------44-----4---5-555---5---|-555-7-5-----44-----4---5-555---5---|
G|-777-7-7------22-----2---3-333---3---|-777-7-7-----22-----2---3-333---3---|
D|---------2222----2-2---2-------3---3-|---------2222---2-2---2-------3---3-|
A|-------------------------------------|------------------------------------|

d|-----------------|-----------------|
a|-----------------|-----------------|
F|-----------------|-----------------|
C|-2-0-2-5-5-4---5-|-2-0-2-0---4---5-|	(Guitar2)
G|-3-2-3-6-6-2---3-|-3-2-3-0-2-2---3-|
D|-----------------|---------3-------|
A|-----------------|-----------------|

d|--------------------------------|--------------------------------|
a|--------------------------------|--------------------------------|
F|--------------------------------|--------------------------------|
C|-4--------4-----4---5-555---5---|-4--------4-----4---5-555---5---|(Guitar2)
G|-2--------2-----2---3-333---3---|-2--------2-----2---3-333---3---|
D|-----2222---2-2---2-------3---3-|-----2222---2-2---2-------3---3-|
A|--------------------------------|--------------------------------|

Bridge3:(Guitar1 & Guitar2)
d|-----------------------------------------------------------------|
a|-----------------------------------------------------------------|
F|-----------------------------------------------------------------|
C|-----------------------------------------------------------------|
G|-----------------------------------------------------------------|
D|------2x------2x------2x------2x------2~------2x------2~------23-|
A|-0000-0x-0000-0x-0000-0x-0000-0x-0000-0~-0000-0x-0000-0~-0000-00-|

Bridge4:(Guitar1 & Guitar2)
d|-----------------------------------------------------------------|
a|-----------------------------------------------------------------|
F|-----------------------------------------------------------------|
C|-----------------------------------------------------------------|
G|-----------------------------------------------------------------|
D|------2x------2x------2x------23------2x------2x------2x------23-|
A|-0000-0x-0000-0x-0000-0x-0000-00-0000-0x-0000-0x-0000-0x-0000-00-|

Bridge5:
d|-----------------------------------------------------------------|
a|-----------------------------------------------------------------|
F|-----------------------------------------------------------------|
C|-----------------------------------------------------------------|(Guitar1)
G|-----------------------------------------------------------------|
D|------2~------23------2~------23------2~------23------2~------23-|
A|-0000-0~-0000-00-0000-0~-0000-00-0000-0~-0000-00-0000-0~-0000-00-|

d|-----------------------------------------------------------------|
A|-----------------------------------------------------------------|
F|-----------------------------------------------------------------|
C|-----------------------------------------------------------------|(Guitar2)
G|-----------------------------------------------------------------|
D|------7------7-8------5------5-8------7------7-8------5------5---|
A|-0000---0000-----0000---0000-----0000---0000-----0000---0000---7-|

Bridge6:(Guitar1 & Guitar2)
d|-----------------------------------------------------------------|
a|-----------------------------------------------------------------|
F|-----------------------------------------------------------------|
C|-----------------------------------------------------------------|
G|-----------------------------------------------------------------|
D|------2x------2x------2x------23------2x------2x------2x------23-|
A|-0000-0x-0000-0x-0000-0x-0000-00-0000-0x-0000-0x-0000-0x-0000-00-|

Outro1:(Guitar1 & Guitar2)
d|-------------------------------------|
a|-------------------------------------|
F|-------------------------------------|
C|-------------------------------------|
G|-------------------------------------|
D|------2------2---3------2------2---3-|
A|-0000-0-0000-0-0-0-0000-0-0000-0-0-0-|

Outro1:(Guitar1 & Guitar2)
d|---------------------------|
a|---------------------------|
F|---------------------------|
C|---------------------------|
G|---------------------------|
D|---------------------------|
A|-0000---0000---0000---0000-|
comments
print report bad tab
I want to post or [tab]
guest
You may want to rate the tab now too:
select rating
Please do not post tabs as comments. Select "correction" instead!