Oops, an error
Loading. Please wait.

Take A Look In The Mirror Tab

by Korn
ver2
ver2
More versions @911Tabs.com
3,204 views 3 this week
3 commentsread comments
1 2 3 4 5
accurate
x 9
add to favorites launch autoscroll
font size
0
reset
Autoscroll
+/-
esc
set tempo
stop
Contributor
WARNING: You are trying to view
                                    content from Ultimate-Guitar.com
                                    in an unauthorized application,
                                    which is prohibited.

                                    Please use an official Ultimate
                                    Guitar Tabs application for iPhone,
                                    iPad or Android to access legitimate
                                    chords, guitar, bass, and drum tabs
                                    from Ultimate-Guitar.com database.

                                    Type "ultimate guitar tabs" in Apple
                                    App Store's or Android Market's
                                    search to find the application.
KoRn - Take A Look In The Mirror (2003)
Tabbed by Elvisz (elvisz@kornkids.com)/Travis Lausch

Elvisz:
-------
The sickest band in the world is back!!! With there heaviest album ever!!!
It took me 4 days to get this much out of the songs... I'll hope everyone
will be satisfied... I'm not saying that this tab is 100%, but I think I got
a lot of parts right, so if I made mistakes go easy on me, OK?!
I hope this tab helps everyone to play the songs...
Any comments, questions and corrections please mail me!!!
E-mails from KoRn fans are welcomed too...

Travis:
-------
Hi, I'm using Elvisz's tabs as a template to create a more correct tab book. Although
some of his tabs are correct, a large portion of them were wrong. I plan to correct
that problem, as well as arrange all parts for a 6 string guitar tuned to a tuning
shown on several occasions in Guitar World: (low to high) A D G F A D. This tuning
is established by tuning your low pitched (wound) strings down a perfect 5th, 
and your high pitched strings (unwound) down one step. you can play almost any korn 
riff in this tuning, and it's easy enough to change a chord voicing. 
 
Tracks:
01) Right Now 
02) Break Some Off 
03) Counting On Me 
04) Here It Comes Again 
05) Deep Inside 
06) Did My Time 
07) Everything I've Known 
08) Play 
09) Alive 
10) Let's Do This Now 
11) I'm Done 
12) Y'all Want A Single 
13) When Will This End 
bonus) One(live)


1) KoRn - Right Now - Take A Look In The Mirror


Intro:(Guitar2)
d|---------------------------------------------|
a|---------------------------------------------|
F|---------------------------------------------|
G|---------------------------------------------|
D|-----------/10----------/9----------/8-------|
A|-0-0-10x-0-----00-10x-0----00-10x-0----00-10x|

Pre-verse:(Guitar1 & Guitar2)
d|---------------------------------------------|
a|---------------------------------------------|
F|---------------------------------------------|
G|---------------------------------------------|
D|-----------/10----------/9----------/8-------|
A|-0-0-10x-0-----00-10x-0----00-10x-0----00-10x|

d|---------------------------------------------|
a|---------------------------------------------|
F|---------------------------------------------|
G|---------------------------------------------|
D|-----------/10----------/9----------/8-------|
A|0000-10x-0-----00-10x-0----00-10x-0----00-10x|

Verse:(Guitar1 & Guitar2)
d|----------------|
a|----------------|
F|----------------|
G|----------------|
D|----------------|
A|-0-0-10x-000010x|

Chorus:
d|-----------------------------------------------|
a|-----------------------------------------------|
F|------------7------------6------------5--------| Gtr. 2
G|------------5------------4------------3--------|
D|-----------------------------------------------|
A|-0-0-10x-0-----00-10x-0-----00-10x-0-----00-10x|

Fill1:(Guitar1 & Guitar2)
d|--------|
a|--------|
F|--------|
G|--------|
D|--------|
A|-0-0-10x|

Verse:(Guitar1 & Guitar2)
d|----------------|
a|----------------|
F|----------------|
G|----------------|
D|----------------|
A|-0-0-10x-000010x|

Chorus:
d|-----------------------------------------------|
a|-----------------------------------------------|
F|------------7------------6------------5--------| Gtr. 2
G|------------5------------4------------3--------|
D|-----------------------------------------------|
A|-0-0-10x-0-----00-10x-0-----00-10x-0-----00-10x|

Bridge1:
d|-------|
a|-------|
F|-------| Gtr. 2
G|-------|
D|-------|
A|-0~~~~~|

d|---------|
a|---------|
F|---------| Gtr. 1 (w/effect)
G|---------|
D|---------|
A|-4-4-4---|


Bridge2:(Guitar1 & Guitar2)
d|----------------|
a|----------------|
F|----------------|
G|----------------|
D|-6-6-76~~666676~|
A|-4-4-54~~444454~|

Bridge3:(Guitar2)
d|-----------------------------------------------|
a|-----------------------------------------------|
F|------------7------------6------------5--------| Gtr. 2
G|------------5------------4------------3--------|
D|-----------------------------------------------|
A|-0-0-10x-0-----00-10x-0-----00-10x-0-----00-10x|

Fill2:(Guitar1 & Guitar2)      (Guitar2 only)
		d|---------|-------------------------------------|
		a|---------|-------------------------------------|
		F|---------|-------------------------------------|
		G|---------|-------------------------------------|
		D|---------|---/10----------/9----------/8-------|
		A|0000-10x-|-0-----00-10x-0----00-10x-0----00-10x|

Chorus:
d|-----------------------------------------------|
a|-----------------------------------------------|
F|------------7------------6------------5--------| Gtr. 2
G|------------5------------4------------3--------|
D|-----------------------------------------------|
A|-0-0-10x-0-----00-10x-0-----00-10x-0-----00-10x|

Outro1:(Guitar1 & Guitar2)
d|--------|
a|--------|
F|--------|
G|--------|
D|-222231x|
A|-000010x|

d|---------|
a|---------|
F|---------|
G|---------|
D|-222232~~|
A|-000010~~|




2) KoRn - Break Some Off - Take A Look In The Mirror


Intro:(Only Guitar1)
d|---------------------|
a|---------------------|
F|---------------------|
G|---------------------|
D|---------------------|
A|-1111-1111-1111-1111-|

Pre-verse1:(Guitar1 & Guitar2)
                     x3
d|--------------------|------------------|
a|--------------------|------------------|
F|o------------------o|------------------|
G|o------------------o|------------------|
D|--------------------|------------------|
A|-0h3-3-3-33-3-4-4-5-|-3-3-3-33-3-2-2-1-|

Pre-verse1:
                     x3
d|--------------------|------------------|
a|--------------------|------------------|
F|o------------------o|------------------| Gtr. 1
G|o------------------o|------------------|
D|--------------------|------------------|
A|-0h3-3-3-33-3-4-4-5-|-3-3-3-33-3-2-2-1-|

Verse:
d|-15-----14---12-----12-----|
a|---17----------15------14--|
F|-----16----------14--------| Gtr. 1
G|---------------------------|
D|---------------------------|
A|---------------------------|

d|---------------------------|
a|---------------------------|
F|-16~~~~~~~~~\15~~~~\7~~~~~~| Gtr. 2
G|---------------------------|
D|---------------------------|
A|---------------------------|

Chorus:
d|------------------|
a|------------------|
F|------------------| Gtr. 1
G|------------------|
D|-5-5-5-55-5-4-4-3-|
A|-3-3-3-33-3-2-2-1-|

d|----------------------------|
a|----------------------------|
F|-77777777888888111111118888-| Gtr. 2
G|----------------------------|
D|----------------------------|
A|----------------------------|

Verse:
d|-15-----14---12-----12-----|
a|---17----------15------14--|
F|-----16----------14--------| Gtr. 1
G|---------------------------|
D|---------------------------|
A|---------------------------|

d|---------------------------|
a|---------------------------|
F|-16~~~~~~~~~\15~~~~\7~~~~~~| Gtr. 2
G|---------------------------|
D|---------------------------|
A|---------------------------|

Chorus:
d|------------------|
a|------------------|
F|------------------| Gtr. 1
G|------------------|
D|-5-5-5-55-5-4-4-3-|
A|-3-3-3-33-3-2-2-1-|

d|----------------------------|
a|----------------------------|
F|-77777777888888111111118888-| Gtr 2.
G|----------------------------|
D|----------------------------|
A|----------------------------|

Bridge1:(Guitar2)
d|------------|--------------------|
a|------------|--------------------|
F|------------|--------------------|
G|------------|--------------------|
D|------------|--------------------|
A|-320-0-1~~~-|-0000---0000---0000-|

Bridge2:(Guitar1 & Guitar2)
d|------------|----------|------------------------|
a|------------|----------|------------------------|
F|------------|----------|------------------------|
G|------------|----------|------------------------|
D| 5-4-2--3---|-5-4-2-3--|-2222--2222--2222--2222-|
A|-3-2-0--1---|-3-2-0-1--|-0000--0000--0000--0000-|

Fill1:(Guitar1 & Guitar2)
d|----|
a|----|
F|----|
G|----|
D|-3~-|
A|-1~-|

Bridge3:(Guitar1 & Guitar2)
d|------------|----------|------------------------|
a|------------|----------|------------------------|
F|------------|----------|------------------------|
G|------------|----------|------------------------|
D| 5-4-2--3---|-5-4-2-3--|-2222--2222--2222--2222-|
A|-3-2-0--1---|-3-2-0-1--|-0000--0000--0000--0000-|

Fill2:(Guitar1 & Guitar2)
d|----|
a|----|
F|----|
G|----|
D|-3~-|
A|-1~-|

Chorus:
d|------------------|
a|------------------|
F|------------------| Gtr. 1
G|------------------|
D|-5-5-5-55-5-4-4-3-|
A|-3-3-3-33-3-2-2-1-|

d|----------------------------|
a|----------------------------|
F|-77777777888888111111118888-| Gtr. 2
G|----------------------------|
D|----------------------------|
A|----------------------------|

Outro:
d|------------------|------------------|
a|------------------|------------------|
F|------------------|------------------| Gtr. 1
G|------------------|------------------|
D|-5-5-5-55-5-6-6-7-|-5-5-5-55-5-4-4-3-|
A|-3-3-3-33-3-4-4-5-|-3-3-3-33-3-2-2-1-|

d|----------------------------|
a|----------------------------|
F|-77777777888888111111118888-| Gtr. 2
G|----------------------------|
D|----------------------------|
A|----------------------------|



3) KoRn - Counting On Me - Take A Look In The Mirror

Tabbed by Elvisz (elvisz@kornkids.com)

Intro:(Guitar1)
d|------------------------|---------------------|
a|------------------------|---------------------|
F|------------------------|---------------------|
G|------------------------|---------------------|
D|-1-XX-1-XX-1-XX-1x-1-3^-|-1-XX-1-XX-1-XX-1-XX-|
A|------------------------|---------------------|

Pre-verse:(Guitar1 & Guitar2)
d|------------------------|
a|------------------------|
F|------------------------|
G|---88---88---88---8-----|
D|---------------------10-|
A|-6----6----6----6--6-8^-|

Verse:
d|------------------------|
a|------------------------|
F|------------------------| Gtr. 1
G|------------------------|
D|-1-XX-1-XX-1-XX-1x-1-3^-|
A|------------------------|

d|---------------------|
a|---------------------|
F|-4^---b4-4^--2--0----| Gtr. 2
G|------------------8~-|
D|---------------------|
A|---------------------|

Pre-Chorus:(Guitar1 & Guitar2)
d|------------------------|
a|------------------------|
F|------------------------|
G|---88---88---88---8-----|
D|---------------------10-|
A|-6----6----6----6--6-8^-|

Chorus:(Guitar1 & Guitar2)
d|---------------------------|
a|---------------------------|
F|---------------------------|
G|-3~~~5~-------6~~~8~----4~~|
D|-1~~~3~4~~~~~~4~~~6~6~~~2~~|
A|-------2~~~~~~------4~~~---|

Verse:
d|------------------------|
a|------------------------|
F|------------------------| Gtr. 1
G|------------------------|
D|-1-XX-1-XX-1-XX-1x-1-3^-|
A|------------------------|

d|---------------------|
a|---------------------|
F|-4^---b4-4^--2--0----| Gtr. 2
G|------------------8~-|
D|---------------------|
A|---------------------|

Pre-Chorus:(Guitar1 & Guitar2)
d|------------------------|
a|------------------------|
F|------------------------|
G|---88---88---88---8-----|
D|---------------------10-|
A|-6----6----6----6--6-8^-|

Chorus:(Guitar1 & Guitar2)
d|---------------------------|
a|---------------------------|
F|---------------------------|
G|-3~~~5~-------6~~~8~----4~~|
D|-1~~~3~4~~~~~~4~~~6~6~~~2~~|
A|-------2~~~~~~------4~~~---|

Bridge1:
d|-------------4446-|-------------4443-|
a|-------------2224-|-------------2221-|
F|-------------1113-|-------------1110-| Gtr. 1
G|------------------|------------------| 
D|------------------|------------------|
A|-1-----1--1-------|-1-----1--1-------|

d|---1h3-------1h3--|---1h3-------1h3--|
a|------------------|------------------|
F|------------------|------------------| Gtr. 2
G|------------------|------------------|
D|------------------|------------------|
A|-1----1-1--1------|-1----1-1--1------|

Bridge2:
d|-----------------------------|
a|-----------------------------|
F|-----------------------------|
G|-3~~~2~~~33-333433-33-333433-|
D|-1~~~0~~~33-333433-33-333433-|
A|---------11-111211-11-111211-|

d|-----------------------------|
a|-----------------------------|
F|-13~~12~~--------------------|
G|-11~~10~~-----3--------3-----|
D|-----------------------------|
A|---------11-11-111-11-1-1111-|


Pre-Chorus:(Guitar1 & Guitar2)
d|------------------------|
a|------------------------|
F|------------------------|
G|---88---88---88---8-----|
D|---------------------10-|
A|-6----6----6----6--6-8^-|

Chorus:(Guitar1 & Guitar2)
d|---------------------------|
a|---------------------------|
F|---------------------------|
G|-3~~~5~-------6~~~8~----4~~|
D|-1~~~3~4~~~~~~4~~~6~6~~~2~~|
A|-------2~~~~~~------4~~~---|

Outro:(Guitar2)
d|16--16--15--15--16--16--15--------|
a|18--18--16--16--18--18--16--16----|
F|--17--17--17--17--17--17--17--17--|
G|----------------------------------|
D|----------------------------------|
A|----------------------------------|




4) KoRn - Here It Comes Again - Take A Look In The Mirror

Tabbed by Elvisz (elvisz@kornkids.com)

Intro:(Guitar1 this is little hard,the chorus part helps to figure it out)
d|----------------------------------|
a|----------------------------------|
F|----4---4h5--2--5-4----4---4h5--2-|
G|-2----2--------------2---2--------|
D|----------------------------------|
A|----------------------------------|

Pre-verse:(Guitar1 & Guitar2)
d|--------------------------------|--------------------------------|
a|--------------------------------|--------------------------------|
F|--------------------------------|--------------------------------|
G|---9--9/10\7/10-----9---99/10\7-|---9--9/10\7/10-x---9---99/10\7-|
D|---7--7/ 8\5/ 8\7---7---77/ 8\5-|---7--7/ 8\5/ 8-x---7---77/ 8\5-|
A|-0--0-----------0-0---0---------|-0--0-----------x-0---0---------|

Verse:(Guitar1 & Guitar2)
d|---------------------------------------------------------|
a|---------------------------------------------------------|
F|---------------------------------------------------------|
G|---------------------------------------------------------|
D|-----------555-------------------------333---------------|
A|-6666-6666-----3333-3333-333-5555-5555-----3333-3333-333-|

Pre-chorus:
d|-------------------|
a|-------------------|
F|-------------------|
G|----7~~------5~~---|
D|-8~~5~~5~~7~~3~~5~~|
A|-6~~---3~~5~~---3~~|

Chorus:
d|--------------------------------|--------------------------------|
a|--------------------------------|--------------------------------|
F|--------------------------------|--------------------------------|
G|---9--9/10\7/10-----9---99/10\7-|---9--9/10\7/10-x---9---99/10\7-|
D|---7--7/ 8\5/ 8\7---7---77/ 8\5-|---7--7/ 8\5/ 8-x---7---77/ 8\5-|
A|-0--0-----------0-0---0---------|-0--0-----------x-0---0---------|


Verse:(Guitar1 & Guitar2)
d|---------------------------------------------------------|
a|---------------------------------------------------------|
F|---------------------------------------------------------|
G|---------------------------------------------------------|
D|-----------555-------------------------333---------------|
A|-6666-6666-----3333-3333-333-5555-5555-----3333-3333-333-|

Pre-chorus:
d|-------------------|
a|-------------------|
F|-------------------|
C|-------------------|
G|----7~~------5~~---|
D|-8~~5~~5~~7~~3~~5~~|
A|-6~~---3~~5~~---3~~|

Chorus:
d|--------------------------------|--------------------------------|
a|--------------------------------|--------------------------------|
F|--------------------------------|--------------------------------|
G|---9--9/10\7/10-----9---99/10\7-|---9--9/10\7/10-x---9---99/10\7-|
D|---7--7/ 8\5/ 8\7---7---77/ 8\5-|---7--7/ 8\5/ 8-x---7---77/ 8\5-|
A|-0--0-----------0-0---0---------|-0--0-----------x-0---0---------|


Bridge1:
d|-------------------------------------|
a|-------------------------------------|
F|-------------------------------------| Gtr. 1
G|-------------------------------------|
D|-0000-000-0000-111-0000-000-0000-111-|
A|-------------------------------------|
   .... ... .... ... .... ... .... ...     .mute this notes

d|-10~~~|
a|------|
F|------| Gtr. 1
G|------|
D|------|
A|------|

Bridge2:(Guitar1 & Guitar2)
d|-----------------------------------|--------------------------------|
a|-----------------------------------|--------------------------------|
F|-----------------------------------|--------------------------------|
G|------------------------------888x-|--------------------------------|
D|------------------------------xxxx-|----------------------------555-|
A|-555565x-555565x-555565x-5555-666x-|-555565x-555565x-555565x-555333-|

Pre-chorus:
d|-------------------|
a|-------------------|
F|-------------------|
G|----7~~------5~~---|
D|-8~~5~~5~~7~~3~~5~~|
A|-6~~---3~~5~~---3~~|

Chorus:
d|--------------------------------|--------------------------------|
a|--------------------------------|--------------------------------|
F|--------------------------------|--------------------------------|
G|---9--9/10\7/10-----9---99/10\7-|---9--9/10\7/10-x---9---99/10\7-|
D|---7--7/ 8\5/ 8\7---7---77/ 8\5-|---7--7/ 8\5/ 8-x---7---77/ 8\5-|
A|-0--0-----------0-0---0---------|-0--0-----------x-0---0---------|





5) KoRn - Deep Inside - Take A Look In The Mirror

Tabbed by Elvisz (elvisz@kornkids.com)

Intro:(Guitar1 & Guitar2)
d|---------------------------------------------------------------------------|
a|---------------------------------------------------------------------------|
F|---11111111--12121212---11111111-8------11111111--12121212---11111111------|
G|---9-9-9-9---10101010---9-9-9-9--6-77---9-9-9-9---10101010---9-9-9-9-------|
D|-----------------------------------55--------------------------------5-4-3-|
A|-0---------0----------0---------------0---------0----------0---------3-2-1-|

Verse:(Guitar1 & Guitar2)
d|---------------------------|
a|---------------------------|
F|---------------------------|
G|---------------------------|
D|-2~--22-2~--22-2~--22-3~4~-|
A|-0~--00-0~--00-0~--00-1~2~-|

Fill1:(Guitar1 & Guitar2)
d|-------|
a|-------|
F|-------|
G|-------|
D|-5-4-3-|
A|-3-2-1-|

Chorus:(Guitar1 & Guitar2)
d|---------------------------------------------------------------------------|
a|---------------------------------------------------------------------------|
F|---11111111--12121212---11111111-8------11111111--12121212---11111111------|
G|---9-9-9-9---10101010---9-9-9-9--6-77---9-9-9-9---10101010---9-9-9-9-------|
D|-----------------------------------55--------------------------------5-4-3-|
A|-0---------0----------0---------------0---------0----------0---------3-2-1-|

Verse:(Guitar1 & Guitar2)
d|---------------------------|
a|---------------------------|
F|---------------------------|
G|---------------------------|
D|-2~--22-2~--22-2~--22-3~4~-|
A|-0~--00-0~--00-0~--00-1~2~-|

Fill2:(Guitar1 & Guitar2)
d|-------|
a|-------|
F|-------|
G|-------|
D|-5-4-3-|
A|-3-2-1-|

Chorus:(Guitar1 & Guitar2)
d|---------------------------------------------------------------------------|
a|---------------------------------------------------------------------------|
F|---11111111--12121212---11111111-8------11111111--12121212---11111111------|
G|---9-9-9-9---10101010---9-9-9-9--6-77---9-9-9-9---10101010---9-9-9-9-------|
D|-----------------------------------55--------------------------------5-4-3-|
A|-0---------0----------0---------------0---------0----------0---------3-2-1-|

Bridge1: (still not sure)
d|---------------|-------------------|
a|---------------|-------------------|
F|---------------|-------------------|
G|10~--/13~10~-10|10~--/13~10~-10/11\|
D|---------------|-------------------|
A|---------------|-------------------|

d|------------|
a|------------|
F|-1----4-----| Gtr. 2
G|------------|
D|------------|
A|------------|


Fill3:(Guitar1)
d|----|
a|----|
F|----|
C|-7~-|
G|-8~-|
D|----|
A|----|

Bridge2:
d|---------------------------------------------------------------------------|
a|---------------------------------------------------------------------------|
F|---11111111--12121212---11111111-8------11111111--12121212---11111111------|
G|---9-9-9-9---10101010---9-9-9-9--6-77---9-9-9-9---10101010---9-9-9-9-------|
D|-----------------------------------55--------------------------------5-4-3-|
A|-0---------0----------0---------------0---------0----------0---------3-2-1-|

Chorus:(Guitar1 & Guitar2)
d|---------------------------------------------------------------------------|
a|---------------------------------------------------------------------------|
F|---11111111--12121212---11111111-8------11111111--12121212---11111111------|
G|---9-9-9-9---10101010---9-9-9-9--6-77---9-9-9-9---10101010---9-9-9-9-------|
D|-----------------------------------55--------------------------------5-4-3-|
A|-0---------0----------0---------------0---------0----------0---------3-2-1-|

Outro:(Guitar1 & Guitar2)
d|-----------------------|
a|-----------------------|
F|-----------------------|
G|-9~---10~---9~---5-4-3-|
D|-9~---10~---9~---5-4-3-|
A|-7~-0--8~-0-7~-0-3-2-1-|

Fill4:(Guitar1 & Guitar2)
d|-----------------|
a|-----------------|
F|-----------------|
G|-9~---10~---9~---|
D|-9~---10~---9~---|
A|-7~-0--8~-0-7~-0~|




6) KoRn - Did My Time - Take A Look In The Mirror

- This song has been tabbed enough already, I'm sure someone else has it right.


7) KoRn - Everything I've Known - Take A Look In The Mirror

Tabbed by Elvisz (elvisz@kornkids.com)

Intro:(Guitar2)
d|--------------------------------------|
a|--------------------------------------|
F|--------------------------------0h2---|
G|-----7-8~------7-5~-------7-8-5-----5-|
D|--------------------------------------|
A|-3~~~-----3~~~-------3-3~-------------|

Pre-verse:(Guitar1 & Guitar2)
d|--------------------|
a|--------------------|
F|--------------------|
G|-5~~\(5)~XX-5-5-6-3-|
D|-5~~\(5)~XX-5-5-6-3-|
A|-3~~\(3)~XX-3-3-4-1-|

Verse:
d|--------------------------------------|
a|--------------------------------------|
F|--------------------------------0h2---| Gtr. 1
G|-----7-8~------7-5~-------7-8-5-----5-|
D|--------------------------------------|
A|-3~~~-----3~~~-------3-3~-------------|

d|-----------------------------------|--------------------------------|
a|-----15~~15~~--------13~~13-11~10~-|-----15~~15~~--------13~~11~10~-|
F|-12~~--------11~~10~~--------------|-12~~--------11~~10~~-----------| Gtr. 2
G|-----------------------------------|--------------------------------|
D|-----------------------------------|--------------------------------|
A|-----------------------------------|--------------------------------|

Pre-chorus:
d|--------------|
a|--------------|
F|--------------| Gtr. 1
G|-5~~7~~9~~10~-|
D|-5~~7~~9~~10~-|
A|-3~~5~~7~~8~~-|

d|---------------------------------------------------|
a|----15------------15------------15----------15--15-|
F|-14----141514--14----141514--14----141514-14--14---| Gtr. 1
G|---------------------------------------------------|
D|---------------------------------------------------|
A|---------------------------------------------------|

Chorus:(Guitar1 & Guitar2)
d|--------------------|
a|--------------------|
F|--------------------|
G|-5~~\(5)~XX-5-5-6-3-|
D|-5~~\(5)~XX-5-5-6-3-|
A|-3~~\(3)~XX-3-3-4-1-|

Verse:
d|--------------------------------------|
a|--------------------------------------|
F|--------------------------------0h2---| Gtr. 1
G|-----7-8~------7-5~-------7-8-5-----5-|
D|--------------------------------------|
A|-3~~~-----3~~~-------3-3~-------------|

d|-----------------------------------|--------------------------------|
a|-----15~~15~~--------13~~13-11~10~-|-----15~~15~~--------13~~11~10~-|
F|-12~~--------11~~10~~--------------|-12~~--------11~~10~~-----------| Gtr. 2
G|-----------------------------------|--------------------------------|
D|-----------------------------------|--------------------------------|
A|-----------------------------------|--------------------------------|

Pre-chorus:
d|--------------|
a|--------------|
F|--------------| Gtr. 1
G|-5~~7~~9~~10~-|
D|-5~~7~~9~~10~-|
A|-3~~5~~7~~8~~-|

d|---------------------------------------------------|
a|----15------------15------------15----------15--15-|
F|-14----141514--14----141514--14----141514-14--14---| Gtr. 1
G|---------------------------------------------------|
D|---------------------------------------------------|
A|---------------------------------------------------|

Chorus:(Guitar1 & Guitar2)
d|--------------------|
a|--------------------|
F|--------------------|
G|-5~~\(5)~XX-5-5-6-3-|
D|-5~~\(5)~XX-5-5-6-3-|
A|-3~~\(3)~XX-3-3-4-1-|

Bridge1:(Guitar2)
d|--------------------------------------|
a|--------------------------------------|
F|--------------------------------0h2---| Gtr. 1
G|-----7-8~------7-5~-------7-8-5-----5-|
D|--------------------------------------|
A|-3~~~-----3~~~-------3-3~-------------|

Bridge2:(Guitar1 & Guitar2 together,and at the end Guitar2 plays the next riff)
d|--------------------------|-----|
a|--------------------------|-----|
F|--------------------------|-----| Gtr. 1
G|--------------------------|-----|
D|-5-6-5--5-6-5--5-6-3--6-5-|-4-3-|
A|-3-4-3--3-4-3--3-4-1--4-3-|-2-1-|

d|--------------------------|-----|
a|--------------------------|-----|
F|--------------------------|-----| Gtr. 2
G|-5-6-5--5-6-5--5-6-3--6-5-|-4-3-|
D|-x-x-x--x-x-x--x-x-x--x-x-|-x-x-|
A|-3-4-3--3-4-3--3-4-1--4-3-|-2-1-|

Pre-chorus:
d|--------------|
a|--------------|
F|--------------| Gtr. 1
G|-5~~7~~9~~10~-|
D|-5~~7~~9~~10~-|
A|-3~~5~~7~~8~~-|

d|---------------------------------------------------|
a|----15------------15------------15----------15--15-|
F|-14----141514--14----141514--14----141514-14--14---| Gtr. 1
G|---------------------------------------------------|
D|---------------------------------------------------|
A|---------------------------------------------------|

Chorus:(Guitar1 & Guitar2)
d|--------------------|
a|--------------------|
F|--------------------|
G|-5~~\(5)~XX-5-5-6-3-|
D|-5~~\(5)~XX-5-5-6-3-|
A|-3~~\(3)~XX-3-3-4-1-|




8) KoRn - Play Me - Take A Look In The Mirror

Tabbed by Elvisz (elvisz@kornkids.com)

Intro:(Guitar2 with effect after a while Guitar1 joins in playing the same)
d|---------|---------|
a|---------|---------|
F|---------|---------|
G|---------|---------|
D|---------|---------|
A|-0-0-1-0-|-0-0-1-0-|

Pre-verse:(Guitar1 & Guitar2)
d|----------------------|
a|----------------------|
F|----------------------|
G|----------------------|
D|----------------------|
A|-3-2-1-0-1-0--0-0-1-0-|

Verse:(Guitar1 & Guitar2)
d|-----------|-------------|
a|-----------|-------------|
F|-----------|-------------|
G|-----------|-------------|
D|-----------|-------------|
A|-0x-0x-10x-|-0x-0x-1100x-|


Chorus:(Guitar1 & Guitar2)
d|-----------------|
a|-----------------|
F|-----------------|
G|------------5----|
D|-2----4-5-2-3----|
A|-0----2-3-0------|

Verse:(Guitar1 & Guitar2)
d|-----------|-------------|
a|-----------|-------------|
F|-----------|-------------|
G|-----------|-------------|
D|-----------|-------------|
A|-0x-0x-10x-|-0x-0x-1100x-|


Chorus:(Guitar1 & Guitar2)
d|-----------------|
a|-----------------|
F|-----------------|
G|------------5----|
D|-2----4-5-2-3----|
A|-0----2-3-0------|

Bridge1:(Guitar1 with effect)

No Clue

Bridge2:
d|---------|-----------|----------|
a|---------|-----------|----------|
F|---------|-----------|----------| gTR. 1
G|---------|-----------|----------|
D|---------|-----------|----------|
A|-0-0-1-0-|-0-0-11-00-|-00011100-|

d|-------------------------------------------------------|
a|-------------------------------------------------------|
F|-11^-11-12^-12-14^-14-16^-16-11^-11-12^-12-9-^-9--8^-8-| Gtr. 2
G|-------------------------------------------------------|
D|-------------------------------------------------------|
A|-------------------------------------------------------|

Fill3:
d|------------------------------------------------------|
a|------------------------------------------------------|
F|-11^-11-12^-12-14^-14-16^-16^-16^-16^-16^-16^-16^-16^-| Gtr. 2
G|------------------------------------------------------|
D|------------------------------------------------------|
A|------------------------------------------------------|

Bridge3:(Guitar1 & Guitar2)
d|------------|
a|------------|
F|------------|
G|------------|
D|-2-2--33-22-|
A|-0-0--11-00-|

Fiil4:(Guitar1 & Guitar2)
d|------------|
a|------------|
F|------------|
G|------------|
D|-2222-33-22-|
A|-0000-11-00-|

Chorus:(Guitar1 & Guitar2)
d|-----------------|
a|-----------------|
F|-----------------|
G|------------5----|
D|-2----4-5-2-3----|
A|-0----2-3-0------|

Outro:(Guitar1 & Guitar2)
d|-----------|-------------|
a|-----------|-------------|
F|-----------|-------------|
G|-----------|-------------|
D|-2x-2x-32x-|-2x-2x-3322x-|
A|-0x-0x-10x-|-0x-0x-1100x-|




9) KoRn - Alive - Take A Look In The Mirror


Intro1:
d|-----------------------|
a|-----------------------|
F|-----------------------|
G|-----------------------|
D|-x\\\\\\\\\\\\\\\\\\\--|
A|-----------------------|

d|-------------|
a|-------------|
F|-------------|
G|-x\\\\\\\\\--|	(Guitar2 with fingernail, after Guitar1 is finished)
D|-------------|
A|-------------|

Intro2:
d|-----------------------------------|
a|-----------------------------------|
F|-77777777777788886666666666666666--| Gtr. 1
G|-55555555555566664444444444444444--|
D|-----------------------------------|
A|-----------------------------------|


d|---------------------------------|
a|---------------------------------|
F|---------------------------------| Gtr. 2
G|---------------------------------|
D|-4-4-4-4-4-4-4-4-4-4-4-4-4-4-4-4-|
A|-2-2-2-2-2-2-2-2-2-2-2-2-2-2-2-2-|

Verse:(Guitar1 & Guitar2)
d|-----------------|
a|-----------------|
F|-----------------|
G|-----------------|
D|-----------------|
A|-02x--32x--3222x-|

Fill1:(Guitar1 & Guitar2)
d|-----------|
a|-----------|
F|-----------|
G|-----------|
D|-----------|
A|-3-2~-2-1~-|

Pre-chorus:(Guitar1 & Guitar2)
d|------------------|
a|------------------|
F|------------------|
G|------------------|
D|------------------|
A|-0\2-3\2-3\2-4322-|

Chorus:
d|-------------------|
a|-------------------|
F|-------------------| Gtr. 1
G|-2~~~~2~3-5-4~~~~3~|
D|-0~~~~2~3-3-2~~~~1~|
A|------0~1----------|

d|---------------------------------|----|
a|-00000000000000000000000000000000|0~0~|
F|-44444444444444444444444444444444|4~2~| Gtr. 2
G|---------------------------------|----|
D|---------------------------------|----|
A|---------------------------------|----|

Pre-chorus:(Guitar1 & Guitar2)
d|------------------|
a|------------------|
F|------------------|
G|------------------|
D|------------------|
A|-0\2-3\2-3\2-4322-|

Verse:(Guitar1 & Guitar2)
d|-----------------|
a|-----------------|
F|-----------------|
G|-----------------|
D|-----------------|
A|-02x--32x--3222x-|

Fill1:(Guitar1 & Guitar2)
d|-----------|
a|-----------|
F|-----------|
G|-----------|
D|-----------|
A|-3-2~-2-1~-|

Pre-chorus:(Guitar1 & Guitar2)
d|------------------|
a|------------------|
F|------------------|
G|------------------|
D|------------------|
A|-0\2-3\2-3\2-4322-|

Chorus:
d|-------------------|
a|-------------------|
F|-------------------| Gtr. 1
G|-2~~~~2~3-5-4~~~~3~|
D|-0~~~~2~3-3-2~~~~1~|
A|------0~1----------|

d|---------------------------------|----|
a|-00000000000000000000000000000000|0~0~|
F|-44444444444444444444444444444444|4~2~| Gtr. 2
G|---------------------------------|----|
D|---------------------------------|----|
A|---------------------------------|----|


Bridge1:(Guitar1 & Guitar2)
d|----|-------------|-------------|
a|----|-------------|-------------|
F|----|-------------|-------------|
G|----|----4-44-5-4-|----4-44-544-|
D|-4~-|-4~----------|-4~----------|
A|-2~-|-2~----------|-2~----------|

Bridge2:
d|-----------------------------------|
a|-----------------------------------|
F|-77777777777788886666666666666666--| Gtr. 1
G|-55555555555566664444444444444444--|
D|-----------------------------------|
A|-----------------------------------|


d|---------------------------------|
a|---------------------------------|
F|---------------------------------| Gtr. 2
G|---------------------------------|
D|-4-4-4-4-4-4-4-4-4-4-4-4-4-4-4-4-|
A|-2-2-2-2-2-2-2-2-2-2-2-2-2-2-2-2-|

Chorus:
d|-------------------|
a|-------------------|
F|-------------------| Gtr. 1
G|-2~~~~2~3-5-4~~~~3~|
D|-0~~~~2~3-3-2~~~~1~|
A|------0~1----------|

d|---------------------------------|----|
a|-00000000000000000000000000000000|0~0~|
F|-44444444444444444444444444444444|4~2~| Gtr. 2
G|---------------------------------|----|
D|---------------------------------|----|
A|---------------------------------|----|

Outro:(Guitar1 & Guitar2)
d|---------------------------------|
a|---------------------------------|
F|---------------------------------|
G|---------------------------------|
D|-2-4-4-4-5-4-4-4-5-4-4-4-7-5-5-5-|
A|-0-2-2-2-3-2-2-2-3-2-2-2-5-3-3-3-|




10) KoRn - Let's Do This Now - Take A Look In The Mirror

Tabbed by Elvisz (elvisz@kornkids.com)
Tuning : 6 string in Travis' tuning, w/capo at 1st fret (I know, Munky says so in
         Guitar World). All notes relative to capo


Intro:(Jonathan comes with the bagpipes)
(It's hard to get out the bagpipes I'll skip it...sorry)
Intro:
d|----------------|
a|----------------|
F|----------------|
G|----------------|
D|-42-------------|
A|---0-0~~~~~~~~~~|


Pre-verse:(Guitar1 & Guitar2 goes pretty fast, specially the slides)
d|------------------------------|
a|------------------------------|
F|------------------------------|
G|-(5)\4----------5\4----4\3----|
D|-(3)\2----------3\2----2\1----|
A|-------0-0-0--0-----00-----00-|

Verse:
d|---------------------------------|-------------------------------------|
a|---------------------------------|-------------------------------------|
F|---------------------------------|-------------------------------------|
G|------5--------5x------5---5---6-|------3~-------3x------3----33---4~~~|
D|------4~-------4x------4---4---5-|------2~-------2x------2----22---3~~~|
A|-3-33--~-3-3-3----3-33---3---0---|-1-11--~-1-1-1----1-11---11----1-----|


Chorus:
d|------------------------------|
a|------------------------------|
F|------------------------------| Gtr. 1
G|-(5)\4----------5\4----4\3----|
D|-(3)\2----------3\2----2\1----|
A|-------0-0-0--0-----00-----00-|

d|-------------------------------------------------|
a|-------------------------------------------------|
F|-8888888899998899991111111111111111131313131414\\| Gtr. 2
G|-666666667777667777 9 9 9 9 9 9 9 9111111111212\\|
D|-------------------------------------------------|
A|-------------------------------------------------|

d|-------------------------------------------------|
a|-------------------------------------------------|
F|-8888888899998899991111111111111111131313131111\\|
G|-666666667777667777 9 9 9 9 9 9 9 911111111 9 9\\|
D|-------------------------------------------------|
A|-------------------------------------------------|

Verse:
d|---------------------------------|-------------------------------------|
a|---------------------------------|-------------------------------------|
F|---------------------------------|-------------------------------------|
G|------5--------5x------5---5---6-|------3~-------3x------3----33---4~~~|
D|------4~-------4x------4---4---5-|------2~-------2x------2----22---3~~~|
A|-3-33--~-3-3-3----3-33---3---0---|-1-11--~-1-1-1----1-11---11----1-----|


Chorus:
d|------------------------------|
a|------------------------------|
F|------------------------------| Gtr. 1
G|-(5)\4----------5\4----4\3----|
D|-(3)\2----------3\2----2\1----|
A|-------0-0-0--0-----00-----00-|

d|-------------------------------------------------|
a|-------------------------------------------------|
F|-8888888899998899991111111111111111131313131414\\| Gtr. 2
G|-666666667777667777 9 9 9 9 9 9 9 9111111111212\\|
D|-------------------------------------------------|
A|-------------------------------------------------|

d|-------------------------------------------------|
a|-------------------------------------------------|
F|-8888888899998899991111111111111111131313131111\\|
G|-666666667777667777 9 9 9 9 9 9 9 911111111 9 9\\|
D|-------------------------------------------------|
A|-------------------------------------------------|

Bridge1:
d|--------------|
a|--------------|
F|--------------| Gtr. 1
G|--------------|
D|-----3~~~2~1--|
A|-5~~~---------|

d|-------------------------|
a|---0-----0-----0-----0---|
F|-4-----5-----4-----3-----| Gtr. 2
G|-------------------------|
D|-------------------------|
A|-------------------------|

Bridge2:(Guitar1 & Guitar2)
d|------------------|
a|------------------|
F|------------------|
G|-----5~~~4b5r4~3~~|
D|-7~~~3~~~2b3r2~1~~|
A|-5~~~------------~|

Bridge3:
d|-----------|
a|-----------|
F|-----------|
G|-----------|
D|-3\2-------|
A|------0(0)-|


Bridge4:(Guitar1 & Guitar2 goes pretty fast, specially the slides)
d|------------------------------|
a|------------------------------|
F|------------------------------| Gtr. 1
G|-(5)\4----------5\4----4\3----|
D|-(3)\2----------3\2----2\1----|
A|-------0-0-0--0-----00-----00-|


Chorus:
d|------------------------------|
a|------------------------------|
F|------------------------------| Gtr. 1
G|-(5)\4----------5\4----4\3----|
D|-(3)\2----------3\2----2\1----|
A|-------0-0-0--0-----00-----00-|

d|-------------------------------------------------|
a|-------------------------------------------------|
F|-8888888899998899991111111111111111131313131414\\| Gtr. 2
G|-666666667777667777 9 9 9 9 9 9 9 9111111111212\\|
D|-------------------------------------------------|
A|-------------------------------------------------|

d|-------------------------------------------------|
a|-------------------------------------------------|
F|-8888888899998899991111111111111111131313131111\\|
G|-666666667777667777 9 9 9 9 9 9 9 911111111 9 9\\|
D|-------------------------------------------------|
A|-------------------------------------------------|





11) KoRn - I'm Done - Take A Look In The Mirror

Tabbed by Elvisz (elvisz@kornkids.com)

Intro:
d|----17----18----13-------13-|----17----18----13---15--|
a|-15----15----15----10-------|-15----15----15----13----|
F|----------------------------|-------------------------|
G|----------------------------|-------------------------|
D|----------------------------|-------------------------|
A|----------------------------|-------------------------|


Fill1:(Guitar1 & Guitar2)
d|----------|
a|----------|
F|----------|
G|----------|
D|-5x55x55x-|
A|-3x33x33x-|

Pre-verse:(Guitar1 & Guitar2)
d|----------------------------------------------------------------|
a|----------------------------------------------------------------|
F|----------------------------------------------------------------|
G|----------------------------------------------------------------|
D|-5x55x55x-5//8---5x55x55x-5//8---5x55x55x-5//8---5x55x55x-5\6---|
A|-3x33x33x-3//6---3x33x33x-3//6---3x33x33x-3//6---3x33x33x-3\4---|

Verse:
d|----17----18----13-------13-|----17----18----13---15--|
a|-15----15----15----10-------|-15----15----15----13----|
F|----------------------------|-------------------------| Gtr. 1
G|----------------------------|-------------------------|
D|----------------------------|-------------------------|
A|----------------------------|-------------------------|

d|----------------------------------------------------------------|
a|----------------------------------------------------------------|
F|----------------------------------------------------------------| Gtr. 2
G|----5-5-------------5-5-------------5-5-------------5-5---------|
D|----------5//8------------5//8------------5//8----------x-5\6---|
A|-3x3---3x-3//6---3x3---3x-3//6---3x3---3x-3//6---3x3---3x-3\4---|


Chorus:
d|------------------------------------------------------|
a|------------------------------------------------------|
F|-1616161616161616161616161212121212121212111111119999-| Gtr. 1
G|-1414141414141414141414141010101010101010 9 9 9 97777-|
D|------------------------------------------------------|
A|------------------------------------------------------|

d|-------------------------------------------------|
a|-------------------------------------------------|
F|-------------------------------------------------| Gtr. 2
G|-------5----------6-5-5----------5---------------|
D|-2-22-23----2-22-24-3-3-----22-223---22-22-5-7-3-|
A|-0-00-0-----0-00-0----------00-00----00-00-3-5-1-|

Verse:
d|----17----18----13-------13-|----17----18----13---15--|
a|-15----15----15----10-------|-15----15----15----13----|
F|----------------------------|-------------------------| Gtr. 1
G|----------------------------|-------------------------|
D|----------------------------|-------------------------|
A|----------------------------|-------------------------|

d|----------------------------------------------------------------|
a|----------------------------------------------------------------|
F|----------------------------------------------------------------| Gtr. 2
G|----5-5-------------5-5-------------5-5-------------5-5---------|
D|----------5//8------------5//8------------5//8----------x-5\6---|
A|-3x3---3x-3//6---3x3---3x-3//6---3x3---3x-3//6---3x3---3x-3\4---|


Chorus:
d|------------------------------------------------------|
a|------------------------------------------------------|
F|-1616161616161616161616161212121212121212111111119999-| Gtr. 1
G|-1414141414141414141414141010101010101010 9 9 9 97777-|
D|------------------------------------------------------|
A|------------------------------------------------------|

d|-------------------------------------------------|
a|-------------------------------------------------|
F|-------------------------------------------------| Gtr. 2
G|-------5----------6-5-5----------5---------------|
D|-2-22-23----2-22-24-3-3-----22-223---22-22-5-7-3-|
A|-0-00-0-----0-00-0----------00-00----00-00-3-5-1-|

Pre-verse:(Guitar1 & Guitar2)
d|----------------------------------------------------------------|
a|----------------------------------------------------------------|
F|----------------------------------------------------------------|
G|----------------------------------------------------------------|
D|-5x55x55x-5//8---5x55x55x-5//8---5x55x55x-5//8---5x55x55x-5\6---|
A|-3x33x33x-3//6---3x33x33x-3//6---3x33x33x-3//6---3x33x33x-3\4---|

Bridge1:
d|-----------------------|---------------------------|
a|-12-14--10-9--12--5--4-|-12-14-10--17-9--12--5--4--|
F|-----------------------|---------------------------|
G|-----------------------|---------------------------|
D|-----------------------|---------------------------|
A|-----------------------|---------------------------|

d|--------------|
a|--------------|
F|--------------|
G|--------------|
D|--------------|
A|-0000000-0000-|

Bridge2:
d|----------------------|
a|----------------------|
F|-4!!!6!!!7!!!9!!12!!11|
G|-2!!!4!!!5!! 7!!10! 9!|	(Guitar2)
D|----------------------| !tremolo pick but you'll
A|----------------------| hear it


d|----------|
a|----------|
F|----------|
G|----------|
D|-5x55x55x-|
A|-3x33x33x-|

Chorus:
d|------------------------------------------------------|
a|------------------------------------------------------|
F|-1616161616161616161616161212121212121212111111119999-| Gtr. 1
G|-1414141414141414141414141010101010101010 9 9 9 97777-|
D|------------------------------------------------------|
A|------------------------------------------------------|

d|-------------------------------------------------|
a|-------------------------------------------------|
F|-------------------------------------------------| Gtr. 2
G|-------5----------6-5-5----------5---------------|
D|-2-22-23----2-22-24-3-3-----22-223---22-22-5-7-3-|
A|-0-00-0-----0-00-0----------00-00----00-00-3-5-1-|

Outro:(Guitar1 & Guitar2)
d|----------------------------------------------------------------|
a|----------------------------------------------------------------|
F|----------------------------------------------------------------|
G|----------------------------------------------------------------|
D|-5x55x55x-5//8---5x55x55x-5//8---5x55x55x-5//8---5x55x55x-5\6---|
A|-3x33x33x-3//6---3x33x33x-3//6---3x33x33x-3//6---3x33x33x-3\4---|




12) KoRn - Y'All Want A Single - Take A Look In The Mirror

Tabbed by Elvisz (elvisz@kornkids.com)

Intro:(Guitar1 & Guitar2)
d|------|
a|------|
F|------|
G|------|
D|------|
A|-1-0x-|

Pre-verse:(Guitar1 & Guitar2)
d|----------------|
a|----------------|
F|----------------|
G|----------------|
D|----------------|
A|-1-0-33332-0-1x-|

Verse:(Guitar1 & Guitar2)
d|---|---------------|
a|---|---------------|
F|---|---------------|
G|---|---------------|
D|---|---------------|
A|-1-|-0x-0x-0x-001x-|

Fill1:(Guitar1 & Guitar2)
d|--------------------|
a|--------------------|
F|--------------------|
G|--------------------|
D|-2~-4-5~-10~--9-1012|
A|-0~-2-3~--8~--7-8-10|

Verse:(Guitar1 & Guitar2)
d|---------------|---------------------------|
a|---------------|---------------------------|
F|---------------|---------------------------|
G|---------------|---------------------------|
D|---------------|---------------------------|
A|-0x-0x-0x-001x-|-5x-5x-5x-5-7-3x-3x-3x-3-5-|

Chorus:(Guitar1 & Guitar2)
d|----------------|
a|----------------|
F|----------------|
G|----------------|
D|----------------|
A|-1-0-33332-0-1x-|

Fill2:(Guitar1 & Guitar2)
d|--------------------|
a|--------------------|
F|--------------------|
G|--------------------|
D|-2~-4-5~-10~--9-1012|
A|-0~-2-3~--8~--7-8-10|

Verse:(Guitar1 & Guitar2)
d|---------------|---------------------------|
a|---------------|---------------------------|
F|---------------|---------------------------|
G|---------------|---------------------------|
D|---------------|---------------------------|
A|-0x-0x-0x-001x-|-5x-5x-5x-5-7-3x-3x-3x-3-5-|

Chorus:(Guitar1 & Guitar2)
d|----------------|
a|----------------|
F|----------------|
G|----------------|
D|----------------|
A|-1-0-33332-0-1x-|

Bridge1:
d|--------------------|--------------------|
a|--------------------|--------------------|
F|--------------------|--------------------|
G|--------------------|--------------------|
D|-2~-4-5~-10~--9-1012|-2~-4-5~-10~--9-1012|
A|-0~-2-3~--8~--7-8-10|-0~-2-3~--8~--7-8-10|


Bridge2:(Guitar1 & Guitar2)
d|----|------|
a|----|------|
F|----|------|
G|----|------|
D|-2~-|-3-2~-|
A|-0~-|-1-0~-|

Bridge3:
d|--------|
a|--------|
F|--------|
G|--------|
D|--------|
A|-1-0~-0x|

Chorus:(Guitar1 & Guitar2)
d|----------------|
a|----------------|
F|----------------|
G|----------------|
D|----------------|
A|-1-0-33332-0-1x-|


Outro:(Guitar1 & Guitar2)
d|----|------|
a|----|------|
F|----|------|
G|----|------|
D|----|------|
A|-0~-|-1-0~-|




13) KoRn - When Will This End - Take A Look In The Mirror

Tabbed by Elvisz (elvisz@kornkids.com)

Intro1:(Guitar1 & Guitar2)
d|-------------------------|
a|-------------------------|
F|-------------------------|
G|-------------------------|
D|---5-5-4-3-----5-5-4-4-3-|
A|-0-3-3-2-1-0-0-3-3\2\2\1-|

Intro1:(Guitar1 & Guitar2)
d|-----------------------------|
a|-----------------------------|
F|-----------------------------|
G|-----------9-10--------------|
D|---5-5-4---7-8---------------|
A|-0-3-3-2-0-----0-7-8-8-7-7-6-|

Fill1:(Guitar1 & Guitar2)
d|-----|
a|-----|
F|-----|
C|-----|
G|-----|
D|-77x-|
A|-00x-|

verse:(Guitar1 & Guitar2)
d|-------------------------|
a|-------------------------|
F|-------------------------|
G|-------------------------|
D|---5-5-4-3-----5-5-4-4-3-|
A|-0-3-3-2-1-0-0-3-3\2\2\1-|

Chorus:
d|-----------------------------|
a|-----------------------------|
F|-----------------------------|
G|-----------------------------|
D|-----------------------------|
A|-0--0-5-4--0-12-0-12-0-13/14-|

Verse:(Guitar1 & Guitar2)
d|-------------------------|
a|-------------------------|
F|-------------------------|
G|-------------------------|
D|---5-5-4-3-----5-5-4-4-3-|
A|-0-3-3-2-1-0-0-3-3\2\2\1-|

Chorus:
d|-----------------------------|
a|-----------------------------|
F|-----------------------------|
G|-----------------------------|
D|-----------------------------|
A|-0--0-5-4--0-12-0-12-0-13/14-|

Bridge1:
d|-----|
a|-----|
F|-----|
G|-----|
D|-77x-|
A|-00x-|

Bridge2:(Guitar1 & Guitar2)
d|-----------------------------|
a|-----------------------------|
F|-----------------------------|
G|-----------9-10--------------|
D|---5-5-4---7-8---------------|
A|-0-3-3-2-0-----0-7-8-8-7-7-6-|

Verse:(Guitar1 & Guitar2)
d|-------------------------|
a|-------------------------|
F|-------------------------|
G|-------------------------|
D|---5-5-4-3-----5-5-4-4-3-|
A|-0-3-3-2-1-0-0-3-3\2\2\1-|

Chorus:
d|-----------------------------|
a|-----------------------------|
F|-----------------------------|
G|-----------------------------|
D|-----------------------------|
A|-0--0-5-4--0-12-0-12-0-13/14-|




bonus) KoRn - One(live) - Take A Look In The Mirror

Tabbed by Elvisz (elvisz@kornkids.com)
Tuning : 6 String Tuned Low to High (D G C F a d)


Intro1:(Guitar2)
d|---------|---------|---------|-----------|
a|---------|---------|---------|-----------|
F|---------|---------|---------|---------0~|
C|---4---0-|---4---0-|---4---0-|---4---0---|
G|-2---2---|---------|-2---2---|-----------|
D|---------|-3---3---|---------|-3---3-----|


d|---------|---------|---------|---------|
a|---------|---------|---------|---------|
F|---------|---------|---------|---------|
C|---4---0-|---4---0-|---4---0-|---------|
G|-2---2---|-0---0---|---------|---2---2-|
D|---------|---------|-3---3---|-0---2---|


d|---------|---------|---------|-----------|
a|---------|---------|---------|-----------|
F|---------|---------|---------|---------0~|
C|---4---0-|---4---0-|---4---0-|---4---0---|
G|-2---2---|---------|-2---2---|-----------|
D|---------|-3---3---|---------|-3---3-----|


d|---------|---------|---------|-------------------|
a|---------|---------|---------|-------------------|
F|---------|---------|---------|-------------------|
C|---4---0-|---4---0-|---4---0-|-------------------|
G|-2---2---|-0---0---|---------|---2---2---2-2/4-2-|
D|---------|---------|-3---3---|-0---2---0---------|


Solo:(Guitar1)
d|------------------------------------------------------------------|
a|---------------3p2---3p2----3-3p2---7\5---5\4---4\2---2p0---------|
F|-----2-4b6b4-------4-----2--------4-----7-----------4-----0h2-2/4-|
C|-2h4--------------------------------------------------------------|
G|------------------------------------------------------------------|
D|------------------------------------------------------------------|

 
d|---------------------------------|
a|-----2h3-2-------2--3p2----------|
F|-2/4--------2/4----------2---2/4-|
C|---------------------------------|
G|---------------------------------|
D|---------------------------------|


Verse:
d|---------------------|---------------------|
a|---------------------|---------------------|
F|---------------------|---------------------|	(Guitar2)
C|----4-----0--0--4----|----4-----0--4--4--0-|
G|-2-----2-----------0-|---------------------|
D|---------------------|-3-----3-------------|

 
d|---------------------|---------------------|
a|---------------------|---------------------|
F|---------------------|---------------------|	(Guitar2)
C|----4-----0--0--4----|----4-----0--4--4--0-|
G|-2-----2-----------0-|---------------------|
D|---------------------|-3-----3-------------|


d|---------------------|---------------------|
a|---------------------|---------------------|
F|---------------------|-------------------0-|	(Guitar2)
C|----4-----0--0--4--0-|----4-----0--4--4----| 
G|-2-----2-------------|-0-----0-------------|
D|---------------------|---------------------|


d|---------------------|------------|
a|---------------------|------------|
F|---------------------|------------|	(Guitar2)
C|----4-----0--0--4--0-|------------|
G|---------------------|----2-----2-|
D|-3-----3-------------|-0-----2----|


d|-----------------------------------------------|
a|-0-0-0-0-0-0-0-0-0-0-0-0-0-0-0-0-0-0-0-0-0-0-0-|
F|-4-4-4-4-4-2-4-4-4-6-6-2-4-4-4-6-6-6-7-7-7-7-6-|	(Guitar1)
C|-----------------------------------------------|
G|-----------------------------------------------|
D|-----------------------------------------------|


Chorus:(Guitar1 & Guitar2)
d|----------------------------------------------------|
a|----------------------------------------------------|
F|----------------------------------------------------|
C|---2-4-2-------2-4-6-4-2-4-7------------------------|
G|-5-0-2-0-5-4-5-0-2-4-2-0-2-5-5-5555-5-5555-3-3333-2-|
D|-3-------3-2-3---------------5-5555-3-3333-1-1111-0-|


Verse:
d|---------------------|---------------------|
a|---------------------|---------------------|
F|---------------------|---------------------|	(Guitar2)
C|----4-----0--0--4----|----4-----0--4--4--0-|
G|-2-----2-----------0-|---------------------|
D|---------------------|-3-----3-------------|

 
d|---------------------|---------------------|
a|---------------------|---------------------|
F|---------------------|---------------------|	(Guitar2)
C|----4-----0--0--4----|----4-----0--4--4--0-|
G|-2-----2-----------0-|---------------------|
D|---------------------|-3-----3-------------|


d|---------------------|---------------------|
a|---------------------|---------------------|
F|---------------------|-------------------0-|	(Guitar2)
C|----4-----0--0--4--0-|----4-----0--4--4----| 
G|-2-----2-------------|-0-----0-------------|
D|---------------------|---------------------|

d|---------------------|------------|
a|---------------------|------------|
F|---------------------|------------|	(Guitar2)
C|----4-----0--0--4--0-|------------|
G|---------------------|----2-----2-|
D|-3-----3-------------|-0-----2----|

d|-----------------------------------------------|
a|-0-0-0-0-0-0-0-0-0-0-0-0-0-0-0-0-0-0-0-0-0-0-0-|
F|-4-4-4-4-4-2-4-4-4-6-6-2-4-4-4-6-6-6-7-7-7-7-6-|	(Guitar1)
C|-----------------------------------------------|
G|-----------------------------------------------|
D|-----------------------------------------------|


Chorus:(Guitar1 & Guitar2)
d|----------------------------------------------------|
a|----------------------------------------------------|
F|----------------------------------------------------|
C|---2-4-2-------2-4-6-4-2-4-7------------------------|
G|-5-0-2-0-5-4-5-0-2-4-2-0-2-5-5-5555-5-5555-3-3333-2-|
D|-3-------3-2-3---------------5-5555-3-3333-1-1111-0-|


Solo:(Guitar1)
d|-------------------------10-8-7-8p7---17p14---14-17-17-15-14-15p14-------|
a|-10p7---7-10-10-8-7-8p7-------------8-------15-------|-------------15-19-|
F|------7-----------------7------------------------------------------------|
C|-------------------------------------------------------------------------|
G|-------------------------------------------------------------------------|
D|-------------------------------------------------------------------------|


d|-15-17-19p17p15-19p17p15-19p17p15-19p17p15-14-15----------|
a|-------------------------------------------------15-------|
F|----------------------------------------------------------|
C|----------------------------------------------------------|
G|----------------------------------------------------------|
D|----------------------------------------------------------|


Chorus:(Guitar1 & Guitar2)
d|-----------------------------|
a|-----------------------------|
F|-----------------------------|
C|---2-4-2-------2-4-6-4-2-4-7-|
G|-5-0-2-0-5-4-5-0-2-4-2-0-2-5-|
D|-3-------3-2-3---------------|


Bridge1:(Guitar1 & Guitar2)
d|-----------------------------|---------------|
a|-----------------------------|---------------|
F|-----------------------------|---------------|
C|---2-4-2-------2-4-6-4-2-4-7-|---2-4-2-----6-|
G|-5-0-2-0-5-4-5-0-2-4-2-0-2-5-|-5-0-2-0-5-4-4-|
D|-3-------3-2-3---------------|-3-------3-2---|


Bridge2:
d|-------------------------------|---------------------------------|
a|-------------------------------|---------------------------------|
F|-------------------------------|---------------------------------|
C|-2-0-2-0---4-4---4---5-5---5---|-2-0-2-0-----4-4---4---5-5---5---|(Guitar1)
G|-3-2-3-0-2-2-2---2---3-3---3---|-3-2-3-0-2---2-2---2---3-3---3---|
D|---------3-----2---2-----3---3-|-----------3-----2---2-----3---3-|


d|-------------------------------------|------------------------------------|
a|-------------------------------------|------------------------------------|
F|-------------------------------------|------------------------------------|
C|-555-7-5------44-----4---5-555---5---|-555-7-5-----44-----4---5-555---5---|
G|-777-7-7------22-----2---3-333---3---|-777-7-7-----22-----2---3-333---3---|
D|---------2222----2-2---2-------3---3-|---------2222---2-2---2-------3---3-|


d|-----------------|
a|-----------------|
F|-5-4-5-7-4-8---9-|
C|-----------------| Gtr. 2
G|-3-2-3-5-2-6---7-|
D|-----------------|



Bridge3:(Guitar1 & Guitar2)

d|-----------------------------------------------------------------|
a|-----------------------------------------------------------------|
F|-----------------------------------------------------------------|
C|-----------------------------------------------------------------|
G|------2x------2x------2x------2x------2~------2x------2~------23-|
D|-0000-0x-0000-0x-0000-0x-0000-0x-0000-0~-0000-0x-0000-0~-0000-00-|

Bridge4:(Guitar1 & Guitar2)

d|-----------------------------------------------------------------|
a|-----------------------------------------------------------------|
F|-----------------------------------------------------------------|
C|-----------------------------------------------------------------|
G|------2x------2x------2x------23------2x------2x------2x------23-|
D|-0000-0x-0000-0x-0000-0x-0000-00-0000-0x-0000-0x-0000-0x-0000-00-|

Bridge5:

d|-----------------------------------------------------------------|
a|-----------------------------------------------------------------|
F|-----------------------------------------------------------------|(Guitar1)
C|-----------------------------------------------------------------|
G|------2~------23------2~------23------2~------23------2~------23-|
D|-0000-0~-0000-00-0000-0~-0000-00-0000-0~-0000-00-0000-0~-0000-00-|


d|-----------------------------------------------------------------|
a|-----------------------------------------------------------------|
F|-----------------------------------------------------------------|(Guitar2)
C|-----------------------------------------------------------------|
G|------7------7-8------5------5-8------7------7-8------5------5---|
D|-0000---0000-----0000---0000-----0000---0000-----0000---0000---7-|

Bridge6:(Guitar1 & Guitar2)
d|-----------------------------------------------------------------|
a|-----------------------------------------------------------------|
F|-----------------------------------------------------------------|
C|-----------------------------------------------------------------|
G|------2x------2x------2x------23------2x------2x------2x------23-|
D|-0000-0x-0000-0x-0000-0x-0000-00-0000-0x-0000-0x-0000-0x-0000-00-|

Outro1:(Guitar1 & Guitar2)

d|-------------------------------------|
a|-------------------------------------|
F|-------------------------------------|
C|-------------------------------------|
G|------2------2---3------2------2---3-|
D|-0000-0-0000-0-0-0-0000-0-0000-0-0-0-|

Outro1:(Guitar1 & Guitar2)

d|---------------------------|
a|---------------------------|
F|---------------------------|
C|---------------------------|
G|---------------------------|
D|-0000---0000---0000---0000-|
 
Additional Notes by Travis Lausch:

Okay, These corrections may not be 100% correct, but they sound correct to me. Most of
these songs translate very well to a 6 string guitar when tuned down properly. "One"
was played on seven-string guitars too, but can very easily be played by six. Some of
these corrections are minor, some of the tabs were completely redone. I can't feel
good about posting these tabs without giving credit to Elvisz (whoever you are). I 
used his template for these tabs, and even left a few parts alone because they were 
correct. I hope this tab allows you to enjoy playing korn without spending hundreds of
dollars on a seven string guitar. If you have any further corrections, additions,
comments, or just wanna say hi, feel free to email me (Forwarded messages will only 
get you blocked.)

Travis Lausch (the4elements2001@hotmail.com)

See Ya Later!
comments
print report bad tab
3 comments total.
0 reply
Elvisz wrote on December 19 2003, 12:00 am

Not bad,but i'm a little upset about that you didn't ask that you could use my tabs...
Right now is wrong, that you did, just watch the wma2003,as well as did my time(i know you didn't mail thetab but just watck the videoclip)...and you have made other minor mistakess...
But sound good...bye! Elvisz

0 reply
authenticguitar wrote on May 18 2004, 12:00 am

how can u play these on a 6?

0 reply
Krazy_KoRn wrote on November 18 2006, 07:38 pm

non accurate, in "y'all want a single", its tabbed wrong. the intro should be played 7 times than leading to the chorus.

I want to post or [tab]
guest
You may want to rate the tab now too:
select rating
Please do not post tabs as comments. Select "correction" instead!