Oops, an error
Loading. Please wait.

Take A Look In The Mirror Tab

by Korn
ver3
ver3
More versions @911Tabs.com
915 views 1 this week
no commentswrite comment
1 2 3 4 5
accurate
x 3
add to favorites launch autoscroll
font size
0
reset
Autoscroll
+/-
esc
set tempo
stop
Contributor
WARNING: You are trying to view
                                    content from Ultimate-Guitar.com
                                    in an unauthorized application,
                                    which is prohibited.

                                    Please use an official Ultimate
                                    Guitar Tabs application for iPhone,
                                    iPad or Android to access legitimate
                                    chords, guitar, bass, and drum tabs
                                    from Ultimate-Guitar.com database.

                                    Type "ultimate guitar tabs" in Apple
                                    App Store's or Android Market's
                                    search to find the application.
TAKE A LOOK IN THE MIRROR
1.Right Now
2.Break Some Off
3.Counting On Me
4.Here It Comes Again
5.Deep Inside
6.Did My Time
7.Everything I've Known
8.Play Me
9.Alive
10.Let's Do This Now
11.I'm Done
12.Y'all Want A Single
13.When Will This End


1.Right Now

A,D,G,C,F,A,D,   LOW TO HIGH

8:4 timing
4:4 timing
tempo 105

MUNKY intro  x2                         8:4 timing
|----------------------------------------------------|
|----------------------------------------------------|
|----------------------------------------------------|
|----------------------------------------------------|
|--------------5-------------4-----------3-----------|
|----------------------------------------------------|
|-0--0--1-0--0----0-0-1-0--0-----0-0-1-0----0-0-1-0--|

HEAD and MUNKY   chorus  x4             8:4 timing		
|----------------------------------------------------|
|----------------------------------------------------|
|----------------------------------------------------|
|----------------------------------------------------|
|--------------5-------------4-----------3-----------|
|----------------------------------------------------|
|-0--0--1-0--0----0-0-1-0--0-----0-0-1-0----0-0-1-0--|
				
Head and MUNKY verse  x8 4:4 timing
|-----------------------------|
|-----------------------------|
|-----------------------------|
|-----------------------------|
|-----------------------------|
|-----------------------------|
|-0--0--1-0----0-0-0-0-1-0----|

HEAD and MUNKY   chorus  x4             4:4 timing
|----------------------------------------------------|
|----------------------------------------------------|
|----------------------------------------------------|
|----------------------------------------------------|
|--------------5-------------4-----------3-----------|
|----------------------------------------------------|
|-0--0--1-0--0----0-0-1-0--0-----0-0-1-0----0-0-1-0--|

MUNKY bridge  x1     4:4 timing
|-----------------------------|
|-----------------------------|
|-----------------------------|
|-----------------------------|
|-----------------------------|
|-----------------------------|
|-0--0--1-0----0-0-0-0-1-0----|
             |^^BASS HERE^^|                     
Head and MUNKY verse  x8  4:4 timing
|-----------------------------|
|-----------------------------|
|-----------------------------|
|-----------------------------|
|-----------------------------|
|-----------------------------|
|-0--0--1-0----0-0-0-0-1-0----|

HEAD and MUNKY   chorus  x4             4:4 timing
|----------------------------------------------------|
|----------------------------------------------------|
|----------------------------------------------------|
|----------------------------------------------------|
|--------------5-------------4-----------3-----------|
|----------------------------------------------------|
|-0--0--1-0--0----0-0-1-0--0-----0-0-1-0----0-0-1-0--|

MUNKY bridge  x1          4:4 timing
|----|
|----| then munky does some wierd volume swirls n effect's
|----|
|----|
|----|
|-6~-|
|-4~-|

HEAD bridge x8 wierd effect  4:4 timing
|----------------------------|
|----------------------------|
|----------------------------|
|----------------------------|
|----------------------------|
|----------------------------|
|-4--4--5-4-----4--4--5-4----|

HEAD and MUNKY  x8   4:4 timing
|-----------------------------|
|-----------------------------|
|-----------------------------|
|-----------------------------|
|-----------------------------|
|-2--2--3-2~~~-2-2-2-2-3-2~~~-|
|-0--0--1-0~~~-0-0-0-0-1-0~~~-|

MUNKY intro  x2                           8:4 timing
|----------------------------------------------------|
|----------------------------------------------------|
|----------------------------------------------------|
|----------------------------------------------------|
|--------------5-------------4-----------3-----------|
|----------------------------------------------------|
|-0--0--1-0--0----0-0-1-0--0-----0-0-1-0----0-0-1-0--|

HEAD and MUNKY   chorus  x4               8:4 timing		
|----------------------------------------------------|
|----------------------------------------------------|
|----------------------------------------------------|
|----------------------------------------------------|
|--------------5-------------4-----------3-----------|
|----------------------------------------------------|
|-0--0--1-0--0----0-0-1-0--0-----0-0-1-0----0-0-1-0--|

HEAD and MUNKY  x4   muted  4:4 timing
|-------------------------------|
|-------------------------------|
|-------------------------------|
|-------------------------------|
|-------------------------------|
|-2-2-2-2-3-2----2-2-2-2-3-2----|
|-0-0-0-0-1-0----0-0-0-0-1-0----|

HEAD and MUNKY  x3   4:4 timing
|-----------------------------|
|-----------------------------|
|-----------------------------|
|-----------------------------|
|-----------------------------|
|-2--2--3-2~~~-2-2-2-2-3-2~~~-|
|-0--0--1-0~~~-0-0-0-0-1-0~~~-|

HEAD and MUNKY  x1   muted  4:4 timing
|-------------------------------|
|-------------------------------|
|-------------------------------|
|-------------------------------|
|-------------------------------|
|-2-2-2-2-3-2----2-2-2-2-3-2----|
|-0-0-0-0-1-0----0-0-0-0-1-0----|

2.Break Some Off

the tuning is high to low
ADGCFAD or if you have a 6 string, ADGCFA

intro
D|-------------------------------
A|-------------------------------
F|--------------------------------
C|------------------------------ [i think its 4 times]
G|------------------------------
D|--000--000--000--000--
A|--000--000--000--000--
[slight palm mute]

main riff/chours
D|------------------------- [3times][then]-------------------------
A|--555-5\666\7777-                      -555-5/444/3333--
not sure how to tab it, but it's something like that

can't figure out the verse

chours
verse
chours

then,the interlude
D|-----------------     -------------------
A|--3-4-3p0-3-- or ---2-3-2p0-2-- which ever sounds right to you
i wasn't sure....this is done 3 times, i think

 then interlude 2
G|----------------       ---------------------
D|--3-4-3p0-3- or --2-3-2p0-2------this is done a lot
A|--3-4-3p0-3-     --2-3-2p0-2------
 [slight palm mute]

after that, the intro...
................................
.....rest.....................

G|---------------
D|--3-2-0-1~-this is done while jon does his death metal screams
A|--3-2-0-1~-
 [slight palm mute]

3.Counting On Me

Intro (1 and 2)/Verse Gtr.1/Pre Chorus

d|---------------------------------------------------------|
a|---------------------------------------------------------|
F|---------------------------------------------------------|
C|---------------------------------------------------------|
G|-----8-8------8-8------8-8------8------------------------|
D|---------------------------------------------------------|
A|---6--------6--------6--------6----6--8^-----------------|

Verse (Gtr. 2)x2
d|---------------------|
a|---------------------|
F|---------------------|
C|9~/10-9~-7-7-\3------|
G|---------------------|
D|---------------------|
A|---------------------|

Chorus
d|--------------------|
a|--------------------|
F|--------------------|
C|3---5------6---8----|
G|3---5--4---6---8-6--|
D|1---3--4---4---6-6--|
A|-------2---------4--|

Bridge (Gtr.1)

d|----------------------------|
a|----------------------------|
F|-------/12---------/13------|
C|----------------------------|
G|----------------------------|
D|---x-8---------x-8----------|
A|----------------------------|

Bridge (Gtr.2) x3   then
d|-----------------|------------|   
a|-----------------|------------|
F|13-13-13-14------|13-13-13-12-|
C|11-11-11-12------|11-11-11-10-|
G|11-11-11-12------|11-11-11-10-|
D|-----------------|------------|
A|-----------------|------------|

Bridge 2 (*=last time only)
d|-------------------------------------------------------------------|
a|-------------------------------------------------------------------|
F|-------------------------------------------------------------------|
C|-------------------------------------------------------------------|
G|---8---7---3-3---3---3-3-3---3-3------3--3-3-3-3--4-3---8---7------|
D|---8---7---3-3---3---3-3-3---3-3------3--3-3-3-3--4-3---8---7------|
A|---6---5---1-1---1---1-1-1---1-1------1--1-1-1-1--2-1---6---5------|
              			                          *   *

4.Here It Comes Again

Intro 1 (Both/Clean)
d|---------------------------------|
a|---------------------------------|
F|---------------------------------|
C|--9--9h10p9p7h10----9-9h10p9p7~--|
G|---------------------------------|
D|7-----------------7--------------|
A|---------------------------------|

Intro 2/Chorus (Both/Dist.)
d|---------------------------------|
a|---------------------------------|
F|---------------------------------|
C|--9---9/10\7---10----9---9/10\7~-|
G|--9---9/10\7---10----9---9/10\7~-|
D|--7---7/-8\5---8-----7---7/-8\5~-|
A|0---0--------0-----0---0---------|

Verse (Both/Dist.)
d|-----------------------------------------|
a|-----------------------------------------|
F|-----------------------------------------|
C|-----------------------------------------|
G|-----------------------------------------|
D|111-111-555------------------333---------|
A|------------333-333--555-555-----333-333-|
  ... ... ... ... ...  ... ... ... ... ...

Pre-Chorus (Both/Dist.)
d|-------------------|
a|-------------------|
F|-------------------|
C|-------------------|
G|8~/12\5~-7~/10\5~--|
D|8~/12\5~-7~/10\5~--|
A|6~/10\3~-5~/-8\3~--|

Chorus Riff again.
Verse again.
Pre-Chorus again.
Chorus again.
Pre-Bridge (Gtr.2/Dist.)
d|--|
a|--|
F|--|
C|--|
G|8-|
D|8-|
A|6-|

Bridge 1 (Gtr.1/Clean)
d|-------|
a|-------|
F|-------|
C|-------|
G|-------|
D|-------|
A|555565-|
PM......
It's just that over and over until Bridge 2...
I can't figure out Bridge 1 Gtr.2, it's something high pitched though.

Bridge 2 (Both/Dist.)
d|------------|ending one-------|ending two----|
a|------------|-----------------|--------------|
F|------------|--------10101010-|--------------|
C|------------|---------x-x-x-x-|--------------|
G|7-7-7-7-8-7-|7-7-7-7--8-8-8-8-|7-7-7-7--5~---|
D|7-7-7-7-8-7-|7-7-7-7----------|7-7-7-7--5~---|
A|5-5-5-5-6-5-|5-5-5-5----------|5-5-5-5--3~---|
play this three times and alternate between endings

5.Deep Inside

ntro/chorus:  Distortion                2nd time do this
F|---11-11-11-11-----12-12-12-12------------|----------
C|---x�--x-x�--x-----x---x-x---x------------|----------
G|---9�--9-9---9-----10-10�10-10�---7-10-10-|----------
D|----------------------------------5-8--8--|--5-4-3---
A|-0-------------0--------------------------|--3-2-1---

Verse: dist.
|---------------------------|------|-------
|---------------------------|------|-------
|---------------------------|------|-------
|---------------------------|------|-------
|---------------------------|-3-4--|-4-3-2-
|2--2-2--2-2--2-2--2-2--2-2-|-3-4--|-4-3-2-
|0--0-0--0-0--0-0--0-0--0-0�|-1-2--|-2-1-0-

Bridge: uses a flanger 
|-----------------------------------------------------------------
|-----------------------------------------------------------------
|-----------------------------------------------------------------
|-18--21--18---18-18--21-18--18-18--21-18--18-18--21--18--18-16---
|-18--18--18---18-18--18-18--18-18--18-18--18-18--18--18--18-16---
|-----------------------------------------------------------------
|-----------------------------------------------------------------

Outro:
C|-4---5---4--------
G|-4---5---4--------
D|-2---3---2--5-4-3-
A|---0---0�---3-2-1-

i'll fiz the interlude for you later

6.Did My Time

intro : first guitarist(play till pre-chorus
-------------------------
-------------------------
-------------------------
-------------------------
-------------------------
-10--h12--12--12---------
-------------------------


then when drums play the crashes 
second guitaris play this

-------------------------
-------------------------
-------------------------
-------------------------
-------------------------
-------------------------
-3--h6--6--6-------------

then when drums play hard.second guitrist play this
-------------------------
-------------------------
-------------------------
-------------------------
-5/-8-8-8----------------
-5/-8-8-8----------------
-3/-6-6-6----------------


pre-chorus..only first guitarist
---------------------------------------
---------------------------------------
---------------------------------------
-2-2-2---------------------------------
-------2-2-2---------------------------
-------------3-3-3---------2-2-2-------
-------------------4-4-4-4-------------


chorus: both guitarist play this

---------------------------------------
---------------------------------------
---------------------------------------
-2-2-2---------------------------------
-------2-2-2---------------------------
-------------3-3-3---------2-2-2-------
-------------------4-4-4-4-------------


verse:

-------------------------
-------------------------
-------------------------
-------------------------
-------------------------
-------------------------
-2--h4--4------------- x4

then........

-------------------------
-------------------------
-------------------------
-------------------------
-------------------------
-------------------------
-2--h5--5------------- x4

pre-chorus..only first guitarist
---------------------------------------
---------------------------------------
---------------------------------------
-2-2-2---------------------------------
-------2-2-2---------------------------
-------------3-3-3---------2-2-2-------
-------------------4-4-4-4-------------


chorus: both guitarist with hgh dist.

---------------------------------------
---------------------------------------
---------------------------------------
-2-2-2---------------------------------
-------2-2-2---------------------------
-------------3-3-3---------2-2-2-------
-------------------4-4-4-4-------------


interlude:
------------------------------------------------------
------------------------------------------------------
----------------------------------------------------5-
---3-2----------3-2--------------3-2-------3-2--------
---------------------3--------------------------------
------------------------------------------------------
-4--------4------------------4---------4--------------

interlude 2: (heavy part)

------------------------------------ 
------------------------------------ 
------------------------------------
------------------------------------
-5--5-6-5--5--5--5-6-5-3------------
-5--5-6-5--5--5--5-6-5-3------------
-3--3-4-3--3--3--3-4-3-1------------

Interlude 3: the one that sounds like the verse
-----------|---------
-----------|---------
-----------|---------
-----------|---------
-----------|---------
-3-h5-5----|-3-h6-6--
-1-h3-3----|-1-h4-4--

ending:
-------------------
-------------------
-------------------
-------------------
-------------------
5-h6-6-------------
5-h6-6-----------x4

-------------------
-------------------
-------------------
-------------------
-------------------
5-h7-7-------------
5-h7-7-----------x4

7.Everything I've Known

Play as many times as needed)

D|---------------------------|
A|---------------------------|
F|----------------------2----|
C|----2-3--2-0---2-3-------0-|
G|---------------------------|
D|---------------------------|
A|--3-----3-----3-----3------|

D|---------------|
A|---------------|
F|---------------|
C|---------------|
G|---------------|
D|---------------|
A|--3-3-3-4-1-3--|

Pre-chorus : Gtr1
D|---------------|
A|---------------|
F|---------------|
C|---------------|
G|---------------|
D|--5--8--9--10--|
A|--3--6--7--8---|

Pre-chorus : Gtr2 (That�s the best I could do. It�s *** hard to figure out.)
D|----------------|
A|----------------|
F|----------------|
C|----7---7-------|
G|--5---8---8--5--|
D|----------------|
A|----------------|
|
D|---------------|
A|---------------|
F|------------7--|
C|--7-----7------|
G|-----5---------|
D|---------------|
A|---------------|

D|---------|
A|---------|
F|---------|
C|---------|
G|---------|
D|---------|
A|--3-4-3--|

D|-----------|
A|-----------|
F|-----------|
C|-----------|
G|-----------|
D|-----------|
A|--3-3-4-3--|

8.Play Me

Intro: 4x  very weird effects and bass starts it out
D|--------
A|-0-0-1-0

Intro: the intro might not me in power chords and it might just be the distortion so u
can just do which ever is best.
D|---------------------
A|---------------------
F|---------------------
C|---------------------
G|---------------------
D|-4-3-2-2-3-2-2-2-3-2-
A|-2-1-0-0-1-0-0-0-1-0-

Verse:
D|------------------------------------------
A|------------------------------------------
F|------------------------------------------
C|------------------------------------------
G|------------------------------------------
D|------------------------------------------
A|-0-0-1-0---0-0-1-0---0-0-1-0---0-0-2-1-0�

Chorus:
D|--------------------
A|--------------------
G|--------------------
C|---------5---------4
G|---------5---------4
D|-2-4-5-2-3-2-4-5-2-2
A|-0-2-3-0---0-2-3-0�

Bridge: this is with weird effect maybe chorus and phaser well u figure that out.
d|------------------------------------------------------|
a|------------------------------------------------------|
F|------------------------------------------------------|
C|----(11)/12-11---(11)/12-11---(11)//13-14---(11)///14-|
G|-10------------9------------8------------(9)----------|
D|------------------------------------------------------|
A|------------------------------------------------------|

Bridge guitar 2
d|-------------------------------------------------------|
a|-------------------------------------------------------|
F|-12^-12-13^-13-15^-15-17^-17-12^-12-13^-13-10^-10-9^-9-|
C|-------------------------------------------------------|	(Guitar2)
G|-------------------------------------------------------|
D|-------------------------------------------------------|
A|-------------------------------------------------------|
Fill3:
d|------------------------------------------------------|
a|------------------------------------------------------|
F|-12^-12-13^-13-15^-15-17^-17^-17^-17^-17^-17^-17^-17^-|
C|------------------------------------------------------|	(Guitar2)
G|------------------------------------------------------|
D|------------------------------------------------------|
A|------------------------------------------------------|

Interlude:
D|-----------
A|-----------
F|-----------
C|-----------
G|-----------
D|-----------
A|-0-0-2-1-0-

9.Alive

NOTE: Tune down 5 whole steps (ADGCea)


MAIN RIFF
G|-2-4-4-4-5-4-4-4-5-4-4-4-7-7-5-5-|
D|-0-2-2-2-3-2-2-2-3-2-2-2-5-5-3-3-|
A|---------------------------------|

LEAD PART
e|-8----//11-7-----8---//11-7--3-|

VERSE
D|-4-4---5-5-----7////|
A|-2-2---3-3--5--5////|

CHORUS
a|----------------------|
e|----------------------|
C|----------------------|
G|-2-------5--4----3----|
D|-0--2-3--3--2----1----|
A|----0-1---------------|

OTHER RIFF
C|------------------|
G|-2----------5-4-3-|
D|-0----------3-2-1-|
A|------------------|

FILL
G|--------1-2-5-4-3-|
D|-0--321-----3-2-1-|

BRIDGE
D|-2-2---2-2--2-5-6-5-2-2-|
A|-0-0---0-0--0-3-4-3-0-0-|

10.Let's Do This Now

Intro/Chorus

C |------------------------------------------------------------|
G |------------------------------------------------------------|
D#|------------------------------------------------------------|
Bb|--8\--0-0-0--0--6\--0-0-5\--0--8\--0-0-0--0--6\--0-0-5\--0--|
F |--8\--0-0-0--0--6\--0-0-5\--0--8\--0-0-0--0--6\--0-0-5\--0--|
Bb|--8\--0-0-0--0--6\--0-0-5\--0--8\--0-0-0--0--6\--0-0-5\--0--|

C |------------------------------------------------------------|
G |------------------------------------------------------------|
D#|------------------------------------------------------------|
Bb|--8\--0-0-0--0--6\--0-0-5\--0--8\--0-0-0--0--6\--0-0-5------|
F |--8\--0-0-0--0--6\--0-0-5\--0--8\--0-0-0--0--6\--0-0-5------|
Bb|--8\--0-0-0--0--6\--0-0-5\--0--8\--0-0-0--0--6\--0-0-5------|

Verse

C |------------------------------------------------------------|
G |------------------------------------------------------------|
D#|------------------------------------------------------------|
Bb|--3--3--3--3--3----------3--3--3--3--3\--1--1--1------------|
F |--3--3--3--3--3----------3--3--3--3--3\--1--1--1------------|
Bb|--3--3--3--3--3----------3--3--3--3--3\--1--1--1------------|

Pre Chorus

C |------------------------------------------------------------|
G |------------------------------------------------------------|
D#|------------------------------------------------------------|
Bb|--1--1--1--1--1----------1--1--1--1--0--0-------------------|
F |--1--1--1--1--1----------1--1--1--1--0--0-------------------|
Bb|--1--1--1--1--1----------1--1--1--1--0--0-------------------|

Chorus

Verse

Pre Chorus

Chorus

Bridge

C |--------------------------------------------------|
G |--------------------------------------------------|
D#|--------7-----------7-----------8-----------8-----|
Bb|--5--5-----5--5--5-----5--6--6-----6--6--6-----6--|
F |--------------------------------------------------|
Bb|--------------------------------------------------| 

C |-------------------------------------------------|
G |-------------------------------------------------|
D#|-------------------------------------------------|
Bb|--5----5--8-----8--7--8--7--6----6--6--6---------|
F |--5----5--8-----8--7--8--7--6----6--6--6---------|
Bb|--5----5--8-----8--7--8--7--6----6--6--6---------|

Post Bridge (Bass guitar)

D#|--------------------------------------------------------------|
Bb|--------------------------------------------------------------|
F |--------------------------------------------------------------|
Bb|--8--0-----------8--0-----------8--0-----------8--0-----------|

11.I'm Done

Intro 4x with some effect I don�t really know
D------------------------------------
A------------------------------------
F---------14-----15-----10------10---
C-12-12------12-----12------10-------
G------------------------------------
D------------------------------------
A------------------------------------

w/heavy dist
D-------------------------------------------------------------
A-------------------------------------------------------------
F-------------------------------------------------------------
C-------------------------------------------------------------
G-------------------------------------------------------------
D-5-5-5-5-5---5-5-5-5-5---5-8---5-5-5-5-5---5-8---5-5-5-5-5---
A-3-3-3-3-3---3-3-3-3-3---3-6---3-3-3-3-3---3-6---3-3-3-3-3---

w/heavy dist. 
D--------------------------------------------------------------
A--------------------------------------------------------------
F--------------------------------------------------------------
C--------------------------------------------------------------
G--------------------------------------------------------------
D-5-8---5-5-5-5-5---5-6---5-5-5-5-5---5-8---5-5-5-5-5---5-8----
A-3-6---3-3-3-3-3---3-4---3-3-3-3-3---3-6---3-3-3-3-3---3-6----

w/heavy dist
D--------------------------------------
A--------------------------------------
F--------------------------------------
C--------------------------------------
G--------------------------------------
D-5-5-5-5-5---5-8---5-5-5-5-5---5-6----
A-3-3-3-3-3---3-6---3-3-3-3-3---3-4----

w/heavy dist
D--------------------------------------------------------
A--------------------------------------------------------
F--------------------------------------------------------
C--------------------------------------------------------
G--------------------------------------------------------
D------5-5-------8--------5-5-------8--------5-5-------8-
A-3-3------3---3-6---3-3-----3---3--6---3-3------3---3-6-

w/heavy dist
D-------------------------------------------------------
A-------------------------------------------------------
F-------------------------------------------------------
C-------------------------------------------------------
G-------------------------------------------------------
D-----5-5-------6--------5-5-------8--------5-5-------8-
A-3-3-----3---3-4---3-3------3---3-6---3-3------3---3-6-

w/heavy dist
D---------------------------------------
A---------------------------------------
F---------------------------------------
C---------------------------------------
G---------------------------------------
D------5-5-------8-------5-5-------6----
A-3-3------3---3-6---3-3-----3---3-4----

Chorus w/heavy dist 2 times
D---------------------------------------------------
A---------------------------------------------------
F---------------------------------------------------
C---------------------------------------------------
G---------------------------------------------------
D-2-2-2-9---2-2-2---9-8-7---2-2-2-9---2-2-2-5-7-3---
A-0-0-0-7---0-0-0---7-6-5---0-0-0-7---0-0-0-3-5-1---


Rest for 4 measures and then play w/heavy dist 
D--------------------------------------------------------------
A--------------------------------------------------------------
F--------------------------------------------------------------
C--------------------------------------------------------------
G--------------------------------------------------------------
D------5-5-------8--------5-5------8--------5-5-------8--------
A-3-3------3---3-6---3-3-----3---3-6---3-3------3---3-6--------

w/heavy dist
D--------------------
A--------------------
F--------------------
C--------------------
G--------------------
D-----5-5-------6----
A-3-3-----3---3-4----

Chorus w/heavy dist 2 times
D---------------------------------------------------
A---------------------------------------------------
F---------------------------------------------------
C---------------------------------------------------
G---------------------------------------------------
D-2-2-2-9---2-2-2---9-8-7---2-2-2-9---2-2-2-5-7-3---
A-0-0-0-7---0-0-0---7-6-5---0-0-0-7---0-0-0-3-5-1---

w/heavy dist
D------------------------------------------------------
A------------------------------------------------------
F------------------------------------------------------
C------------------------------------------------------
G------------------------------------------------------
D------5-5------8-------5-5-------8--------5-5-------8-
A-3-3-----3---3-6---3-3-----3---3-6---3-3------3---3-6-

w/heavy dist
D-----------------
A-----------------
F-----------------
C----------------
G-----------------
D-----5-5-------6-
A-3-3-----3---3-4-

Bridge                                  
D-------------------------------------------------------
A----14-------12---------------14--17-----12------------
F-16----14-13----9-8�--16--14---------13------9-8-------
C-------------------------------------------------------
G-------------------------------------------------------
D-------------------------------------------------------
A-------------------------------------------------------
                                      
D------------------------------------
A------------14-----17-----12--------
F-16----14-----13------13-----9-8----
C------------------------------------
G------------------------------------
D------------------------------------
A------------------------------------

Repeat as many times needed* w/weird effect
D--------------------------
A--------------------------
F--------------------------
C-9�11-12�-14--17-16-------
G-x--x--x---x---x--x-------
D-7--9�-10--12-15�14-------
A--------------------------
  *  *   *  *   *  * 

w/weird effect
D-----------------------
A-----------------------
F-----------------------
C-9�11-12�14�-17--16----
G-x--x--x--x---x---x----
D-7--9�10--12--15�-14---
A-----------------------

Chorus w/heavy dist 2 times
D---------------------------------------------------
A---------------------------------------------------
F---------------------------------------------------
C---------------------------------------------------
G---------------------------------------------------
D-2-2-2-9---2-2-2---9-8-7---2-2-2-9---2-2-2-5-7-3---
A-0-0-0-7---0-0-0---7-6-5---0-0-0-7---0-0-0-3-5-1---

Outro w/heavy dist 3 times
D------------------
A------------------
F------------------
C------------------
G------------------
D-5-5-5-5-5---5-8--
A-3-3-3-3-3---3-6--


Outro w/heavy dist
D-------------
A-------------
F-------------
C-------------
G-------------
D-5-5-5-5-5---
A-3-3-3-3-3---

12.Y'all Want A Single

Intro - (0:02)
A-1-0:---1-0:---1-0:---1-0:---1-0:---1-0:---1-0:---|
B-1-0:---1-0:---1-0:---1-0:---1-0:---1-0:---1-0:---|
A-1-0:---1-0:---1-0:---1-0:---1-0:---1-0:---1-0:---| x1

Chorus - (0:16)
A-1-0-333322-0-1:--1-0-33332-0-1:-|
B-1-0-333322-0-1:--1-0-33332-0-1:-|
A-1-0-333322-0-1:--1-0-33332-0-1:-| x4

Riff 2 - (0:33)
A-1-0:--0:--0:--00-1-0:--0:--0:--00-1-0:--0:--0:--00-1-0:--0:--0:--00-1-|
B-1-0:--0:--0:--00-1-0:--0:--0:--00-1-0:--0:--0:--00-1-0:--0:--0:--00-1-|
A-1-0:--0:--0:--00-1-0:--0:--0:--00-1-0:--0:--0:--00-1-0:--0:--0:--00-1-|x1

Riff 3 - (0:41)
A-0--1-3--3-8--8-7-8-10-|
B-0--1-3--3-8--8-7-8-10-|
A-0--1-3--3-8--8-7-8-10-| x1

Main Riff - (0:45)
A-0:--0:--0:--00-1----|-5:--5:--5:--5-7-3:--3:--3:--3-5----|-0:--0:--0:--00-1----|
B-0:--0:--0:--00-1----|-5:--5:--5:--5-7-3:--3:--3:--3-5----|-0:--0:--0:--00-1----|
A-0:--0:--0:--00-1--x4|-5:--5:--5:--5-7-3:--3:--3:--3-5--x1|-0:--0:--0:--00-1--x2|


-5:--5:--5:--5-7-3:--3:--3:--3-5----|
-5:--5:--5:--5-7-3:--3:--3:--3-5----|
-5:--5:--5:--5-7-3:--3:--3:--3-5--x1|



Chorus - (1:05)
A-0-333322-0-1:--1-0-33332-0-1:----|-1-0-333322-0-1:--1-0-33332-0-1:----|
B-0-333322-0-1:--1-0-33332-0-1:----|-1-0-333322-0-1:--1-0-33332-0-1:----|
A-0-333322-0-1:--1-0-33332-0-1:--x1|-1-0-333322-0-1:--1-0-33332-0-1:--x3|

Riff 3 - (1:22)
A-1-0--1-3--3-8--8-7-8-10-|
B-1-0--1-3--3-8--8-7-8-10-|
A-1-0--1-3--3-8--8-7-8-10-|

Main Riff - (1:26)
A-0:--0:--0:--00-1----|-5:--5:--5:--5-7-3:--3:--3:--3-5----|-0:--0:--0:--00-1----|
B-0:--0:--0:--00-1----|-5:--5:--5:--5-7-3:--3:--3:--3-5----|-0:--0:--0:--00-1----|
A-0:--0:--0:--00-1--x4|-5:--5:--5:--5-7-3:--3:--3:--3-5--x1|-0:--0:--0:--00-1--x2|


-5:--5:--5:--5-7-3:--3:--3:--3-5----|
-5:--5:--5:--5-7-3:--3:--3:--3-5----|
-5:--5:--5:--5-7-3:--3:--3:--3-5--x1|



Chorus - (1:46)
A-0-333322-0-1:--1-0-33332-0-1:----|-1-0-333322-0-1:--1-0-33332-0-1:----|
B-0-333322-0-1:--1-0-33332-0-1:----|-1-0-333322-0-1:--1-0-33332-0-1:----|
A-0-333322-0-1:--1-0-33332-0-1:--x1|-1-0-333322-0-1:--1-0-33332-0-1:--x3|

Riff 3 - (2:02)
A-1-0--1-3--3-8--8-7-8-10----|-0--1-3--3-8--8-7-8-10----|
B-1-0--1-3--3-8--8-7-8-10----|-0--1-3--3-8--8-7-8-10----|
A-1-0--1-3--3-8--8-7-8-10--x1|-0--1-3--3-8--8-7-8-10--x3|

Riff 4 - (2:19)
A-0----1-0----1-0----1-0----|
B-0----1-0----1-0----1-0----|
A-0----1-0----1-0----1-0----| x1

Riff 5 - (2:26)
A-1-0---0:--1-0---1:-1:-1:----|-0---0:--1-0---1:-1:-1:----|
B-1-0---0:--1-0---1:-1:-1:----|-0---0:--1-0---1:-1:-1:----|
A-1-0---0:--1-0---1:-1:-1:--x1|-0---0:--1-0---1:-1:-1:--x3|

Bridge - (2:44)
A-0-333322-0-1--0-33332-0-1----|
B-0-333322-0-1--0-33332-0-1----|
A-0-333322-0-1--0-33332-0-1-x4|

Bridge 2 - (2:52)
A-0-333322-0-1:---0-33332-0-1:----33332-0-1:---0-33332-0-1:-|
B-0-333322-0-1:---0-33332-0-1:----33332-0-1:---0-33332-0-1:-|
A-0-333322-0-1:---0-33332-0-1:----33332-0-1:---0-33332-0-1:-| x1

Chorus - (3:00)
A-0-333322-0-1:--1-0-33332-0-1:--1-0-333322-0-1:--1-0-33332-0-1:-|
B-0-333322-0-1:--1-0-33332-0-1:--1-0-333322-0-1:--1-0-33332-0-1:-|
A-0-333322-0-1:--1-0-33332-0-1:--1-0-333322-0-1:--1-0-33332-0-1:-| x1

Outro - (3:08)
A-1-0----1-0----1-0----1-0----:|
B-1-0----1-0----1-0----1-0----:|
A-1-0----1-0----1-0----1-0----:| x1

13.When Will This End

Intro-Both Guitars
d-----------------------------------------
a-----------------------------------------
F-----------------------------------------
C-----------------------------------------     x4
G-----------------------------------------
D-----2---5---4-4-3-2-----5---4-4-4-3-----
A-----0---3---2-2-1-0---0-3---2-2-2-1-----


d----------------------------------------------
a----------------------------------------------
F----------------------------------------------
C----------------------------------------------     x4
G----------------------2b----------------------
D-----2---5------------------2b~~~~----(2)-----
A-----0---3---2-2-0------0---------------------


pm   .....              .....              .....
d---------------------------------------------------
a---------------------------------------------------
F---------------------------------------------------
C---------------------------------------------------     x1
G-----2-2----------------2-2----------------2-2-----
D-----2-2----------------2-2----------------2-2-----
A-----0-0----------------0-0----------------0-0-----


Verse-Play the first part of the three part intro 4x w/pm, then 4x w/o pm. 


Chorus
Guitar 1
pm                         ................                         ..........
d---------------------------------------------------------------------------------
a---------------------------------------------------------------------------------
F---------------------------------------------------------------------------------
C---------------------------------------------------------------------------------     x4
G-----2--------7---6-----------1---2---3h4----2--------7----6----------2---3b~~~--
D-----2--------7---6--------------------------2--------7----6---------------------
A-----0--------5---4--------0---0---0---------0--------5----4--------0---0--------


Guitar 2
d-----------------7-7-7-7-7-7-7-7-7-7-------------------------------------
a-----7-7-7-7-7-7-x-x-x-x-x-x-x-x-x-x-7-7-7-7-7-7-8-8-8-8-8-8-5-5-5-5-----
F-----x-x-x-x-x-x-4-4-4-4-4-4-4-4-4-4-x-x-x-x-x-x-x-x-x-x-x-x-x-x-x-x-----
C-----4-4-4-4-4-4---------------------4-4-4-4-4-4-5-5-5-5-5-5-2-2-2-2-----
G-------------------------------------------------------------------------
D-------------------------------------------------------------------------
A-------------------------------------------------------------------------

d-----------------5-5-5-5-5-5-5-5-5-5-------------------------------------
a-----4-4-4-4-4-4-x-x-x-x-x-x-x-x-x-x-7-7-7-7-7-7-8-8-8-8-5-5-5-5-5-5-----
F-----x-x-x-x-x-x-2-2-2-2-2-2-2-2-2-2-x-x-x-x-x-x-x-x-x-x-x-x-x-x-x-x-----
C-----1-1-1-1-1-1---------------------4-4-4-4-4-4-5-5-5-5-2-2-2-2-2-2-----
G-------------------------------------------------------------------------
D-------------------------------------------------------------------------
A-------------------------------------------------------------------------

d-----------------7-7-7-7-7-7-7-7-7-7-------------------------------------
a-----7-7-7-7-7-7-x-x-x-x-x-x-x-x-x-x-7-7-7-7-7-7-8-8-8-8-8-8-5-5-5-5-----
F-----x-x-x-x-x-x-4-4-4-4-4-4-4-4-4-4-x-x-x-x-x-x-x-x-x-x-x-x-x-x-x-x-----
C-----4-4-4-4-4-4---------------------4-4-4-4-4-4-5-5-5-5-5-5-2-2-2-2-----
G-------------------------------------------------------------------------
D-------------------------------------------------------------------------
A-------------------------------------------------------------------------

d-----------------5-5-5-5-5-5-5-5-5-5-------------------------------------
a-----4-4-4-4-4-4-x-x-x-x-x-x-x-x-x-x-7-7-7-7-7-7-8-8-8-8-5~~~~~~---------
F-----x-x-x-x-x-x-2-2-2-2-2-2-2-2-2-2-x-x-x-x-x-x-x-x-x-x-x---------------
C-----1-1-1-1-1-1---------------------4-4-4-4-4-4-5-5-5-5-2~~~~~----------
G-------------------------------------------------------------------------
D-------------------------------------------------------------------------
A-------------------------------------------------------------------------


Verse
Chorus



Interlude/Bridge
Guitar 2
d-----7~~~~~~~~-----------------------------------------------------
a-----4~~~~~~~~-----------------------------------------------------
F-----4~~~~~~~~------------------------11---14~~~~~~~~--------------
C-------------------------------------------12~~~~~~~~--------------
G-------------------------------------------------------------------
D-------------------------------------------------------------------
A-------------------------------------------------------------------

For this part I don't know what they used, but I think a pitch shifter with slight
distortion makes it sound good.
d---------------------------------9~~--10~~\------------------------------------------
a--------10----12~~~~-------10-----------------------10----12~~~~-------11----10~~\---
F-----11----11-----------11----11-----------------11----11-----------11----11---------
C-------------------------------------------------------------------------------------
G-------------------------------------------------------------------------------------
D-------------------------------------------------------------------------------------
A-------------------------------------------------------------------------------------

d---------------------------------9~~--10~~\----------------------------------10~~--9~~--
a--------10----12~~~~-------10-----------------------10----12~~~~-------10-10------------
F-----11----11-----------11----11-----------------11----11-----------11------------------
C----------------------------------------------------------------------------------------
G----------------------------------------------------------------------------------------
D----------------------------------------------------------------------------------------
A----------------------------------------------------------------------------------------

During the bridge, guitar 1 plays these creepy background sounds and the palm muted
A5 chords.  Use a pitch shifter for the creepy sounds and chorus for the A5 chords.
pm                                                    .....
d-----13~~~~-----------------12\------/13----------------------
a-------------------11\------------------------14~~------------
F--------------------------------------------------------------
C--------------------------------------------------------------
G------------------------------------------------------2-2-----
D------------------------------------------------------2-2-----
A------------------------------------------------------0-0-----


Play this once after a slight pause after the bridge
d-----------------------------
a-----------------------------
F-----------------------------
C-----------------------------
G-----2b----------------------
D-----------2b~~~~----(2)-----
A-----------------------------
comments
We did not receive enough feedback on this tab! Please rate:
print report bad tab
1 2 3 4 5
I want to post or [tab]
guest
You may want to rate the tab now too:
select rating
Please do not post tabs as comments. Select "correction" instead!