Oops, an error
Loading. Please wait.

The Paradigm Shift Tab

by Korn
2,336 views 18 this week
4 commentsread comments
1 2 3 4 5
accurate
x 8
Autoscroll
+/-
esc
set tempo
stop
Contributor
WARNING: You are trying to view
                                    content from Ultimate-Guitar.com
                                    in an unauthorized application,
                                    which is prohibited.

                                    Please use an official Ultimate
                                    Guitar Tabs application for iPhone,
                                    iPad or Android to access legitimate
                                    chords, guitar, bass, and drum tabs
                                    from Ultimate-Guitar.com database.

                                    Type "ultimate guitar tabs" in Apple
                                    App Store's or Android Market's
                                    search to find the application.
ARTIST: KORN
ALBUM:  The Paradigm Shift
YEAR:   2013

~ GO CTRL+F TO SEARCH FOR THE SONG YOU WANT ~

----------------------------------------------------------

Track Listing:

01. Prey For Me.............................FRr3AkOnALEaSh
02. What We Do..............................FRr3AkOnALEaSh
03. Love and Meth...........................FRr3AkOnALEaSh
04. Spike In My Veins.......................FRr3AKOnALEaSh
05. Mass Hysteria...........................FRr3AKOnALEaSh
06. Paranoid and Aroused....................FRr3AKOnALEaSh
07. Never Never.............................FRr3AKOnALEaSh
08. Punishment Time.........................FRr3AkOnALEaSh
09. Lullaby For a Sadist....................FRr3AKOnALEaSh
10. Victimized..............................FRr3AKOnALEaSh
11. It's All Wrong..........................FRr3AkOnALEaSh

----------------------------------------------------------

1. Prey For Me

Tuning: A Standard (7-String) A D G C F a d

h = Hammer-down
~ = Note is held
\ = Slide-down

Riff 1 (Intro/Bridge)
d|------------------------------------------|
a|------------------------------------------|
F|------------------------------------------|
C|------------------------------------------|
G|--------------------------------4---------|
D|--------------------------------3---------|
A|--022--022--322--022--022--022----2--022--| <- 2's

Riff 2 (Intro)
d|------------------------------------|
a|------------------------------------|
F|------------------------------------|
C|------------------------------------|
G|--------------------------------4~--|
D|--------------------------------3~--|
A|--022--022--322--022--022--022------| <- 2's

Riff 3 (Intro)
d|------------------------------------------|
a|------------------------------------------|
F|------------------------------------------|
C|------------------------------------------|
G|--------------------------------3---------|
D|--------------------------------2---------|
A|--022--022--322--022--022--022----2--022--| <- 2's

Riff 4 (Intro)
d|----------------------------------------|
a|----------------------------------------|
F|----------------------------------------|
C|--------------------------------4~4~4~--|
G|--------------------------------3~3~3~--|
D|--------------------------------2~2~2~--|
A|--022--022--322--022--022--022--1~1~1~--| <- 2's

Riff 5 (Verse1) Guitar 1
d|-----------|--------|
a|-----------|--------| 
F|-----------|--------| 
C|-----------|--------| 
G|--2h44-----|----7~--| 
D|-----------|--------| 
A|-------{x3}|--3~----| \
                         |PLAYED
Riff 6 (Verse1) Guitar 2 |TOGETHER    Riff 7 (Verse2) Guitar 2
d|--------------------| /             |--17~16~-----14~16~--|
a|-----------12~------|               |----------15~--------|
F|--13~--14~----------| Replace Riff  |---------------------|
C|--------------------| 6 with 7 in   |---------------------|
G|--------------------| the 2nd verse |---------------------|
D|--------------------|               |---------------------|
A|--------------------|               |---------------------|

Riff 8 (Verse1) Guitar 1
d|-----------|---------|
a|-----------|---------| 
F|-----------|---------| 
C|-----------|---------| 
G|--2h44-----|---------| 
D|-----------|---------| 
A|-------{x3}|--3~-0~--| \
                          |PLAYED
Riff 9 (Verse1) Guitar 2  |TOGETHER    Riff 10 (Verse2) Guitar 2
d|---------------------| /             |--17~16~-----16~14~--|
a|---------------------|               |----------15~--------|
F|--13~--14~-11~-------| Replace Riff  |---------------------|
C|---------------------| 9 with 10 in  |---------------------|
G|---------------------| the 2nd verse |---------------------|
D|---------------------|               |---------------------|
A|---------------------|               |---------------------|

Riff 11 (Verse1) Guitar 1
d|-----------|--------| 
a|-----------|--------| 
F|-----------|--------| 
C|-----------|--------| 
G|--2h44-----|----7~--| 
D|-----------|--------| 
A|-------{x3}|--3~----| \
                         |PLAYED
Riff 12 (Verse1) Guitar 2|TOGETHER    Riff 13 (Verse2) Guitar 2
d|--------------------| /             |--17~16~-----14~16~--|
a|-----------14~------|               |----------15~--------|
F|--13~--14~----------| Replace Riff  |---------------------|
C|--------------------| 12 with 13 in |---------------------|
G|--------------------| the 2nd verse |---------------------|
D|--------------------|               |---------------------|
A|--------------------|               |---------------------|

Riff 14 (Verse1) Guitar 1
d|-----------|---------| 
a|-----------|---------| 
F|-----------|---------|
C|-----------|---------| 
G|--2h44-----|---------| 
D|-----------|---------| 
A|-------{x3}|--3~-0~--| \
                          |PLAYED
Riff 15 (Verse1) Guitar 2 |TOGETHER    Riff 16 (Verse2) Guitar 2
d|---------------------| /             |--17~16~-----16~14~--|
a|---------------------|               |----------15~--------|
F|--13~--14~-----------| Replace Riff  |---------------------|
C|-----------11~-------| 15 with 16 in |---------------------|
G|---------------------| the 2nd verse |---------------------|
D|---------------------|               |---------------------|
A|---------------------|               |---------------------|

Riff 17 (Verse1) Guitar 1
d|-----------|---------| 
a|-----------|---------| 
F|-----------|---------|
C|-----------|---------| 
G|--2h44-----|---------| 
D|-----------|---------| 
A|-------{x3}|--3~-0~--| \
                          |PLAYED
Riff 18 (Verse1) Guitar 2 |TOGETHER    Riff 19 (Verse2) Guitar 2
d|---------------------| /             |--17~16~-----14~16~--|
a|---------------------|               |----------15~--------|
F|--13~--14~-----------| Replace Riff  |---------------------|
C|-----------11~-------| 18 with 19 in |---------------------|
G|---------------------| the 2nd verse |---------------------|
D|---------------------|               |---------------------|
A|---------------------|               |---------------------|

Riff 20 (Chorus) Guitar 1
d|------|------|------|------|------|
a|------|------|------|------|------|
F|------|------|------|------|------|
C|------|--6~--|------|--6~--|------|
G|------|--7~--|------|--7~--|------|
D|--4~--|--5~--|--2~--|--5~--|--5~--| 
A|--2~--|------|--0~--|------|--3~--| \
                                       |PLAYED
Riff 21 (Chorus) Guitar 2              |TOGETHER
d|----------------------------------| /
a|--------9~------------9~----------| 
F|--9~-6~----9~11~8~-4~----9~11~9~--| 
C|----------------------------------| 
G|----------------------------------| 
D|----------------------------------| 
A|----------------------------------|

Riff 22 (Chorus) Guitar 1
d|------|------|------|------|------|
a|------|------|------|------|------|
F|------|------|------|------|------|
C|------|--6~--|------|--6~--|------|
G|------|--7~--|------|--7~--|------|
D|--4~--|--5~--|--2~--|--5~--|--5~--| 
A|--2~--|------|--0~--|------|--3~--| \
                                       |PLAYED
Riff 23 (Chorus) Guitar 2              |TOGETHER
d|----------------------------------| /
a|--------9~------------9~-7~10~----| 
F|--9~-6~----9~11~8~-4~-------------| 
C|----------------------------------| 
G|----------------------------------| 
D|----------------------------------| 
A|----------------------------------|

Riff 24 (Bridge)
d|------------|------|
a|------------|------|
F|--14\13-----|--11--|
C|------------|------|
G|--12\11-----|---9--|
D|------------|------|
A|--------{x3}|------|

Riff 25 (Bridge)
d|--------------------------------------------------|
a|--------------------------------------------------|
F|--14\13-14\13-14\13-14\13-14\13-14\13-14\13-14\13-|
C|--------------------------------------------------|
G|--12\11-12\11-12\11-12\11-12\11-12\11-12\11-12\11-|
D|--------------------------------------------------|
A|--------------------------------------------------| \
                                                       | BOTH PARTS
Riff 26 (Bridge)                                       | PLAY TOGETHER
d|--------------------------------------------------| /
a|--------------------------------------------------|
F|--------------------------------------------------|
C|--------------------------------------------------|
G|--------------------------------------------------|
D|--------------------------------------------------|
A|---------------------0~------------------------0--|

Riff 27 (Bridge/Outro) 
d|-----------------------------------------| After riffs 1-2 play in the bridge,
a|-----------------------------------------| It's the same but this time, the 
F|-----------------------------------------| notes are held.
C|-----------------------------------------|
G|-------------------------------4---------|
D|-------------------------------3---------|
A|-022~-022~-322~-022~-022~-022~---2~-022~-| <- 2's

Riff 28 (Bridge)
d|---------------------------------------|
a|---------------------------------------|
F|---------------------------------------|
C|---------------------------------------|
G|-------------------------------4~4~4~--|
D|-------------------------------3~3~3~--|
A|-022~-022~-322~-022~-022~-022~---------| <- 2's

----------------------------------------------------------

STRUCTURE:

~ INTRO ~

0:00 - 0:04 = Riff 1
0:04 - 0:09 = Riff 2
0:09 - 0:13 = Riff 3
0:13 - 0:17 = Riff 4
0:17 - 0:22 = Riff 3
0:22 - 0:27 = Riff 2

~ VERSE 1 ~

0:31 - 0:36 = Riff 5 & 6
0:36 - 0:40 = Riff 8 & 9
0:40 - 0:44 = Riff 11 & 12
0:44 - 0:48 = Riff 14 & 15
0:48 - 0:52 = Riff 17 & 18

~ CHORUS 1 ~

0:52 - 1:01 = Riff 20 & 21
1:01 - 1:09 = Riff 22 & 23

~ VERSE 2 ~

1:14 - 1:18 = Riff 5 & 7
1:18 - 1:22 = Riff 8 & 10
1:22 - 1:26 = Riff 11 & 13
1:26 - 1:31 = Riff 14 & 16
1:31 - 1:35 = Riff 17 & 19

~ CHORUS 2 ~

1:35 - 1:43 = Riff 20 & 21
1:44 - 1:52 = Riff 22 & 23
1:52 - 2:00 = Riff 20 & 21
2:00 - 2:07 = Riff 22 & 23

~ BRIDGE ~

2:07 - 2:09 = Riff 24
2:09 - 2:32 = Riff 25 & 26
2:32 - 2:36 = Riff 1
2:37 - 2:40 = Riff 2
2:41 - 2:45 = Riff 27
2:45 - 2:49 = Riff 28
2:49 - 2:58 = Riff 20
2:58 - 3:06 = Riff 20 & 21
3:06 - 3:15 = Riff 22 & 23
3:15 - 3:23 = Riff 20 & 21
3:23 - END  = Riff 27

----------------------------------------------------------

2. Love And Meth

Tuning: A Standard (7-String) A D G C F a d

~ - Hold Note
/ - Slide-up

Riff 1 (Intro/Pre-Verse/Outro)
d|----------------|------------------|
a|----------------|------------------|
F|----------------|------------------|
C|----------------|------------------|
G|----------------|------------------|
D|----------------|------------------|
A|--8-0-8-0-8-0~--|--8-0-8-0-8-0-1/--| <- Slide up to the 8th fret that starts riff 2

Riff 2 (Intro/Pre-Verse/Outro)
d|----------------|------------------|
a|----------------|------------------|
F|----------------|------------------|
C|----------------|------------------|
G|----------------|--------------9~--|
D|----------------|--------------8~--|
A|--8-0-8-0-8-0~--|--8-0-8-0-8-0-----|

Riff 3 (Intro) Guitar-2
d|-----------------------------------|
a|-----------------------------------|
F|--12--12--12-------12--12--12--11--|
C|----9---9---9~-------9---9---9-----|
G|-----------------------------------|
D|-----------------------------------|
A|-----------------------------------|

Riff 4 (Intro) Guitar-2
d|-----------------------------------|
a|-------------------------------10--|
F|--12--12--12-------12--12--12------|
C|----9---9---9~-------9---9---9-----|
G|-----------------------------------|
D|-----------------------------------|
A|-----------------------------------|

Riff 5 (Intro) Guitar-1
d|--------------------------|
a|--------------------------|Played again but
F|--12-14-11-12-------11----|without the last
C|--------------11-12----9--|note -9-
G|--------------------------|
D|--------------------------|
A|--------------------------|

Riff 6 (Verse)
d|---------------|-----|-------------|
a|---------------|-----|-------------|
F|---------------|-----|-------------|
C|---------------|-----|-------------|
G|---------------|-----|-------------|
D|--5---5---5----|-----|----5---5----|
A|----2---2---2--|--2--|--2---2---2--|

Riff 7 (Verse/Pre-Chorus)
d|---------------|-------------|
a|---------------|-------------|
F|---------------|-------------|
C|---------------|-------------|
G|---------------|-------------|
D|---------------|-------------|
A|--8-0-8-0-8-0--|--0-8-0-8-0--|

Riff 8 (Verse/Pre-Chorus)
d|---------------|-------------------|
a|---------------|-------------------|
F|---------------|-------------------|
C|---------------|-------------------|
G|---------------|-------------------|
D|---------------|-------------------|
A|--8-0-8-0-8-0--|--0-8-0-8-0--0-1/--|

Riff 9 (Chorus) Guitar-1
d|---------------------|
a|---------------------|
F|---------------------|
C|---------------------|
G|------6~-7~--4~------|
D|--4~--4~-5~--2~--5~--| __________
A|--2~-------------3~--|            \
                                     |PLAYED
Riff 10 (Chorus) Guitar-2            |TOGETHER
d|----------|----------|----------| /
a|----------|----------|----------|
F|----------|----------|----------|
C|--11------|--16------|--18------|
G|----------|----------|----------|
D|----------|----------|----------|
A|-----{x32}|-----{x16}|-----{x16}|

Riff 11 (Chorus) Guitar-1
d|---------------------|
a|---------------------|
F|---------------------|
C|---------------------|
G|------6~-7~--4~------|
D|--4~--4~-5~--2~--5~--| 
A|--2~-------------3~--|  

Riff 12 (Chorus) Guitar-2                   
d|----------|----------|---------|---------|
a|----------|----------|---------|---------|
F|----------|----------|---------|---------|
C|--11------|--16------|--18-----|--16-----|
G|----------|----------|---------|---------|
D|----------|----------|---------|---------|
A|-----{x32}|-----{x16}|-----{x8}|-----{x8}|                   
                                              
Riff 13 (Bridge)
d|----------|---------|----------|
a|----------|---------|----------|
F|----------|---------|----------|
C|--18------|--19-----|--16------|
G|----------|---------|----------|
D|----------|---------|----------|
A|-----{x16}|-----{x6}|-----{x10}|

Riff 14 (Bridge)
d|-------------------|-------|---------|
a|-------------------|-------|---------|
F|-------------------|-------|---------|
C|-------------------|-------|---------|
G|-------------------|-------|---------|
D|--5---5---5---5----|-------|---------|
A|----2---2---2---2--|--2-2--|--3-0-2--|

Riff 15 (Bridge)
d|-------------------|-------|---------|
a|-------------------|-------|---------|
F|-------------------|-------|---------|
C|-------------------|-------|---------|
G|-------------------|-------|---------|
D|--5---5---5---5----|-------|---------|
A|----2---2---2---2--|--2-2--|--3-0-5--|

Riff 16 (Pre-Chorus)
d|---------|
a|---------|
F|---------|
C|--11-----|
G|---------|
D|---------|
A|-----{x8}|

----------------------------------------------------------

STRUCTURE:

~ INTRO ~

0:02 - 0:13 = Riff 1 & 2
0:13 - 0:23 = Riff 1, 2, 3 & 4
0:23 - 0:34 = Riff 1, 2 & 5

~ VERSE ~

0:45 - 0:54 = Riff 6
0:55 - 1:06 = Riff 7 & 8

~ CHORUS ~

1:06 - 1:17 = Riff 9 & 10
1:17 - 1:27 = Riff 11 & 12

~ VERSE 2 ~

1:27 - 1:38 = Riff 1, 2 & 5
1:49 - 1:59 = Riff 6
1:59 - 2:10 = Riff 7 & 8

~ CHORUS 2 ~

2:10 - 2:21 = Riff 9 & 10
2:21 - 2:33 = Riff 11 & 12

~ BRIDGE ~

2:31 - 2:41 = Riff 13
2:41 - 3:03 = Riff 14 & 15
3:03 - 3:04 = Riff 16

~ CHORUS 3 ~

3:05 - 3:15 = Riff 9 & 10
3:15 - 3:26 = Riff 11 & 12
3:26 - 3:36 = Riff 9 & 10
3:37 - 3:48 = Riff 11 & 12

~ OUTRO ~

3:49 - END  = Riff 1 & 2

----------------------------------------------------------

3. What We Do

Tuning: A Standard (7-String) A D G C F a d

.   - Palm Mute
~   - Hold Note
\   - Slide-up
^   - Bend Up
~_~ - Harmonics

Riff 1 (Intro)
d|------|
a|------|
F|------|
C|--7~--|
G|--6~--|
D|--5~--|
A|------|

Riff 2 (Intro/Pre-Verse)
d|-------------------------|
a|-------------------------|
F|-------------------------|
C|-------------------------|
G|-------------------------|
D|-------------------------|
A|--2--25--23--24--23--33--|

Riff 3 (Intro)
d|-------------------------------|Variation of Riff 2
a|-------------------------------|played at 0:23 listen
F|-------------------------------|closely.
C|-------------------------------|
G|-------------------------------|Played Fast.
D|-------------------------------|
A|--2--2--53--232--2--5323~--33--|

Riff 4 (Intro) Guitar 2
d|--------|
a|--------|
F|--------|
C|--7~7~--|
G|--6~6~--|
D|--5~5~--|
A|--------|

Riff 5 (Verse)
d|------------------|------------------|
a|------------------|------------------|
F|------------------|------------------|
C|--44444444---4----|--55555555---5----|
G|------------------|------------------|
D|------------------|------------------|
A|-----------2---2--|-----------2---2--|

Riff 6 (Verse)
d|------------------|------------------|
a|------------------|------------------|
F|------------------|------------------|
C|--44444444---4----|--55555555--------|
G|------------------|------------------|
D|------------------|-----------4~-5~--|
A|-----------2---2--|-----------2~-3~--|

Riff 7 (Chorus) Guitar 1
d|------|------|------|------|    |------|------|------|------|
a|------|------|------|------|    |------|------|------|------|
F|------|------|------|------|    |------|------|------|------|
C|--6~--|--4~--|--7~--|--6~--|    |------|------|------|------|
G|--4~--|--2~--|--5~--|--4~--| or |--4~--|--2~--|--5~--|--4~--|
D|------|------|------|------|    |--4~--|--2~--|--5~--|--4~--|
A|------|------|------|------|    |--2~--|--0~--|--3~--|--2~--| \
                                                                 |PLAYED
Riff 8 (Chorus) Guitar 2                                         |TOGETHER
d|-------|-------|-------|--9~-----------| _____________________/
a|-------|-------|-------|----12~10~-----|                        
F|-------|-------|--11~--|---------------|
C|--11~--|--12~--|-------|----------12~--|
G|-------|-------|-------|---------------|
D|-------|-------|-------|---------------|
A|-------|-------|-------|---------------|

Riff 9 (Chorus) Guitar 1
d|------|------|------|------|------|    |------|------|------|------|------|
a|------|------|------|------|------|    |------|------|------|------|------|
F|------|------|------|------|------|    |------|------|------|------|------|
C|--6~--|--4~--|--7~--|--6~--|--7~--|    |------|------|------|------|------|
G|--4~--|--2~--|--5~--|--4~--|--5~--| or |--4~--|--2~--|--5~--|--4~--|--5~--|
D|------|------|------|------|------|    |--4~--|--2~--|--5~--|--4~--|--5~--|
A|------|------|------|------|------|    |--2~--|--0~--|--3~--|--2~--|--3~--| \
                                                                               |PLAYED
Riff 10 (Chorus) Guitar 2                                                      |TOGETHER
d|-------|-------|-----------|--9~--------------| ____________________________/
a|-------|-------|------10~--|----12~10~12~10~--|
F|-------|-------|--11~------|------------------|
C|-------|-------|-----------|------------------|
G|--11~--|--12~--|-----------|------------------|
D|-------|-------|-----------|------------------|
A|-------|-------|-----------|------------------|

Riff 11 (Bridge)
d|---------------|
a|---------------|
F|---------------|
C|--6~-----------|
G|--4~-7~-6~-----|
D|-----5~-4~-7~--|
A|-----------5~--|

Riff 12 (Bridge)
d|-------|
a|-------|Bend up first then
F|-------|slide down.
C|-------|
G|--^----|
D|--7\6--|
A|--5\4--|

Riff 13 (Bridge)
d|---------|---------|---------|---------|
a|---------|---------|---------|---------|
F|---------|---------|---------|---------|
C|---------|---------|--12~----|--12~----|
G|--11~----|--11~----|--11~----|--11~----|
D|---9~----|---9~----|---9~----|---9~----|
A|-----{x4}|-----{x4}|-----{x4}|-----{x4}|

Riff 14 (Bridge)
d|---------|----------------|   |---------|----------------|
a|---------|----------------|   |---------|----------------|
F|---------|----------------|   |---------|----------------|
C|---------|-------~11~-----|   |--12~----|-------~12~-----|
G|--11~----|----11.----11.--|   |--11~----|----11.----11.--|
D|---9~----|--9.------------|   |---9~----|--9.------------|
A|---------|----------------|x2 |---------|----------------|x2

Riff 15 (Bridge/Pre-Chorus)
d|-------|-------|
a|-------|-------|
F|-------|-------|
C|--11~--|--11~--|
G|---8~--|---7~--|
D|---9~--|---9~--|
A|-------|-------|

Riff 16 (Outro)
d|---------------|------|
a|---------------|------|
F|---------------|------|
C|--6~-----------|--2~--| <
G|--4~-7~-6~-----|------|  \ FINGER
D|-----5~-4~-7~--|------|  / PLUCK
A|-----------5~--|--2~--| <

----------------------------------------------------------

STRUCTURE:

0:00 - 0:03 = Riff 1
0:06 - 0:22 = Riff 2
0:23 - 0:31 = Riff 3 & 4
0:31 - 0:53 = Riff 5
0:53 - 0:57 = Riff 6
0:57 - 1:06 = Riff 7 & 8
1:06 - 1:16 = Riff 9 & 10
1:16 - 1:23 = Riff 2
1:23 - 1:44 = Riff 5
1:44 - 1:48 = Riff 6
1:48 - 1:57 = Riff 7 & 8
1:57 - 2:03 = Riff 9 & 10
2:03 - 2:06 = Riff 11
2:06 - 2:31 = Riff 12
2:31 - 2:49 = Riff 13
2:49 - 3:05 = Riff 14
3:06 - 3:10 = Riff 15
3:10 - 3:18 = Riff 2
3:18 - 3:27 = Riff 7 & 8
3:27 - 3:35 = Riff 9 & 10
3:35 - 3:44 = Riff 7 & 8
3:44 - 3:51 = Riff 9 & 10
3:51 - 3:56 = Riff 15
3:56 - END  = Riff 16

----------------------------------------------------------

04. Spike In My Veins

Tuning: 7 String Tuned Standard          (B E A D G B E) or
Tuning: 7 String Tuned Down 1 Whole Step (A D G C F a d)

x - Dead-Note
h - Hammer-On
p - Pull-Off

Riff 1 (Var 1)(Intro/Verse)(B-Standard)
E|------------|------------|------------|------------------|
B|------------|------------|------------|------------------|
G|--4-444444--|--5-555555--|--7-777777--|-13-131313131313--|
D|--x-xxxxxx--|--x-xxxxxx--|--x-xxxxxx--|--x--x-x-x-x-x-x--|
A|--2-222222--|--3-333333--|--5-555555--|-11-111111111111--|
E|------------|------------|------------|------------------|
B|------------|------------|------------|------------------|

Riff 1 (Var 2)(Intro/Verse)(A-Standard)
D|------------|------------|------------|------------------|
A|------------|------------|------------|------------------|
F|--6-666666--|--7-777777--|--9-999999--|-15-151515151515--|
C|--x-xxxxxx--|--x-xxxxxx--|--x-xxxxxx--|--x--x-x-x-x-x-x--|
G|--4-444444--|--5-555555--|--7-777777--|-13-131313131313--|
D|------------|------------|------------|------------------|
A|------------|------------|------------|------------------|

Riff 2 (Var 1)(Verse)(B-Standard)
E|---------|----------------|
B|---------|----------------|
G|---------|----------------|
D|---------|----------------|
A|---7-----|-----5555-7777--|
E|--0-0-0--|--00------------|
B|---------|----------------|

Riff 2 (Var 2)(Verse)(A-Standard)
D|---------|----------------|
A|---------|----------------|
F|---------|----------------|
C|---------|----------------|
G|---9-----|-----7777-9999--|
D|---------|----------------|
A|--7-7-7--|--77------------|

Riff 3 (Var 1)(Verse)(B-Standard)
E|------------|--------|--------|
B|------------|--------|--------|
G|------------|--------|--------|
D|------------|--------|--------|
A|------------|--------|--------|
E|--33333333--|--5555--|--1111--|
B|------------|--------|--------|

Riff 3 (Var 2)(Verse)(A-Standard)
D|------------|--------|--------|
A|------------|--------|--------|
F|------------|--------|--------|
C|------------|--------|--------|
G|------------|--------|--------|
D|--55555555--|--7777--|--3333--|
A|------------|--------|--------|

Riff 4 (Verse)
E|--------------|---------|
B|--------------|---------|
G|--------------|---------|
D|--------------|---------|
A|--------------|---------|
E|--13p12-0-----|--13p12--|
B|----------{x4}|---------|

Riff 5 (Pre-Chorus)
E|----------------------|----------------------|
B|----------------------|----------------------|
G|----------------------|----------------------|
D|----------------------|----------------------|
A|----------------------|----------------------|
E|--12-00--12-00--12-0--|--10-00--10-00--10-0--|
B|----------------------|----------------------|

Riff 6 (Pre-Chorus)
E|----------------------|----------------------|
B|----------------------|----------------------|
G|----------------------|----------------------|
D|----------------------|----------------------|
A|----------------------|----------------------|
E|--16-00--17-00--16-0--|--11-00--11-00--11-0--|
B|----------------------|----------------------|

Riff 7 (Var 1)(Chorus)(B-Standard)
E|--------|--------|--------|--------|--------|
B|--------|--------|--------|--------|--------|
G|--------|--------|--------|--------|--------|
D|--------|--------|--------|--------|--------|
A|--------|--6-----|--7-----|--7-----|--3-----|
E|--5-----|--4-----|--5-----|--4-----|--1-----|
B|--3-{x8}|----{x3}|----{x3}|----{x3}|----{x8}|

Riff 7 (Var 2)(Chorus)(A-Standard)
D|--------|--------|--------|--------|--------|
A|--------|--------|--------|--------|--------|
F|--------|--------|--------|--------|--------|
C|--------|--------|--------|--------|--------|
G|--2-----|--8-----|--9-----|--8-----|--5-----|
D|--0-----|--6-----|--7-----|--6-----|--3-----|
A|----{x8}|----{x3}|----{x3}|----{x3}|----{x8}|

Riff 8 (Var 1)(Bridge)(B-Standard)
E|-------------|
B|-------------|
G|-------------|
D|-------------|
A|-------------|
E|--0-0h2p0-0--|
B|-------------|

Riff 8 (Var 2)(Bridge)(A-Standard)
D|-------------|
A|-------------|
F|-------------|
C|-------------|
G|-------------|
D|--2-2h3p2-2--|
A|-------------|

Riff 9 (Var 1)(Bridge)(B-Standard)
E|---------|---------|---------|---------|
B|---------|---------|---------|---------|
G|---------|---------|---------|---------|
D|---------|---------|---------|---------|
A|---------|---------|---------|---------|
E|--2-2-2--|--0-0-0--|--6-7-6--|--3-3-3--|
B|---------|---------|---------|---------|

Riff 9 (Var 1)(Bridge)(A-Standard)
D|---------|---------|---------|---------|
A|---------|---------|---------|---------|
F|---------|---------|---------|---------|
C|---------|---------|---------|---------|
G|---------|---------|---------|---------|
D|---------|---------|--4-5-4--|--1-1-1--|
A|--5-5-5--|--3-3-3--|---------|---------|

Riff 10 (Var 1)(Bridge)(B-Standard) Bagpipes
E|----------|------17--|------19--|
B|------17--|----15----|----17----|
G|----16----|----------|----------|
D|--14------|--12------|--14------|
A|----------|----------|----------|
E|----------|----------|----------|
B|----------|----------|----------|

Riff 10 (Var 2)(Bridge)(A-Standard) Bagpipes
D|----------|------15--|------17--|
A|------15--|----13----|----15----|
F|----14----|----------|----------|
C|--12------|--10------|--12------|
G|----------|----------|----------|
D|----------|----------|----------|
A|----------|----------|----------|

----------------------------------------------------------

STRUCTURE:

~ VERSE 1 ~

0:00 - 0:33 = Riff 1
0:33 - 0:41 = Riff 2
0:41 - 0:44 = Riff 3
0:44 - 0:52 = Riff 2
0:52 - 0:55 = Riff 3
0:47 - 0:55 = Riff 4
0:55 - 0:58 = Riff 5
0:58 - 1:01 = Riff 6
1:01 - 1:03 = Riff 5
1:03 - 1:06 = Riff 6

~ CHORUS 1 ~

1:08 - 1:29 = Riff 7

~ Verse 2 ~

1:29 - 2:02 = Riff 1
2:02 - 2:11 = Riff 2
2:11 - 2:13 = Riff 3
2:13 - 2:22 = Riff 2
2:22 - 2:25 = Riff 3
2:16 - 2:25 = Riff 4
2:25 - 2:27 = Riff 5
2:27 - 2:30 = Riff 6
2:30 - 2:33 = Riff 5
2:33 - 2:36 = Riff 6

~ CHORUS 2 ~

2:36 - 2:58 = Riff 7

~ BRIDGE ~

2:58 - 3:09 = Riff 8
3:09 - 3:30 = Riff 9 & 10

~ CHORUS 3 ~

3:31 - END  = Riff 7

----------------------------------------------------------

05. Mass Hysteria

Tuning: A Standard (7-String) A D G C F a d

~   - Hold until next note
~_~ - Rest finger on string/fret (Like harmonics)
/   - Slide-up
>   - Fade-in
.   - Palm-mute

Riff 1 (Intro/Verse) Wammy Pedal +1 Octave
d|----------------------|-------------------|
a|----------------------|-------------------|
F|--11~--11~--12/+1oct~-|--9~--9~--7/+1oct~-|
C|----------------------|-------------------|
G|-----9~---9~----------|----7~--7~---------|
D|----------------------|-------------------|
A|----------------------|-------------------|

Riff 2 (Intro/Pre-verse/Bridge/Outro)
d|-------|------------|------------|---------------|
a|-------|------------|------------|---------------|
F|-------|------------|------------|---------------|
C|-------|------------|------------|---------------|
G|-------|------------|------------|---------------|
D|-------|------------|------------|---------------|
A|--0-0--|--0-0-0~-0--|--0-0--0-0--|--0-0-0~--0-1--|

Riff 3 (Pre-Chorus)
d|------|------|------|------|
a|------|------|------|------|
F|------|------|------|--0~--|
C|------|------|------|--5~--|
G|--5~--|--6~--|--5~--|--6~--|
D|--7~--|--8~--|--7~--|------|
A|------|------|------|------|

Riff 4 (Chorus) Guitar 1
d|------|------------|---------------------|
a|------|------------|---------------------|
F|------|------------|---------------------|
C|------|------------|---------------------|
G|--2~--|--9~-5~-7~--|---------------------|
D|--2~--|--9~-5~-7~--|---------------------|
A|--0~--|--7~-3~-5~--|--0-7-8-7-0-7-8-7-8--| \
                                              |PLAYED
Riff 5 (Chorus) Guitar 2                      |TOGETHER
d|--------------------------------------| __ /
a|--------------------------------------|
F|--------------------------------------|
C|--9~----------------------------------|
G|---------9~----7~---------------------|
D|--------------------------------------|
A|--------------------------------------|

Riff 6 (Chorus) Guitar 1
d|------|------------|------------|
a|------|------------|------------|
F|------|------------|------------|
C|------|------------|------------|
G|--2~--|--9~-5~-7~--|------------|
D|--2~--|--9~-5~-7~--|------------|
A|--0~--|--7~-3~-5~--|-5-7-5-0-1~-| \
                                     |PLAYED
Riff 7 (Chorus) Guitar 2             |TOGETHER
d|--------------------------------| /
a|--------------------------------|
F|------------7~------------------|
C|--9~----------------------------|
G|---------9~----7~---------------|
D|--------------------------------|
A|--------------------------------|

Riff 8 (Pre-Verse/Outro)
d|--14~-------15~--|--14~-------15~--12~--|
a|-------12~-------|-------12~------------|
F|-----------------|----------------------|
C|-----------------|----------------------|
G|-----------------|----------------------|
D|-----------------|----------------------|
A|-----------------|----------------------|

Riff 9 (Bridge) Notes with ">" means it fades in.
d|---------|---------|---------|---------|
a|---------|---------|---------|---------|
F|---------|---------|---------|---------|
C|---------|---------|---------|--7>-----|
G|--9>-----|--7>-----|--9>-----|--5>-----|
D|--7>-----|--5>-----|--7>-----|---------|
A|-----00--|-----00--|-----00--|-----00--|

Riff 10 (Bridge)
d|---------|---------|---------|----------|
a|---------|---------|---------|----------|
F|---------|---------|---------|----------|
C|---------|---------|---------|----------|
G|--9>-----|--7>-----|--9>-----|--10>-----|
D|--7>-----|--5>-----|--7>-----|---8>-----|
A|-----00--|-----00--|-----00--|------00--|

Riff 11 (Bridge)
d|----------|-----------|-------------|-----------|
a|----------|-----------|-------------|-----------|
F|----------|-----------|-------------|-----------|
C|----------|-----------|-------------|-----------|
G|----------|-----------|-------------|-----------|
D|------~7~-|-------~7~-|---------~7~-|-------~7~-|
A|--00~-----|--0~0~-----|--00000~-----|--0~0~-----|
                             .                     .Palm-Mute
Riff 12 (Bridge)
d|-------------|------------|-------------|--------------|
a|-------------|------------|-------------|--------------|
F|-------------|------------|-------------|--------------|
C|-------------|------------|-------------|--------------|
G|-------------|------------|-------------|------10~-10~-|
D|--------~10~-|-------~10~-|--------~10~-|------10~-10~-|
A|--0~00~------|--0-0~------|--00000------|--0~---8~--8~-|
                                 .                        .Palm-Mute

----------------------------------------------------------

STRUCTURE:

0:00 - 0:09 = Riff 1
0:09 - 0:28 = Riff 2
0:28 - 0:47 = Riff 1
0:47 - 0:59 = Riff 3
0:59 - 1:03 = Riff 4 & Riff 5
1:04 - 1:08 = Riff 6 & Riff 7
1:08 - 1:13 = Riff 4 & Riff 5
1:13 - 1:18 = Riff 6 & Riff 7
1:18 - 1:27 = Riff 2 & Riff 8
1:27 - 1:46 = Riff 1
1:46 - 1:58 = Riff 3
1:58 - 2:03 = Riff 4 & Riff 5
2:03 - 2:08 = Riff 6 & Riff 7
2:08 - 2:12 = RIff 4 & Riff 5
2:13 - 2:17 = Riff 6 & Riff 7
2:18 - 2:36 = Riff 2 & Riff 9
2:36 - 2:55 = Riff 10
2:55 - 3:00 = Riff 11
3:00 - 3:05 = Riff 12
3:05 - 3:09 = Riff 11
3:09 - 3:14 = Riff 12
3:14 - 3:19 = Riff 4 & Riff 5
3:19 - 3:24 = Riff 6 & Riff 7
3:24 - 3:28 = Riff 4 & Riff 5
3:29 - 3:33 = Riff 6 & Riff 7
3:33 - FIN  = Riff 2 & Riff 8

----------------------------------------------------------

06. Paranoid And Aroused

Tuning: A Standard (7-String) A D G C F a d

^ = Bend-Up
~ = Note is held

Riff 1 (Intro/Chorus)
d|--------------|------------------|
a|--13~---------|--13~-------------| Plays in Intro and as
F|------16~-----|------16~---------| Guitar 2 behind the Chorus.
C|--------------|----------16~-----|
G|--------------|------------------|
D|--------------|------------------| __________________________
A|----------{x2}|--------------{x2}|                            \
                                                                 |PLAYED TOGETHER
Riff 2 (Intro/Chorus)                                            |IN CHORUS
d|--------------|--------------|---------------------------| /
a|--------------|--------------|---------------------------|
F|--------------|--------------|---------------------------|
C|--------------|--------------|---------------------------|
G|--7-----7-----|--7-----7-----|--7-----5-----7-----5------|
D|--------------|--------------|---------------------------|
A|---6-6---6-6--|---5-5---5-5--|---3-3---3-3---3-3---3-3---|

Riff 3 (Verse) Guitar 2
d|-------------|----------------|
a|-------------|----------------|
F|-------------|----------------|
C|-------------|----------------|
G|--5----------|----5-----------|
D|-------------|----------------| __________________
A|---3-0~--{x1}|--0--3-0~--{x14}|                    \
                  .              .Palm-Mute           |PLAYED
Riff 4 (Verse) Guitar 2                               |TOGETHER
d|------------|------------|-----------|-----------| /
a|--8-8-8-10--|--9-9-9-10--|--5-5-5-5--|--3-3-3-0--|
F|------------|------------|-----------|-----------|
C|------------|------------|-----------|-----------|
G|------------|------------|-----------|-----------|
D|------------|------------|-----------|-----------|
A|------------|------------|-----------|-----------|

Riff 5 (Verse)
d|-----------|------|-----------|
a|-----------|------|-----------|
F|-----------|------|-----------|
C|-----------|------|-----------|
G|-----------|--^---|-----------|
D|--77-7-77--|--9~--|--77-7-77--|
A|--55-5-55--|--7~--|--55-5-55--|

Riff 6 (Pre-Chorus)
d|------------------|------------------|
a|--13~-12~---------|--15~-13~-12~-----|
F|----------12~-----|------------------|
C|------------------|------------------|
G|------------------|------------------|
D|------------------|------------------|
A|--------------{x4}|--------------{x2}|

Riff 7 (Bridge)
d|----------------------------------------|
a|----------------------------------------|
F|----------------------------------------|
C|----------------------------------------|
G|----------------------------------------|
D|----------------------------------------|
A|--0--13-10-0-10-12--0--10-0-10-0-10-12--|

Riff 8 (Bridge)
d|------------------------------------|
a|------------------------------------|
F|------------------------------------|
C|------------------------------------|
G|------------------------------------|
D|---------------------------------7--|
A|--0--13-10-0-10-12--0--8-0-8-0-8----|

Riff 9 (Bridge)
d|--------------------------------|
a|--------------------------------|
F|--------------------------------|
C|--------------------------------|
G|--------------------------------|
D|-----------------------------8--|
A|--0--13-10-0-10-12--0--8-0-8-0--|

Riff 10 (Outro)
d|-------------|--------------|
a|-------------|--------------|
F|-------------|--------------|
C|--2---2------|---2---2------|
G|-------------|--------------|
D|-------------|--------------|
A|---0-0---{x1}|--0-00----{x6}|

Riff 11 (Outro)
d|-----------|
a|-----------|
F|-------0~--|
C|-------4~--|
G|---2---3~--|
D|-----------|
A|--0-000----|
       ..

----------------------------------------------------------

STRUCTURE:


~ INTRO ~

0:00 - 0:09 = Riff 1
0:10 - 0:30 = Riff 1 & 2

~ VERSE 1 ~

0:30 - 0:51 = Riff 3 & 4
0:51 - 0:55 = Riff 5
0:55 - 0:59 = Riff 6

~ CHORUS 1 ~

0:59 - 1:19 = Riff 1 & 2

~ VERSE 2 ~

1:19 - 1:40 = Riff 3 & 4
1:40 - 1:44 = Riff 5
1:44 - 1:48 = Riff 6

~ CHORUS 2 ~

1:48 - 2:08 = Riff 1 & 2

~ BRIDGE ~

2:09 - 2:37 = Riff 7 & 8
2:37 - 2:44 = Riff 9

~ CHORUS ~

2:44 - 3:04 = Riff 1 & 2

~ OUTRO ~

3:04 - 3:13 = Riff 10
3:13 - END  = Riff 11

----------------------------------------------------------

07. Never Never

Tuning: A Standard (7-String) A D G C F a d

~ - Hold until next note
\ - Slide-Down

Riff 1 (Intro)
d|-------------------|
a|-------------------|
F|--7~--2~--13~--4~--|
C|-------------------|
G|-------------------|
D|-------------------|
A|-------------------|

Riff 2 (Intro/Chorus) Basically the main riff.
d|--------------------|---------------------------|
a|--------------------|---------------------------|
F|--------------------|-----7~--------------------|
C|--------------------|-------7~------------------|
G|------7~------9~----|---------5~-----9~--11-----|
D|--5~--5~--7~--7~----|--5~--------7~--7~---9-----|
A|--3~------5~----{x2}|--3~--------5~---------{x2}|

Riff 3 (Bridge)
d|--------|--------|----------|------------|
a|--------|--------|----------|------------|
F|--------|--------|----------|------------|
C|--------|--------|----------|--77777777--|
G|--4444--|--2444--|--444444--|--55555555--|
D|--2222--|--2222--|--222222--|------------|
A|--------|--------|----------|------------|

Riff 4 (Bridge)
d|--------|--------|----------|------------|
a|--------|--------|----------|------------|
F|--------|--------|----------|------------|
C|--------|--------|----------|--77777666--|
G|--4444--|--2444--|--444444--|--55555444--|
D|--2222--|--2222--|--222222--|------------|
A|--------|--------|----------|------------|

----------------------------------------------------------

STRUCTURE:

~ INTRO ~

0:00 - 0:43 = Riff 1
0:21 - 0:43 = Riff 2

~ VERSE 1~

Nothing but electronics.

~ CHORUS 1 ~

1:05 - 1:27 = Riff 2

~ VERSE 2 ~

Nothing but electronics.

~ CHORUS 2 ~

1:49 - 2:11 = Riff 2

~ BRIDGE ~

2:22 - 2:44 = Riff 3 & 4

~ CHORUS 3 ~

2:47 - END  = Riff 2

----------------------------------------------------------

08. Punishment Time

Tuning: A Standard (7-String) A D G C F a d

~ - Hold until next note
. - Palm-Mute
h - Hammer-On

Riff 1 (Intro)
d|---------------|----------------|---------------|-----------------|
a|---------------|----------------|---------------|-----------------|
F|---------------|----------------|---------------|-----------------|
C|---------------|----------------|---------------|-----------------|
G|---------------|----------------|---------------|-----------------|
D|--5-7-8-7-5----|--5-7-8-7-5-----|--5-7-8-7-5----|-----------------|
A|------------0--|------------00--|------------0--|--2-5-2-1-4-1-0--|

Riff 2 (Intro)
d|--------------------|
a|--------------------|
F|--------------------|
C|--------------------|
G|--------------------|
D|--------------------|
A|--2-5-2-1-4-1-0-{x2}|

Riff 3 (Intro/Pre-Chorus/Outro)
d|---------------|----------------|---------------|-----------------|
a|---------------|----------------|---------------|-----------------|
F|---------------|----------------|---------------|-----------------|
C|---------------|----------------|---------------|-----------------|
G|--7-8-9-8-7----|--7-8-9-8-7-----|--7-8-9-8-7----|-----------------|
D|--6-7-8-7-6----|--6-7-8-7-6-----|--6-7-8-7-6----|-----------------|
A|------------0--|------------00--|------------0--|--2-5-2-1-4-1-0--|

Riff 4 (Intro)
d|--18~--|
a|--17~--|
F|--20~--|
C|-------|
G|-------|
D|-------|
A|-------|

Riff 5 (Verse)
d|---------------|---------------|---------------|-------------------|
a|---------------|---------------|---------------|-------------------|
F|---------------|---------------|---------------|-------------------|
C|---------------|---------------|---------------|-------------------|
G|---------------|---------------|---------------|-------------------|
D|--5-7-8-7-5----|----5-7-8-7----|--5-7-8-7-5----|-------------------|
A|------------0--|--0---------0--|------------0--|--0-2-5-2-1-4-1-0--|
    . . . . . .     . . . . . .     . . . . . .     . . . . . . . .   .Palm-Mute

Riff 6 (Chorus) 
d|----------|----------|-------------------|----------|
a|----------|----------|-------------------|----------|
F|--2~------|----------|--0-0-0-0-0-0-0-0--|--2~------|
C|--3~------|--2~------|--2-2-2-2-2-2-2-2--|--3~------|
G|--3~------|--3~------|--2-2-2-2-2-2-2-2--|--3~------|
D|--1~------|--3~------|--0-0-0-0-0-0-0-0--|--1~------|
A|-----{x16}|--1~-{x16}|-------------------|-----{x16}|

Riff 7 (Bridge)
D|----------------|----------------|----------------|-------------|
A|----5--5--5--5--|----3--3--3--3--|----3--3--3--3--|----5--5--5--|
F|----------------|----------------|----------------|-------------|
C|--3--3--3--3----|----------------|----------------|--5--5--5----|
G|----------------|--3--3--3--3----|--2--2--2--2----|-------------|
D|----------------|----------------|----------------|-------------|
A|----------------|----------------|----------------|-------------|

Riff 8 (Bridge/Pre-Chorus)
d|------------------|
a|-------------17~--|
F|-------------20~--|
C|------------------|
G|------------------|
D|--h6-h6-h6-0------|
A|------------------|


----------------------------------------------------------

STRUCTURE:

~ INTRO ~

0:00 - 0:19 = Riff 1
0:19 - 0:22 = Riff 2
0:22 - 0:43 = Riff 3
0:33 - 0:33 = Riff 4

~ VERSE 1 ~

0:44 - 1:04 = Riff 5
1:05 - 1:10 = Riff 3

~ CHORUS 1 ~

1:10 - 1:32 = Riff 6

~ VERSE 2 ~

1:34 - 1:53 = Riff 5
1:53 - 1:58 = Riff 3

~ CHORUS 2 ~

1:58 - 2:20 = Riff 6

~ BRIDGE ~

2:20 - 3:07 = Riff 7
3:07 - 3:18 = Riff 3
3:13 - 3:14 = Riff 4
2:19 - 3:20 = Riff 8

~ CHORUS 3 ~

3:21 - 3:44 = Riff 6

~ OUTRO ~

3:44 - END  = Riff 3 & 4

----------------------------------------------------------

09. Lullaby For A Sadist

Tuning: B Standard (7-String) B E A D G B E

~ - Hold Note Until Next

Riff 1 (Intro/verse)
E|-----------|-----------|-----------|-----------|
B|-----------|-----------|-----------|-----------|
G|-----------|-----------|-----------|-----------|
D|------4----|-----------|-----------|-----------|
A|----2---2--|----2-0-2--|----4-0-4--|----2-0-2--|
E|-----------|-----------|--2--------|--0--------|
B|--0--------|--0--------|-----------|-----------|

Riff 2 (Verse)
E|-----------|-----------|-----------|-----------|
B|-----------|-----------|-----------|-----------|
G|-----------|-----------|-----------|-----------|
D|------4----|-----------|-----------|-----------|
A|----2---2--|----2-0-2--|----4-0-4--|----2-0----|
E|-----------|-----------|--2--------|--0-----^--|
B|--0--------|--0--------|-----------|--------3--|

Riff 3 (Verse)
E|----------|------------|---------|------------|
B|----------|------------|---------|------------|
G|----------|------------|---------|------------|
D|----------|------------|---------|------------|
A|----------|------------|---------|------------|
E|--4~-4~4--|--5~5~5~5~--|--3~-3~--|--3~3~3~3~--|
B|--2~-2~2--|--3~3~3~3~--|--1~-1~--|--1~1~1~1~--|

Riff 4 (Pre-verse)
E|-----|-------------|-------|---------|
B|-----|-------------|-------|---------|
G|-----|-------------|-------|---------|
D|-----|-------------|-------|---------|
A|-----|-------------|-------|---------|
E|-----|------5------|-------|--7------|
B|--0--|--0-0---0-0--|--0-0--|----0-0--|

Riff 5 (Pre-Verse)
E|-----|-------------|-------|
B|-----|-------------|-------|
G|-----|-------------|-------|
D|-----|-------------|-------|
A|-----|-------------|-------|
E|-----|------5------|-------|
B|--0--|--0-0---0-0--|--0-0--|

Riff 6 (Chorus) Guitar 1
E|------|------|-------|NOTE: Skip to 3:27 in
B|------|------|-------|the song to see how this
G|--8~--|------|-------|part is played for the
D|--9~--|------|-------|chorus. This style applies
A|--6~--|--9~--|--10~--|for both the chorus and clean
E|--7~--|--9~--|--10~--|bridge part.
B|------|--7~--|---8~--|\
                         |PLAYED
Riff 7 (Chorus) Guitar 2 |TOGETHER
E|--------|-----------| /
B|----7~--|----7~-6~--|
G|--4~----|--2~-------|
D|--------|-----------|
A|--------|-----------|
E|--------|-----------|
B|--------|-----------|

Riff 8 (Chorus)
E|------|---------|---------|
B|------|---------|---------|
G|--8~--|---------|---------|
D|--9~--|---------|---------|
A|--6~--|--9~-9~--|--7~-7~--|
E|--7~--|--9~-9~--|--7~-7~--|
B|------|--7~-7~--|--5~-5~--|

Riff 9 (Pre-Verse 2)
E|-----------|-----------|-------------|
B|-----------|-----------|-------------|
G|-----------|-----------|-------------|
D|----1-2-1--|-----------|-------------|
A|--2--------|--0-4-5-4--|----2-0-2----|
E|-----------|-----------|--3-------3--|
B|-----------|-----------|-------------|

Riff 10 (Bridge)
E|------|    |------|They're using an pedal to get
B|------|    |------|that whammy effect that goes up and down
G|------|    |------|an octave. You could simulate it by using
D|------|    |------|the A string on the 2nd fret then open
A|--2~--| or |--2---|on the B string back and forth (an octave
E|--2~--|    |------|apart) same applies to the rest of the bridge
B|--0~--|    |---0--|that uses this effect.

Riff 11 (Bridge) Guitar 1
E|------|---------|------|------|
B|------|---------|------|------|
G|------|---------|------|------|
D|------|---------|------|------|
A|--2~--|--4~-5~--|--9~--|--8~--|
E|--2~--|--4~-5~--|--9~--|--8~--|
B|--0~--|--2~-3~--|--7~--|--6~--| \
                                   |PLAYED
Riff 12 (Bridge) Guitar 2          |TOGETHER
E|------|---------|------|------| /
B|------|---------|------|------|
G|------|---------|------|------|I'm pretty sure you can
D|--4~--|--6~-7~--|------|------|hear this part around 3:02.
A|--2~--|--4~-5~--|--4~--|--3~--|
E|------|---------|--2~--|--1~--|
B|------|---------|------|------|

Riff 13 (Outro)
E|------|
B|------|The finishing riff that
G|--8~--|holds until the song
D|--9~--|finishes.
A|--6~--|
E|--7~--|
B|------|

----------------------------------------------------------

STRUCTURE:

0:00 - 0:18 = Riff 1
0:18 - 0:24 = Riff 2
0:24 - 0:31 = Riff 1
0:31 - 0:37 = Riff 3
0:37 - 0:46 = Riff 4
0:46 - 0:49 = Riff 5
0:50 - 1:08 = Riff 6 & 7
1:08 - 1:15 = Riff 8
1:15 - 1:21 = Riff 9
1:21 - 1:27 = Riff 1
1:27 - 1:33 = Riff 2
1:34 - 1:40 = Riff 1
1:40 - 1:46 = Riff 3
1:46 - 1:55 = Riff 4
1:56 - 1:58 = Riff 5
1:59 - 2:17 = Riff 6 & 7
2:18 - 2:24 = Riff 8
2:24 - 2:36 = Riff 10
2:37 - 3:02 = Riff 11
3:02 - 3:27 = Riff 11 & 12
3:27 - 3:39 = Riff 6
3:39 - 3:58 = Riff 6 & 7
3:58 - 4:04 = Riff 8
4:04 - END  = Riff 13

----------------------------------------------------------

10. Victimized

Tuning: A Standard (7-String) A D G C F a d

~      - Hold Note/let ring out until next note
/ or \ - /Slide-up or \Slide-down
{x_}   - times played

Riff 1 (Intro)
d|----------------------|
a|----------------------|
F|--11~---------12~-14~-|
C|------12~-14~---------|
G|----------------------|
D|----------------------|
A|----------------------|

Riff 2 (Intro/Verse)
d|-------|---------------|---------------|---------------|
a|-------|---------------|---------------|---------------|
F|-------|---------------|---------------|---------------|
C|-------|---------------|---------------|---------------|
G|-------|---------------|---------------|---------------|
D|-------|---------------|------1--------|---------------|
A|--1-0--|--1-0-1-4-1-0--|--1-4---0-1-0--|--0-1-4-0-1-0--|

Riff 3 (Chorus/Bridge) Guitar 1
d|----------|----------|----------|
a|----------|----------|----------|
F|----------|----------|----------|
C|----------|----------|----------|
G|--9~------|--7~------|----------|
D|--7~------|--5~------|--8~------|
A|-----{x16}|------{x8}|--6~--{x8}|                        \
                                                            | PLAYED
Riff 4 (Chorus/Bridge) Guitar 2                             | TOGETHER
d|-----------|----------|----------|----------|----------| /
a|-----------|----------|----------|----------|----------|
F|--11~------|----------|----------|--12~-----|--14~-----|
C|-----------|--12~-----|--14~-----|----------|----------|
G|-----------|----------|----------|----------|----------|
D|-----------|----------|----------|----------|----------|
A|------{x12}|------{x4}|------{x8}|------{x4}|------{x4}|

Riff 5 (Chorus/Bridge) Guitar 1
d|----------|----------|----------|--------|
a|----------|----------|----------|--------|
F|----------|----------|----------|--------|
C|----------|----------|----------|--------|
G|--9~------|--7~------|----------|--------|
D|--7~------|--5~------|--8~------|----8~--|
A|-----{x16}|------{x8}|--6~--{x4}|--6.----|               \
                                                            | PLAYED
Riff 6 (Chorus/Bridge) Guitar 2                             | TOGETHER
d|-----------|----------|----------|----------|----------| /
a|-----------|----------|----------|----------|----------|
F|--11~------|----------|----------|----------|----------|
C|-----------|--12~-----|--14~-----|--12~-----|--11~-----|
G|-----------|----------|----------|----------|----------|
D|-----------|----------|----------|----------|----------|
A|------{x12}|------{x4}|------{x8}|------{x4}|------{x4}|

Riff 7 (Breakdown/Bridge)
d|----------|----------|---------|
a|----------|----------|---------|
F|----------|----------|---------|
C|----------|----------|---------|
G|----------|----------|---------|
D|--2~------|--0~------|---------|
A|-----{x16}|------{x8}|--1~-{x8}|

Riff 8 (Outro)
d|--------|----------------|----------------|----------------|-------|
a|--------|----------------|----------------|----------------|-------|
F|--------|----------------|----------------|----------------|-------|
C|--------|----------------|----------------|----------------|-------|
G|--------|----------------|----------------|----------------|-------|
D|--------|----------------|------1---------|----------------|--5/7\-|
A|--1-0~--|--1-0-1-4-1-0~--|--1-4---0-1-0~--|--0-1-4-0-1-0~--|-------|

Riff 9 (Outro)
d|--------|----------------|----------------|----------------|
a|--------|----------------|----------------|----------------|
F|--------|----------------|----------------|----------------|
C|--------|----------------|----------------|----------------|
G|--------|----------------|----------------|----------------|
D|--------|----------------|------1---------|----------------|
A|--1-0~--|--1-0-1-4-1-0~--|--1-4---0-1-0~--|--0-1-4-0-1-0---|

----------------------------------------------------------

STRUCTURE:

~ INTRO ~

0:00 - 0:09 = Riff 1
0:11 - 0:22 = Riff 2

~ VERSE 1 ~

0:22 - 0:43 = Riff 2

~ CHORUS 1 ~

0:45 - 0:50 = Riff 3 & 4
0:50 - 0:56 = Riff 5 & 6
0:56 - 1:01 = Riff 3 & 4
1:01 - 1:07 = Riff 5 & 6

~ VERSE 2 ~

1:07 - 1:40 = Riff 2

~ CHORUS 2 ~

1:41 - 1:46 = Riff 3 & 4
1:47 - 1:52 = Riff 5 & 6
1:52 - 1:58 = Riff 3 & 4
1:58 - 2:04 = Riff 5 & 6

~ BRIDGE ~

2:04 - 2:49 = Riff 7
2:49 - 2:54 = Riff 3 & 4
2:55 - 3:00 = Riff 5 & 6

~ CHORUS 3 ~

3:00 - 3:06 = Riff 3 & 4
3:06 - 3:11 = Riff 5 & 6
3:11 - 3:17 = Riff 3 & 4
3:18 - 3:22 = Riff 5 & 6

~ OUTRO ~

3:23 - 2:28 = Riff 8
3:28 - END  = Riff 9

----------------------------------------------------------

11. It's All Wrong

Tuning: A Standard (7-String) A D G C F a d

~ - Hold until next note
\ - Slide-Down

Riff 1 (Intro)
d|-------|---------|---------|-------------|
a|-------|---------|---------|-------------|
F|----7--|----5-7--|---------|----5--------|
C|-------|--7------|----5-8--|--8---7---5--|
G|--5----|---------|--5------|-------------|
D|-------|---------|---------|-------------|
A|-------|---------|---------|-------------|

Riff 2 (Intro/Pre-Verse/Outro)
d|----------|--------------|--------------|--------------|
a|----------|--------------|--------------|--------------|
F|----------|--------------|--------------|--------------|
C|----------|--------------|--------------|--------------|
G|-------5--|-----------6--|-----------5--|-----------6--|
D|----------|--------------|--------------|--------------|
A|--0-3~3---|--0-3-4-3~3---|--4-3-0-3~3---|--0-3-4-3~3---|

Riff 3 (Intro/Pre-Verse/Outro)
d|----------|--------------|--------------|------------------|
a|----------|--------------|--------------|------------------|
F|----------|--------------|--------------|------------------|
C|----------|--------------|--------------|------------------|
G|-------5--|-----------6--|-----------5--|------------------|
D|----------|--------------|--------------|------------------|
A|--0-3~3---|--0-3-4-3~3---|--4-3-0-3~3---|--0-3-4-3~3-3456--|

Riff 4 (Verse)
d|-----------------------|------------------------|
a|-----------------------|------------------------|
F|-----------------------|------------------------|
C|-----------------------|------------------------|
G|-----------------------|------------------------|
D|--10\------------------|--10\-------------------|
A|------3333-3343333-33--|------3333-334333-3456--|

Riff 5 (Chorus?) Song really doesn't have a chorus.
d|------------------|
a|------------------|
F|------------------|
C|------------------|
G|--7~--4~--8~------|
D|--5~--3~--6~--6~--|
A|--------------4~--|

Riff 6 (Chorus) Guitar 2
d|--------------------|--------------------|
a|----------------10--|--------------------|
F|----9-7---7---9-----|----9-7---7---7-10--|
C|--7-----7---7-------|--7-----7---7-------|
G|--------------------|--------------------|
D|--------------------|--------------------|
A|--------------------|--------------------|

Riff 7 (Chorus) Guitar 2
d|--------------------|------------------|
a|----------------10--|------------------|
F|----9-7---7---9-----|----9-7---10------|
C|--7-----7---7-------|--7-----7----7-8--|
G|--------------------|------------------|
D|--------------------|------------------|
A|--------------------|------------------|

Riff 8 (Bridge)
d|----------------|-----------------|----------------|
a|----------------|-----------------|----------------|
F|----------------|-----------------|----------------|
C|----------------|-----------------|----------------|
G|----------------|-----------------|----------------|
D|-------15-------|-------12--------|-------9--------|
A|--0-12----0-{x4}|--0-12----12-{x2}|--0-10---10-{x2}|

Riff 9 (Bridge)
d|-----------------|
a|-----------------|
F|-----------------|
C|-----------------|
G|--121212-121212--|
D|--101010-101010--|
A|-----------------|

----------------------------------------------------------

STRUCTURE:

~ INTRO ~

0:00 - 0:10 = Riff 1
0:10 - 0:15 = Riff 2
0:16 - 0:21 = Riff 3
0:22 - 0:26 = Riff 2
0:26 - 0:31 = Riff 3

~ VERSE 1 ~

0:31 - 0:52 = Riff 4

~ CHORUS 1 ~

0:52 - 0:58 = Riff 5 & 6
0:58 - 1:03 = Riff 5 & 7
1:03 - 1:08 = Riff 5 & 6
1:09 - 1:14 = Riff 5 & 7
1:14 - 1:19 = Riff 2
1:19 - 1:24 = Riff 3

~ VERSE 2 ~

1:24 - 1:45 = Riff 4

~ CHORUS 2 ~

1:45 - 1:50 = Riff 5 & 6
1:50 - 1:55 = Riff 5 & 7
1:56 - 2:01 = Riff 5 & 6
2:01 - 2:09 = Riff 5 & 7

~ BRIDGE ~

2:09 - 2:30 = Riff 8
2:30 - 2:39 = Riff 9
2:45 - 2:50 = Riff 2
2:50 - 2:55 = Riff 3

~ CHORUS 3 ~

2:55 - 3:00 = Riff 5 & 6
3:00 - 3:05 = Riff 5 & 7
3:06 - 3:11 = Riff 5 & 6
3:11 - 3:16 = Riff 5 & 7

~ OUTRO ~

3:16 - 3:21 = Riff 2
3:21 - END  = Riff 3

----------------------------------------------------------

If you believe this album tab is accurate, don't forget to leave
a good rating (It helps me out a lot) leave any questions
or corrections in the comments below.
comments
print report bad tab
4 comments total. Showing first comments.
0 reply
clm62800 wrote on October 21 2013, 03:15 pm

Very good job sir. 5*

0 reply
kozlowww wrote on October 21 2013, 04:34 pm

Yeah good! i want make again "Guitar Tab" section on KoRnweb.ru and i want copy your tabulatures.

how about bonus tracks?
12 Wish I Wasn't Born Today
13 Tell Me What You Want
14 Die Another Day
you can find it on KoRnweb

0 reply
macolicious14 wrote on October 24 2013, 06:45 pm

Excellent job! Thank you for posting this!

I want to post or [tab]
guest
You may want to rate the tab now too:
select rating
Please do not post tabs as comments. Select "correction" instead!