Oops, an error
Loading. Please wait.

Untitled Tab

by Korn
ver1
ver1

Album

Whole song

More versions @911Tabs.com
5,042 views 3 this week
5 commentsread comments
1 2 3 4 5
excellent!
x 6
add to favorites launch autoscroll
font size
0
reset
Autoscroll
+/-
esc
set tempo
stop
Contributor
Difficulty
intermediate
WARNING: You are trying to view
                                    content from Ultimate-Guitar.com
                                    in an unauthorized application,
                                    which is prohibited.

                                    Please use an official Ultimate
                                    Guitar Tabs application for iPhone,
                                    iPad or Android to access legitimate
                                    chords, guitar, bass, and drum tabs
                                    from Ultimate-Guitar.com database.

                                    Type "ultimate guitar tabs" in Apple
                                    App Store's or Android Market's
                                    search to find the application.
KoRn - Untitled

Tabbed by Elvisz (elvisz84@yahoo.com)
Tuning : 7 String Tuned Low to High (A D G C F a d)

Tracklist:
 1) Intro                  (done)
 2) Starting Over          (done)
 3) Bitch We Got A Problem (done)
 4) Evolution              (done)
 5) Hold On                (done)
 6) Kiss                   (done)
 7) Do What They Say       (done)
 8) Ever Be                (done)
 9) Love And Luxury        (done)
10) Innocent Bystander     (done)
11) Killing                (done)
12) Hushabye               (done)
13) I Will Protect You     (done)
14) Sing Sorrow            (done)
15) Overture Or Obituary   (missing)

As you can see one song is still not done from the album, i will update the tab when im
done with that songs too. Until then have fun with these tabs.

KoRn - Intro - Untitled

Tabbed by Elvisz (elvisz84@yahoo.com)
Tuning : 7 String Tuned Low to High (A D G C F a d)

Vocal: Jonathan Houseman Davis 'Hiv'
Guitar: James Randal Shaffer 'Munky'
Bass: Reginald Arvizu 'Fieldy'
Drums: Terry Bozzio

Keyboard:
d|-------------------------------------------------------|
a|-------------------------------------------------------|
F|-9~-8~-7~-6~-11~-10~-9~-8~-13~-12~-11~-10~-9~-8~-7~-6~-|
C|-------------------------------------------------------|
G|-------------------------------------------------------|
D|-------------------------------------------------------|
A|-------------------------------------------------------|

Guitar:
d|----------------------------------------------------------------|
a|----------------------------------------------------------------|
F|----------------------------------------------------------------|
C|----------------------------------------------------------------|
G|----------------------------------------------------------------|
D|-12/13\12\11/12\11\10/11\10\9~~-14/15\14\13/14\13\12/13\12\11~~-|
A|----------------------------------------------------------------|

d|--------------------------------------------------------------------|
a|--------------------------------------------------------------------|
F|--------------------------------------------------------------------|
C|--------------------------------------------------------------------|
G|--------------------------------------------------------------------|
D|-16/17\16\15/16\15\14/15\14\13/14\13\12/13\12\11/12\11\10/11\10\9~~-|
A|--------------------------------------------------------------------|

d|-----------------------------------------------------------------|
a|-----------------------------------------------------------------|
F|-----------------------------------------------------------------|
C|-14/15\14\13/14\13\12/13\12\11~~-16/17\16\15/16\15\14/15\14\13~~-|
G|-xxxxxxxxxxxxxxxxxxxxxxxxxxxxxxx-xxxxxxxxxxxxxxxxxxxxxxxxxxxxxxx-|
D|-12/13\12\11/12\11\10/11\10\ 9~~-14/15\14\13/14\13\12/13\12\11~~-|
A|-----------------------------------------------------------------|

d|---------------------------------------------------------------------|
a|---------------------------------------------------------------------|
F|---------------------------------------------------------------------|
C|-18/19\18\17/18\17\16/17\16\15/16\15\14/15\14\13/14\13\12/13\12\11~~-|
G|-xxxxxxxxxxxxxxxxxxxxxxxxxxxxxxxxxxxxxxxxxxxxxxxxxxxxxxxxxxxxxxxxxxx-|
D|-16/17\16\15/16\15\14/15\14\13/14\13\12/13\12\11/12\11\10/11\10\ 9~~-|
A|---------------------------------------------------------------------|

Guitar2:
d|-----------------------------------------------------------------|
a|-17/18\17\16/17\16\15/16\15\14~~-19/20\19\18/19\18\17/18\17\16~~-|
F|-----------------------------------------------------------------|
C|-----------------------------------------------------------------|
G|-----------------------------------------------------------------|
D|-----------------------------------------------------------------|
A|-----------------------------------------------------------------|

d|---------------------------------------------------------------------|
a|-21/22\21\20/21\20\19/20\19\18/19\18\17/18\17\16/17\16\15/16\15\14~~-|
F|---------------------------------------------------------------------|
C|---------------------------------------------------------------------|
G|---------------------------------------------------------------------|
D|---------------------------------------------------------------------|
A|---------------------------------------------------------------------|

KoRn - Starting Over - Untitled

Tabbed by Elvisz (elvisz84@yahoo.com)
Tuning : 7 String Tuned Low to High (A D G C F a d)

Vocal: Jonathan Houseman Davis 'Hiv'
Guitar: James Randal Shaffer 'Munky'
Bass: Reginald Arvizu 'Fieldy'
Drums: Terry Bozzio

Intro:
d|----------------------------------------------|
a|----------------------------------------------|
F|----------------------------------------------|
C|-16~~~~~~~~~~~16^(17)`16~~~~~~~~~~~~~~~~~~~~~-|	(guitar1)
G|----------------------------------------------|
D|----------------------------------------------|
A|----------------------------------------------|

d|-------------------------------------------|
a|-------------------------------------------|
F|-------------------------------------------|
C|-------------------------------------------|	(guitar2)
G|-------------------------------------------|
D|-------------------------------------------|
A|-0-0--0-00--0-0--0-00--0-3--3-33--3-1-1-11-|
   ~~~~~~~~~~~~~~~~~~~~~~~~~~~~~~~~~~~~~~~~~~~~~with wah

Pre-Chorus:
d|-------------------------------|
a|-------------------------------|
F|-------------------------------|
C|-------------------------------|
G|-------------------------------|
D|-2-2x--2-2x--3/5x--5\3x---3-3x-|
A|-0-0x--0-0x--1/3x--3\1x---1-1x-|
   . .   . .   . .   . .    . .   .palm mute

Chorus:
d|---------------------------------------------------|
a|---------------------------------------------------|
F|---------------------------------------------------|
C|-----99999999-----99999999-----99999999------------|	(guitar1)
G|---------------------------------------------------|
D|-2-2x--------22-2x---------2-2x---------5-5x--3-3x-|
A|-0-0x--------00-0x---------0-0x---------3-3x--1-1x-|
   . .         .. .          . .          . .   . .   palm mute

d|---------------------------------------------------------|
a|---------------------------------------------------------|
F|---------------------------------------------------------|
C|-----99999999-----99999999-----99999999------------------|	(guitar1)
G|---------------------------------------------------------|
D|32-2x--------22-2x---------2-2x---------5-5x----3-3x-----|
A|10-0x--------00-0x---------0-0x---------3-3x----1-1x-----|
  .. .         .. .          . .          . .     . .       palm mute

d|---------------------------------------------------------|
a|---------------------------------------------------------|
F|---------------------------------------------------------|
C|---------------------------------------------------------|	(guitar2)
G|--------------------------------------------<17>----<17>-|    <harmonics
D|---------------------------------------------------------|
A|---------------------------------------------------------|

Pre-Verse:
d|-------------------------------|
a|-------------------------------|
F|-------------------------------|
C|-------------------------------|	(guitar1)
G|-------------------------------|
D|-2-2x--2-2x--2-2x--5\3x---3-3x-|
A|-0-0x--0-0x--0-0x--3\1x---1-1x-|
   . .   . .   . .   . .    . .   .palm mute

d|-----------------------------------------------------|
a|-----------------------------------------------------|
F|-----------------------------------------------------|
C|-999~99-99-9~-999~99-99-9~-999~99-99-9~-77779x55557x-|	(guitar2)
G|-----------------------------------------------------|
D|-----------------------------------------------------|
A|-----------------------------------------------------|

Verse:
d|----------------------------------------------|
a|----------------------------------------------|
F|----------------------------------------------|
C|-16~~~~~~~~~~~16^(17)`16~~~~~~~~~~~~~~~~~~~~~-|	(guitar1)
G|----------------------------------------------|
D|----------------------------------------------|
A|----------------------------------------------|

d|-------------------------------------------|
a|-------------------------------------------|
F|-------------------------------------------|
C|-------------------------------------------|	(guitar2)
G|-------------------------------------------|
D|-------------------------------------------|
A|-0-0--0-00--0-0--0-00--0-3--3-33--3-1-1-11-|
   ~~~~~~~~~~~~~~~~~~~~~~~~~~~~~~~~~~~~~~~~~~~~~with wah

Fill1:
d|------------------|
a|------------------|
F|------------------|
C|------------------|	(guitar1)
G|-5\3x---3-3x-2-2x-|
D|-5\3x---3-3x-2-2x-|
A|-3\1x---1-1x-0-0x-|
   . .    . .  . .   .palm mute

d|----------------------|
a|----------------------|
F|----------------------|
C|-12\10x--10-10x-9x-9x-|	(guitar2)
G|-12\10x--10-10x-9x-9x-|
D|-10\10x-- 8- 8x-7x-7x-|
A|----------------------|
   ......  .. ..  .. ..  .palm mute

Pre-Chorus:
d|-------------------------------|
a|-------------------------------|
F|-------------------------------|
C|-------------------------------|
G|-------------------------------|
D|-2-2x--2-2x--3/5x--5\3x---3-3x-|
A|-0-0x--0-0x--1/3x--3\1x---1-1x-|
   . .   . .   . .   . .    . .   .palm mute

Chorus:
d|---------------------------------------------------|
a|---------------------------------------------------|
F|---------------------------------------------------|
C|-----99999999-----99999999-----99999999------------|	(guitar1)
G|---------------------------------------------------|
D|-2-2x--------22-2x---------2-2x---------5-5x--3-3x-|
A|-0-0x--------00-0x---------0-0x---------3-3x--1-1x-|
   . .         .. .          . .          . .   . .   palm mute

d|---------------------------------------------------------|
a|---------------------------------------------------------|
F|---------------------------------------------------------|
C|-----99999999-----99999999-----99999999------------------|	(guitar1)
G|---------------------------------------------------------|
D|32-2x--------22-2x---------2-2x---------5-5x----3-3x-----|
A|10-0x--------00-0x---------0-0x---------3-3x----1-1x-----|
  .. .         .. .          . .          . .     . .       palm mute

d|---------------------------------------------------------|
a|---------------------------------------------------------|
F|---------------------------------------------------------|
C|---------------------------------------------------------|	(guitar2)
G|--------------------------------------------<17>----<17>-|    <harmonics
D|---------------------------------------------------------|
A|---------------------------------------------------------|

Fill2:
d|------------------------------------------------------------|
a|------------------------------------------------------------|
F|------------------------------------------------------------|
C|------------------------------------------------------------|
G|-1717171717171717191919191919191616161617171616141421211414-|
D|------------------------------------------------------------|
A|------------------------------------------------------------|

d|----------------------------------------------------------------------|
a|----------------------------------------------------------------------|
F|----------------------------------------------------------------------|
C|----------------------------------------------------------------------|
G|-17171717171717171919191919191916161616141414141616161717171721212121-|
D|----------------------------------------------------------------------|
A|----------------------------------------------------------------------|

Outro:
d|-----------------------------------------------------|
a|-----------------------------------------------------|
F|11111111111111111-1111111111111111-99999999-66666666-|
C|-xxxxxxxxxxxxxxxx-xxxxxxxxxxxxxxxx-xxxxxxxx-xxxxxxxx-|
G|- 9 9 9 9 9 9 9 9- 9 9 9 9 9 9 9 9-77777777-44444444-|
D|-----------------------------------------------------|
A|-----------------------------------------------------|

d|----------------------------------------------------------|
a|----------------------------------------------------------|
F|11111111111111111-1111111111111111-1414\999999-66666/77/9-|
C|-xxxxxxxxxxxxxxxx-xxxxxxxxxxxxxxxx-xxxxxxxxxxx-xxxxxxxxxx-|
G|- 9 9 9 9 9 9 9 9- 9 9 9 9 9 9 9 9-1212\777777-44444/55/7-|
D|----------------------------------------------------------|
A|----------------------------------------------------------|

KoRn - Bitch We Got A Problem - Untitled

Tabbed by Elvisz (elvisz84@yahoo.com)
Tuning : 7 String Tuned Low to High (A D G C F a d)

Vocal: Jonathan Houseman Davis 'Hiv'
Guitar: James Randal Shaffer 'Munky'
Bass: Reginald Arvizu 'Fieldy'
Drums: Jonathan Houseman Davis 'Hiv'

Intro:
d|-----------------------------------------------------------------|
a|-15^-----15^-----15^-----15^-----15^-----15^-----15^-----15^-----|
F|-17^(19)-17^(19)-17^(19)-17^(19)-17^(19)-17^(19)-17^(19)-17^(19)-|
C|-----------------------------------------------------------------|
G|-----------------------------------------------------------------|
D|-----------------------------------------------------------------|
A|-----------------------------------------------------------------|

d|-----------------------------------------------------------------|
a|-18^-----18^-----18^-----18^-----18^-----18^-----18^-----18^-----|
F|-20^(22)-20^(22)-20^(22)-20^(22)-20^(22)-20^(22)-20^(22)-20^(22)-|
C|-----------------------------------------------------------------|
G|-----------------------------------------------------------------|
D|-----------------------------------------------------------------|
A|-----------------------------------------------------------------|

Verse:
(guitar1)
d|---------------------------------------------|
a|---------------------------------------------|
F|---------------------------------------------|
C|---------------------------------------------|
G|---------------------------------------------|
D|---------------------------------------------|
A|-9-7-9-777-9-777-710~~--9-7-9-777-9-777-97~~-|

d|-----------------------------------------|
a|-----------------------------------------|
F|-----------------------------------------|
C|-----------------------------------------|
G|-----------------------------------------|
D|-999-9-9-9-999-9-9-9-999-9-9-9-999-9-9-9-|
A|-777-7-7-7-777-7-7-7-777-7-7-7-777-7-7-7-|

(guitar2)
d|-----------------------------------------------------------------|
a|-15^-----15^-----15^-----15^-----15^-----15^-----15^-----15^-----|
F|-17^(19)-17^(19)-17^(19)-17^(19)-17^(19)-17^(19)-17^(19)-17^(19)-|
C|-----------------------------------------------------------------|
G|-----------------------------------------------------------------|
D|-----------------------------------------------------------------|
A|-----------------------------------------------------------------|

d|-----------------------------------------------------------------|
a|-18^-----18^-----18^-----18^-----18^-----18^-----18^-----18^-----|
F|-20^(22)-20^(22)-20^(22)-20^(22)-20^(22)-20^(22)-20^(22)-20^(22)-|
C|-----------------------------------------------------------------|
G|-----------------------------------------------------------------|
D|-----------------------------------------------------------------|
A|-----------------------------------------------------------------|

Chorus:
(guitar1)
d|---------------------------------------|
a|---------------------------------------|
F|---------------------------------------|
C|---------------------------------------|
G|-1111~~~~-1313~~~~-1212~~~~~-1111~~~~~-|
D|-1111~~~~-1313~~~~-1212~~~~~-1111~~~~~-|
A|- 9 9~~~~-1111~~~~-1010~~~~~- 9 9~~~~~-|
   ..       ..       ..        ..         .palm mute

(guitar2)
d|----------------------------------------------------------------|
a|-12------------12---------------16----12----14----12------------|
F|----13------------13---------------13----13----13----13---------|
C|-------12-11-9-------12-11-11/9-------------------------12-11-9-|
G|----------------------------------------------------------------|
D|----------------------------------------------------------------|
A|----------------------------------------------------------------|

d|--------------------------------------------------------------------|
a|-16----12----14----16----12----14----16----12----12-----------------|
F|----13----13----13----13----13----13----13----13----13--------------|
C|-------------------------------------------------------12-11-9------|
G|---------------------------------------------------------------11-9-|
D|--------------------------------------------------------------------|
A|--------------------------------------------------------------------|

Verse:
(guitar1)
d|---------------------------------------------|
a|---------------------------------------------|
F|---------------------------------------------|
C|---------------------------------------------|
G|---------------------------------------------|
D|---------------------------------------------|
A|-9-7-9-777-9-777-710~~--9-7-9-777-9-777-97~~-|

d|-----------------------------------------|
a|-----------------------------------------|
F|-----------------------------------------|
C|-----------------------------------------|
G|-----------------------------------------|
D|-999-9-9-9-999-9-9-9-999-9-9-9-999-9-9-9-|
A|-777-7-7-7-777-7-7-7-777-7-7-7-777-7-7-7-|

(guitar2)
d|-----------------------------------------------------------------|
a|-15^-----15^-----15^-----15^-----15^-----15^-----15^-----15^-----|
F|-17^(19)-17^(19)-17^(19)-17^(19)-17^(19)-17^(19)-17^(19)-17^(19)-|
C|-----------------------------------------------------------------|
G|-----------------------------------------------------------------|
D|-----------------------------------------------------------------|
A|-----------------------------------------------------------------|

d|-----------------------------------------------------------------|
a|-18^-----18^-----18^-----18^-----18^-----18^-----18^-----18^-----|
F|-20^(22)-20^(22)-20^(22)-20^(22)-20^(22)-20^(22)-20^(22)-20^(22)-|
C|-----------------------------------------------------------------|
G|-----------------------------------------------------------------|
D|-----------------------------------------------------------------|
A|-----------------------------------------------------------------|

Chorus:
(guitar1)
d|---------------------------------------|
a|---------------------------------------|
F|---------------------------------------|
C|---------------------------------------|
G|-1111~~~~-1313~~~~-1212~~~~~-1111~~~~~-|
D|-1111~~~~-1313~~~~-1212~~~~~-1111~~~~~-|
A|- 9 9~~~~-1111~~~~-1010~~~~~- 9 9~~~~~-|
   ..       ..       ..        ..         .palm mute

(guitar2)
d|----------------------------------------------------------------|
a|-12------------12---------------16----12----14----12------------|
F|----13------------13---------------13----13----13----13---------|
C|-------12-11-9-------12-11-11/9-------------------------12-11-9-|
G|----------------------------------------------------------------|
D|----------------------------------------------------------------|
A|----------------------------------------------------------------|

d|--------------------------------------------------------------------|
a|-16----12----14----16----12----14----16----12----12-----------------|
F|----13----13----13----13----13----13----13----13----13--------------|
C|-------------------------------------------------------12-11-9------|
G|---------------------------------------------------------------11-9-|
D|--------------------------------------------------------------------|
A|--------------------------------------------------------------------|

Bridge1:
d|-------------------------------------|
a|-------------------------------------|
F|-------------------------------------|
C|-------------------------------------|
G|-8\\5-55-5-55555/8\3-55-5-5-5555/8\3-|
D|-8\\5-55-5-55555/8\3-55-5-5-5555/8\3-|
A|-6\\3-33-3-33333/6\1-33-3-3-3333/6\1-|

Bridge2:
d|-------------------------|
a|-------------------------|
F|-------------------------|
C|-9/10/11/12--9~/10/11/12-|
G|-xxxxxxxxxx--xxxxxxxxxxx-|
D|-7/ 8/ 9/10--7~/ 8/ 9/10-|
A|-------------------------|

Bridge3:
(guitar1)
d|---------------------------------------------|
a|---------------------------------------------|
F|---------------------------------------------|
C|---------------------------------------------|
G|---------------------------------------------|
D|---------------------------------------------|
A|-9-7-9-777-9-777-710~~--9-7-9-777-9-777-97~~-|

(guitar2)
d|-----------------------------------|
a|-----------------------------------|
F|-----------------------------------|
C|-///18~~~~~16~~~~~15~~~~~13~~~~~~~-|
G|-----------------------------------|
D|-----------------------------------|
A|-----------------------------------|

Bridge4:
(guitar1)
d|---------------------------------------------|
a|---------------------------------------------|
F|---------------------------------------------|
C|---------------------------------------------|
G|---------------------------------------------|
D|---------------------------------------------|
A|-9-7-9-777-9-777-710~~--9-7-9-777-9-777-97~~-|

(guitar2)
d|-----------------------------------|
a|-----------------------------------|
F|-----------------------------------|
C|-///18~~~~~16~~~~~15~~~~~13~~~~~~~-|
G|-----------------------------------|
D|-----------------------------------|
A|-----------------------------------|

(guitar3)
d|----------------------------------------|
a|----------------------------------------|
F|----------------------------------------|
C|-1615-1615-1615-1615-1615--11-11-9-9-6--|
G|-xxxx-xxxx-xxxx-xxxx-xxxx--xx-xx-x-x-x--|
D|-1413-1413-1413-1413-1413-- 9- 9-7-7-4~-|
A|----------------------------------------|

Chorus:
(guitar1)
d|---------------------------------------|
a|---------------------------------------|
F|---------------------------------------|
C|---------------------------------------|
G|-1111~~~~-1313~~~~-1212~~~~~-1111~~~~~-|
D|-1111~~~~-1313~~~~-1212~~~~~-1111~~~~~-|
A|- 9 9~~~~-1111~~~~-1010~~~~~- 9 9~~~~~-|
   ..       ..       ..        ..         .palm mute

(guitar2)
d|----------------------------------------------------------------|
a|-12------------12---------------16----12----14----12------------|
F|----13------------13---------------13----13----13----13---------|
C|-------12-11-9-------12-11-11/9-------------------------12-11-9-|
G|----------------------------------------------------------------|
D|----------------------------------------------------------------|
A|----------------------------------------------------------------|

d|--------------------------------------------------------------------|
a|-16----12----14----16----12----14----16----12----12-----------------|
F|----13----13----13----13----13----13----13----13----13--------------|
C|-------------------------------------------------------12-11-9------|
G|---------------------------------------------------------------11-9-|
D|--------------------------------------------------------------------|
A|--------------------------------------------------------------------|

Bridge5:
(guitar1)
d|---------------------------------------|
a|---------------------------------------|
F|---------------------------------------|
C|---------------------------------------|
G|-1111~~~~-1313~~~~-1212~~~~~-1111~~~~~-|
D|-1111~~~~-1313~~~~-1212~~~~~-1111~~~~~-|
A|- 9 9~~~~-1111~~~~-1010~~~~~- 9 9~~~~~-|
   ..       ..       ..        ..         .palm mute

(guitar2)
d|--------------------------------|
a|--------------------------------|
F|-xx-16-161616-xx-16111113-13-xx-|
C|-xx-xx-xxxxxx-xx-xxxxxxxx-xx-xx-|
G|-xx-14-141414-xx-14 9 911-11-xx-|
D|--------------------------------|
A|--------------------------------|

d|--------------------------------|
a|--------------------------------|
F|-xx-16-161616-xx-1818^1818^^-xx-|
C|-xx-xx-xxxxxx-xx-xxxxxxxx-xx-xx-|
G|-xx-14-141414-xx-1616^1616^^-xx-|
D|--------------------------------|
A|--------------------------------|

Outro:
(guitar1)
d|---------------------------------------|
a|---------------------------------------|
F|---------------------------------------|
C|---------------------------------------|
G|-1111~~~~-1313~~~~-1212~~~~~-1111~~~~~-|
D|-1111~~~~-1313~~~~-1212~~~~~-1111~~~~~-|
A|- 9 9~~~~-1111~~~~-1010~~~~~- 9 9~~~~~-|
   ..       ..       ..        ..         .palm mute

(guitar2)
d|--------------------------------|
a|--------------------------------|
F|-xx-16-161616-xx-16111113-13-xx-|
C|-xx-xx-xxxxxx-xx-xxxxxxxx-xx-xx-|
G|-xx-14-141414-xx-14 9 911-11-xx-|
D|--------------------------------|
A|--------------------------------|

d|--------------------------------|
a|--------------------------------|
F|-xx-16-161616-xx-1818^1818^^-xx-|
C|-xx-xx-xxxxxx-xx-xxxxxxxx-xx-xx-|
G|-xx-14-141414-xx-1616^1616^^-xx-|
D|--------------------------------|
A|--------------------------------|

(guitar3;the last 8 times hec only bends the notes up and down)
d|-----------------------------------------------------------------|
a|-15^-----15^-----15^-----15^-----15^-----15^-----15^-----15^-----|
F|-17^(19)-17^(19)-17^(19)-17^(19)-17^(19)-17^(19)-17^(19)-17^(19)-|
C|-----------------------------------------------------------------|
G|-----------------------------------------------------------------|
D|-----------------------------------------------------------------|
A|-----------------------------------------------------------------|

KoRn - Evolution - Untitled

Tabbed by Elvisz (elvisz84@yahoo.com)
Tuning : 7 String Tuned Low to High (A D G C F a d)

Vocal: Jonathan Houseman Davis 'Hiv'
Guitar: James Shaffer "Munky"
Bass: Reginald Arvizu 'Fieldy'
Drums: Terry Bozzio

Intro:(synth)
d|------------------------------------------|
a|------------------------------------------|
F|-21~--19~--------22~--21~--2119~-~~~------|
C|-----------21~------------------------21~>|
G|------------------------------------------|
D|------------------------------------------|
A|------------------------------------------|

(guitar)
d|----------|
a|----------|
F|----------|
C|----------|
G|-7x-7x-8x-|
D|-7x-7x-8x-|
A|-5x-5X-6x-|

Pre-Chorus:
d|---------------------------------|
a|---------------------------------|
F|---------------------------------|
C|---------------------------------|
G|-877x---77-777-777-888-88-888-88-|
D|-877x---77-777-777-888-88-888-88-|
A|-655x---55-555-555-666-66-666-66-|
          .. ..  ..  ..  .. ..  ..  .palm mute

Fill1:
d|-------------------------------------------------|
a|-------------------------------------------------|
F|-------------------------------------------------|
C|-------------------------------------------------|
G|-------10-------10-------------10-------10-------|
D|----12-------12-------12----12-------12-------12-|
A|-11-------11-------11----10-------10-------10----|
   .. ..    .. ..    .. .. .. ..    .. ..    .. ..  .palm mute

d|-------------------------------------------|
a|-------------------------------------------|
F|-------------------------------------------|
C|-------------------------------------------|
G|------10------10-----------10------10------|
D|---11------11------11---10------10------10-|
A|-9-------9-------9----8-------8-------8----|
   . ..    . ..    . .. . ..    . ..    . ..  .palm mute

Chorus:
d|-------------------------------------------------------------------------|
a|-------------------------------------------------------------------------|
F|-------------------------------------------------------------------------|
C|-------------------------------------------------------------------------|	(guitar1)
G|-77777777--575-1010101010101010-575-1212121212121212-5~~~~-777777777-575-|
D|-77777777--575-1010101010101010-575-1212121212121212-5~~~~-777777777-575-|
A|-55555555--353- 8 8 8 8 8 8 8 8-353-1010101010101010-3~~~~-555555555-353-|

d|-------------------------------------------------------------------------|
a|-------------------------------------------------------------------------|
F|-------------------------------------------------------------------------|
C|-------------------------------------------------------------------------|	(guitar2)
G|-7910-7910-710-575-7910-7910-710-575-7910-7910-710-5~~~7910-7910-710-575-|
D|---------------575---------------575---------------5~~~--------------575-|
A|---------------353---------------575---------------5~~~--------------575-|

d|--------------------------------------------------|
a|--------------------------------------------------|
F|--------------------------------------------------|
C|-212121212121212119191919191919191717171717171717-|	(synth)
G|-xxxxxxxxxxxxxxxxxxxxxxxxxxxxxxxxxxxxxxxxxxxxxxxx-|
D|-191919191919191917171717171717171515151515151515-|
A|--------------------------------------------------|

Fill2:
d|------------------------------------------|
a|------------------------------------------|
F|-21~~-19~~--------------------------------|
C|-----------21~~-22~~-19~\\\\\\\\\\\\\\\\\-|
G|------------------------------------------|
D|------------------------------------------|
A|------------------------------------------|

Verse:(synth)
d|------------------------------------------|
a|------------------------------------------|
F|-21~--19~--------22~--21~--2119~-~~~------|
C|-----------21~------------------------21~>|
G|------------------------------------------|
D|------------------------------------------|
A|------------------------------------------|

(guitar)
d|----------|
a|----------|
F|----------|
C|----------|
G|-7x-7x-8x-|
D|-7x-7x-8x-|
A|-5x-5X-6x-|

Pre-Chorus:
d|---------------------------------|
a|---------------------------------|
F|---------------------------------|
C|---------------------------------|
G|-877x---77-777-777-888-88-888-88-|
D|-877x---77-777-777-888-88-888-88-|
A|-655x---55-555-555-666-66-666-66-|
          .. ..  ..  ..  .. ..  ..  .palm mute

Fill1:
d|-------------------------------------------------|
a|-------------------------------------------------|
F|-------------------------------------------------|
C|-------------------------------------------------|
G|-------10-------10-------------10-------10-------|
D|----12-------12-------12----12-------12-------12-|
A|-11-------11-------11----10-------10-------10----|
   .. ..    .. ..    .. .. .. ..    .. ..    .. ..  .palm mute

d|-------------------------------------------|
a|-------------------------------------------|
F|-------------------------------------------|
C|-------------------------------------------|
G|------10------10-----------10------10------|
D|---11------11------11---10------10------10-|
A|-9-------9-------9----8-------8-------8----|
   . ..    . ..    . .. . ..    . ..    . ..  .palm mute

Chorus:
d|-------------------------------------------------------------------------|
a|-------------------------------------------------------------------------|
F|-------------------------------------------------------------------------|
C|-------------------------------------------------------------------------|	(guitar1)
G|-77777777--575-1010101010101010-575-1212121212121212-5~~~~-777777777-575-|
D|-77777777--575-1010101010101010-575-1212121212121212-5~~~~-777777777-575-|
A|-55555555--353- 8 8 8 8 8 8 8 8-353-1010101010101010-3~~~~-555555555-353-|

d|-------------------------------------------------------------------------|
a|-------------------------------------------------------------------------|
F|-------------------------------------------------------------------------|
C|-------------------------------------------------------------------------|	(guitar2)
G|-7910-7910-710-575-7910-7910-710-575-7910-7910-710-5~~~7910-7910-710-575-|
D|---------------575---------------575---------------5~~~--------------575-|
A|---------------353---------------575---------------5~~~--------------575-|

d|--------------------------------------------------|
a|--------------------------------------------------|
F|--------------------------------------------------|
C|-212121212121212119191919191919191717171717171717-|	(synth)
G|-xxxxxxxxxxxxxxxxxxxxxxxxxxxxxxxxxxxxxxxxxxxxxxxx-|
D|-191919191919191917171717171717171515151515151515-|
A|--------------------------------------------------|

Bridge1:
d|-------------------------------------------------------------------------|
a|-------------------------------------------------------------------------|
F|-------------------------------------------------------------------------|
C|-1414141513-xxxxxxxx-1414141513-xxxxxxxx-1919191916-xxxxxxxxx-2121212116-|
G|-xxxxxxxxxx-xxxxxxxx-xxxxxxxxxx-xxxxxxxx-xxxxxxxxxx-xxxxxxxxx-xxxxxxxxxx-|
D|-1212121311-xxxxxxxx-1212121311-xxxxxxxx-1717171714-xxxxxxxxx-1919191914-|
A|-------------------------------------------------------------------------|

Bridge2:
d|-----------------------------------------------|
a|-----------------------------------------------|
F|-----------------------------------------------|
C|-----------------------------------------------|
G|-----------------------------------------------|
D|-----------------------------------------------|
A|-4/55-4/77---4/55-4/77---8\77-8\55---8\77-8\55-|
   . .. . ..   . .. . ..   . .. . ..   . .. . ..  .palm mute

Bridge3:
d|--------------------------------------------------------|
a|--------------------------------------------------------|
F|--------------------------------------------------------|
C|--------------------------------------------------------|
G|--------------------------------------------------------|
D|--------------------------------------------------------|
A|-4/55\4/77757-4/55\4/77757-8\77/8\5555544-8\77\8/555544-|
   . .. . ..... . .. . ..... . .. . ....... . .. . ......  .palm mute

Bridge4:
d|-------------------------------------------------------------|
a|-------------------------------------------------------------|
F|-------------------------------------------------------------|
C|-------------------------------------------------------------|
G|-6/77\6/99979-6/77\6/99979-10\99/10\77x7766-10\99/10\77x7766-|
D|-6/77\6/99979-6/77\6/99979-10\99/10\77x7766-10\99/10\77x7766-|
A|-4/55\4/77757-4/55\4/77757- 8\77/ 8\55x5544- 8\77/ 8\55x5544-|

Chorus:
d|-------------------------------------------------------------------------|
a|-------------------------------------------------------------------------|
F|-------------------------------------------------------------------------|
C|-------------------------------------------------------------------------|	(guitar1)
G|-77777777--575-1010101010101010-575-1212121212121212-5~~~~-777777777-575-|
D|-77777777--575-1010101010101010-575-1212121212121212-5~~~~-777777777-575-|
A|-55555555--353- 8 8 8 8 8 8 8 8-353-1010101010101010-3~~~~-555555555-353-|

d|-------------------------------------------------------------------------|
a|-------------------------------------------------------------------------|
F|-------------------------------------------------------------------------|
C|-------------------------------------------------------------------------|	(guitar2)
G|-7910-7910-710-575-7910-7910-710-575-7910-7910-710-5~~~7910-7910-710-575-|
D|---------------575---------------575---------------5~~~--------------575-|
A|---------------353---------------575---------------5~~~--------------575-|

d|--------------------------------------------------|
a|--------------------------------------------------|
F|--------------------------------------------------|
C|-212121212121212119191919191919191717171717171717-|	(synth)
G|-xxxxxxxxxxxxxxxxxxxxxxxxxxxxxxxxxxxxxxxxxxxxxxxx-|
D|-191919191919191917171717171717171515151515151515-|
A|--------------------------------------------------|

KoRn - Hold On - Untitled

Tabbed by Elvisz (elvisz84@yahoo.com)
Tuning : 7 String Tuned Low to High (A D G C F a d)

Vocal: Jonathan Houseman Davis 'Hiv'
Guitar: James Randal Shaffer 'Munky'
Bass: Reginald Arvizu 'Fieldy'
Drums: Brooks Wackerman

Intro:
d|------------------------------------------------|
a|------------------------------------------------|
F|------------------------------------------------|
C|------------------------------------------------|	(guitar1)
G|-2~~~~--2-2~~~~---------------------------------|
D|-2~~~~--2-2~~~~--2-2-3-2------------------------|
A|-0~~~~--0-0~~~~--0-0-1-0--0000h1\(0)-0000h1\(0)-|
                            .......... ..........  .palm mute

d|---------------------------------------------------------------------|
a|---------------------------------------------------------------------|
F|---------------------------------------------------------------------|
C|-1616161616161616\1515151515151515\1414141414141414\1313131313131313-| (guitar2)
G|-xxxxxxxxxxxxxxxxxxxxxxxxxxxxxxxxxxxxxxxxxxxxxxxxxxxxxxxxxxxxxxxxxxx-|
D|-1414141414141414\1313131313131313\1212121212121212\1111111111111111-|
A|---------------------------------------------------------------------|

Verse:
d|--------------------------------|
a|--------------------------------|
F|--------------------------------|
C|--------------------------------|
G|--------------------------------|
D|-2-2-3-2------------------------|
A|-0-0-1-0--0000h1\(0)-0000h1\(0)-|
            .......... ..........  .palm mute

Fill1:
d|--------------------------------|
a|--------------------------------|
F|--------------------------------|
C|---999x10x11x12----999x10x11x12-|
G|---xxxxxxxxxxxx----xxxxxxxxxxxx-|
D|---777x 8x 9x10----777x 8x 9x10-|
A|-0---------------0--------------|

Verse:
d|--------------------------------|
a|--------------------------------|
F|--------------------------------|
C|--------------------------------|
G|--------------------------------|
D|-2-2-3-2------------------------|
A|-0-0-1-0--0000h1\(0)-0000h1\(0)-|
            .......... ..........  .palm mute

Pre-Chorus:
d|--------------------------------|
a|--------------------------------|
F|--------------------------------|
C|--------------------------------|	(guitar1)
G|--------------------------------|
D|-2-2-3-2------------------------|
A|-0-0-1-0--0000h1\(0)-0000h1\(0)-|
            .......... ..........  .palm mute

d|--------------------------|
a|--------------------------|
F|--------------------------|
C|-9999999999999999\77/1010-|	(guitar2)
G|-xxxxxxxxxxxxxxxxxxxxxxxx-|
D|-7777777777777777\55/ 8 8-|
A|--------------------------|

Chorus:
(guitar1)
d|------------------------------------------|
a|------------------------------------------|
F|------------------------------------------|
C|------------------------------------------|	(guitar1)
G|------------------------------------------|
D|---77h8r7----77h8r7----77h8r7----77h8r7---|
A|-0-------0-0-------0-0-------0-0--------0-|

d|------------------------------------|
a|------------------------------------|
F|-1212121212121212\11111111\10101010-|
C|-xxxxxxxxxxxxxxxxxxxxxxxxxxxxxxxxxx-|	(guitar1)
G|-1010101010101010\ 9 9 9 9\ 8 8 8 8-|
D|------------------------------------|
A|------------------------------------|

d|------------------------------------------|
a|------------------------------------------|
F|------------------------------------------|
C|------------------------------------------|	(guitar1)
G|------------------------------------------|
D|---77h8r7----77h8r7----77h8r7----77h8r7---|
A|-0-------0-0-------0-0-------0-0--------0-|

(guitar2)
d|-----------------------------|
a|-----------------------------|
F|-8~9~-12~-11~--8~-9~-12~-11~-|
C|-x-x--xx--xx---x--x--xx---x--|	(guitar2)
G|-6~7~-10~- 9~--6~-7~-10~- 9~-|
D|-----------------------------|
A|-----------------------------|

d|------------------------------------|
a|------------------------------------|
F|-1212121212121212\11111111\10101010-|
C|-xxxxxxxxxxxxxxxxxxxxxxxxxxxxxxxxxx-|	(guitar2)
G|-1010101010101010\ 9 9 9 9\ 8 8 8 8-|
D|------------------------------------|
A|------------------------------------|

d|-------------------------------------|
a|-------------------------------------|
F|-16161616\12121212\11111111/17171717-|
C|-xxxxxxxxxxxxxxxxxxxxxxxxxxxxxxxxxxx-|	(guitar2)
G|-14141414\10101010\ 9 9 9 9/15151515-|
D|-------------------------------------|
A|-------------------------------------|

Pre-Verse:
d|---------------------------------------|
a|---------------------------------------|
F|---------888/9\11----------121212\11\9-|
C|---------xxxxxxxx----------xxxxxxxxxxx-|
G|---------666/7/ 9----------101010\ 9\7-|
D|-2-2-3-2-----------2-2-3-2-------------|
A|-0-0-1-0-----------0-0-1-0-------------|

d|------------------------------------------|
a|------------------------------------------|
F|---------888/9\11----------111111/1212/16-|
C|---------xxxxxxxx----------xxxxxxxxxxxxxx-|
G|---------666/7/ 9---------- 9 9 9/1010/14-|
D|-2-2-3-2-----------2-2-3-2----------------|
A|-0-0-1-0-----------0-0-1-0----------------|

Verse:
d|---------|
a|---------|
F|---------|
C|---------|
G|---------|
D|-2-2-3-2-|
A|-0-0-1-0-|

d|--------------------------------|
a|--------------------------------|
F|--------------------------------|
C|--------------------------------|
G|--------------------------------|
D|-2-2-3-2------------------------|
A|-0-0-1-0--0000h1\(0)-0000h1\(0)-|
            .......... ..........  .palm mute

Fill1:
d|--------------------------------|
a|--------------------------------|
F|--------------------------------|
C|---999x10x11x12----999x10x11x12-|
G|---xxxxxxxxxxxx----xxxxxxxxxxxx-|
D|---777x 8x 9x10----777x 8x 9x10-|
A|-0---------------0--------------|

Verse:
d|--------------------------------|
a|--------------------------------|
F|--------------------------------|
C|--------------------------------|
G|--------------------------------|
D|-2-2-3-2------------------------|
A|-0-0-1-0--0000h1\(0)-0000h1\(0)-|
            .......... ..........  .palm mute

Pre-Chorus:
d|--------------------------------|
a|--------------------------------|
F|--------------------------------|
C|--------------------------------|	(guitar1)
G|--------------------------------|
D|-2-2-3-2------------------------|
A|-0-0-1-0--0000h1\(0)-0000h1\(0)-|
            .......... ..........  .palm mute

d|--------------------------|
a|--------------------------|
F|--------------------------|
C|-9999999999999999\77/1010-|	(guitar2)
G|-xxxxxxxxxxxxxxxxxxxxxxxx-|
D|-7777777777777777\55/ 8 8-|
A|--------------------------|

Chorus:
(guitar1)
d|------------------------------------------|
a|------------------------------------------|
F|------------------------------------------|
C|------------------------------------------|	(guitar1)
G|------------------------------------------|
D|---77h8r7----77h8r7----77h8r7----77h8r7---|
A|-0-------0-0-------0-0-------0-0--------0-|

d|------------------------------------|
a|------------------------------------|
F|-1212121212121212\11111111\10101010-|
C|-xxxxxxxxxxxxxxxxxxxxxxxxxxxxxxxxxx-|	(guitar1)
G|-1010101010101010\ 9 9 9 9\ 8 8 8 8-|
D|------------------------------------|
A|------------------------------------|

d|------------------------------------------|
a|------------------------------------------|
F|------------------------------------------|
C|------------------------------------------|	(guitar1)
G|------------------------------------------|
D|---77h8r7----77h8r7----77h8r7----77h8r7---|
A|-0-------0-0-------0-0-------0-0--------0-|

(guitar2)
d|-----------------------------|
a|-----------------------------|
F|-8~9~-12~-11~--8~-9~-12~-11~-|
C|-x-x--xx--xx---x--x--xx---x--|	(guitar2)
G|-6~7~-10~- 9~--6~-7~-10~- 9~-|
D|-----------------------------|
A|-----------------------------|

d|------------------------------------|
a|------------------------------------|
F|-1212121212121212\11111111\10101010-|
C|-xxxxxxxxxxxxxxxxxxxxxxxxxxxxxxxxxx-|	(guitar2)
G|-1010101010101010\ 9 9 9 9\ 8 8 8 8-|
D|------------------------------------|
A|------------------------------------|

d|-------------------------------------|
a|-------------------------------------|
F|-16161616\12121212\11111111/17171717-|
C|-xxxxxxxxxxxxxxxxxxxxxxxxxxxxxxxxxxx-|	(guitar2)
G|-14141414\10101010\ 9 9 9 9/15151515-|
D|-------------------------------------|
A|-------------------------------------|

Fill2:
d|---------------------------------------|
a|---------------------------------------|
F|---------888/9\11----------121212\11\9-|
C|---------xxxxxxxx----------xxxxxxxxxxx-|
G|---------666/7/ 9----------101010\ 9\7-|
D|-2-2-3-2-----------2-2-3-2-------------|
A|-0-0-1-0-----------0-0-1-0-------------|

Bridge1:
d|---------------------------------------------------------------------|
a|---------------------------------------------------------------------|
F|-16161616---------19191919---------15151515---------16161616---------|
C|-xxxxxxxx---------xxxxxxxx---------xxxxxxxx---------xxxxxxxx---------|
G|-14141414---------17171717---------13131313---------14141414---------|
D|---------------------------------------------------------------------|
A|----------0-00010----------0-00010----------0-00010----------0-00010-|
            . .....          . .....          . .....          . .....  .palm mute  

Pre-Chorus:
d|--------------------------------|
a|--------------------------------|
F|--------------------------------|
C|--------------------------------|
G|--------------------------------|
D|-2-2-3-2------------------------|
A|-0-0-1-0--0000h1\(0)-0000h1\(0)-|
            .......... ..........  .palm mute

Chorus:
(guitar1)
d|------------------------------------------|
a|------------------------------------------|
F|------------------------------------------|
C|------------------------------------------|	(guitar1)
G|------------------------------------------|
D|---77h8r7----77h8r7----77h8r7----77h8r7---|
A|-0-------0-0-------0-0-------0-0--------0-|

d|------------------------------------|
a|------------------------------------|
F|-1212121212121212\11111111\10101010-|
C|-xxxxxxxxxxxxxxxxxxxxxxxxxxxxxxxxxx-|	(guitar1)
G|-1010101010101010\ 9 9 9 9\ 8 8 8 8-|
D|------------------------------------|
A|------------------------------------|

d|------------------------------------------|
a|------------------------------------------|
F|------------------------------------------|
C|------------------------------------------|	(guitar1)
G|------------------------------------------|
D|---77h8r7----77h8r7----77h8r7----77h8r7---|
A|-0-------0-0-------0-0-------0-0--------0-|

(guitar2)
d|-----------------------------|
a|-----------------------------|
F|-8~9~-12~-11~--8~-9~-12~-11~-|
C|-x-x--xx--xx---x--x--xx---x--|	(guitar2)
G|-6~7~-10~- 9~--6~-7~-10~- 9~-|
D|-----------------------------|
A|-----------------------------|

d|------------------------------------|
a|------------------------------------|
F|-1212121212121212\11111111\10101010-|
C|-xxxxxxxxxxxxxxxxxxxxxxxxxxxxxxxxxx-|	(guitar2)
G|-1010101010101010\ 9 9 9 9\ 8 8 8 8-|
D|------------------------------------|
A|------------------------------------|

d|-------------------------------------|
a|-------------------------------------|
F|-16161616\12121212\11111111/17171717-|
C|-xxxxxxxxxxxxxxxxxxxxxxxxxxxxxxxxxxx-|	(guitar2)
G|-14141414\10101010\ 9 9 9 9/15151515-|
D|-------------------------------------|
A|-------------------------------------|

Outro:
d|---------------------|
a|---------------------|
F|---------------------|
C|---------------------|
G|---------------------|
D|-2-2-3-2-------------|
A|-0-0-1-0--0000h1\(0)-|
            ..........  .palm mute

KoRn - Kiss - Untitled

Tabbed by Elvisz (elvisz84@yahoo.com)
Tuning : 7 String Tuned Low to High (A D G C F a d)

Vocal: Jonathan Houseman Davis 'Hiv'
Guitar: James Randal Shaffer 'Munky'
Bass: Reginald Arvizu 'Fieldy'
Drums: Terry Bozzio
additional drums: Jonathan Davis

Intro:
d|---------------------------------------------|
a|---------------------------------------------|
F|-9-9-9-9-12-12-12-12-17-17-17-19-16-16-16-14-|
C|-7-7-7-7-10-10-10-10-15-15-15-17-14-14-14-12-|
G|---------------------------------------------|
D|---------------------------------------------|
A|---------------------------------------------|

Fill1:(in intro)
d|----------|
a|----------|
F|-14-14~~--|
C|----------|
G|----------|
D|----------|
A|----------|

Verse:
d|---------------------------------------------|
a|---------------------------------------------|
F|-9-9-9-9-12-12-12-12-17-17-17-19-16-16-16-14-|
C|-7-7-7-7-10-10-10-10-15-15-15-17-14-14-14-12-|	(guitar1)
G|---------------------------------------------|
D|---------------------------------------------|
A|---------------------------------------------|

d|----------------------------|
a|----------------------------|
F|----------------------------|
C|----------------------------|	(guitar2)
G|----------------------------|
D|-5~~~~8~~~~13~~~~12~~~~~10~-|
A|----------------------------|

d|---------------------------------------------|
a|---------------------------------------------|
F|-9-9-9-9-12-12-12-12-17-17-17-19-16-16-16-14-|
C|-7-7-7-7-10-10-10-10-15-15-15-17-14-14-14-12-|	(guitar1)
G|---------------------------------------------|
D|---------------------------------------------|
A|---------------------------------------------|

d|----------------------------------------------------|
a|----------------------------------------------------|
F|----------------------------------------------------|
C|----------------------------------------------------|	(guitar2)
G|----------------------------------------------------|
D|-55555555888888881313131313131313121212121212121210-|
A|----------------------------------------------------|

Fill1:(in verse)
d|----------|
a|----------|
F|-14-14~~--|
C|----------|
G|----------|
D|----------|
A|----------|

Chorus:
(guitar1)
d|---------------------------|
a|---------------------------|
F|---------------------------|
C|--------------10~~~~-9~~~~-|	(Guitar1)
G|-7~~~~-10~~~~-10~~~~-9~~~~-|
D|-7~~~~-10~~~~- 8~~~~-7~~~~-|
A|-5~~~~- 8~~~~--------------|

(guitar2)
d|---------------------------------|
a|---------------------------------|
F|---------------------------------|
C|---------------------------------|	(guitar2)
G|---------------------------------|
D|-77-77-77-7\\\\\-77-77-77-7\\\\\-|
A|-55-55-55-5\\\\\-55-55-55-5\\\\\-|
   .. .. .. .      .. .. .. .       .palm mute

d|-----------------------------|
a|-----------------------------|
F|-----------------------------|
C|-----------------------------|	(guitar2)
G|-----------------------------|
D|-77-77-77-7-7-77-7-7-7~~-7-77|
A|-55-55-55-5-5-55-5-5-5~~-5-55|
   .. .. ..     .  .       .    .palm mute

(guitar3)
d|-----------------------------------|
a|-1717171717171717-1515151515151515-|
F|-----------------------------------|
C|-----------------------------------|	(guitar3)
G|-----------------------------------|
D|-----------------------------------|
A|-----------------------------------|

d|-----------------------------------|
a|-1717171717171717-1212121313121010-|
F|-----------------------------------|
C|-----------------------------------|	(guitar3)
G|-----------------------------------|
D|-----------------------------------|
A|-----------------------------------|

Verse:
d|---------------------------------------------|
a|---------------------------------------------|
F|-9-9-9-9-12-12-12-12-17-17-17-19-16-16-16-14-|
C|-7-7-7-7-10-10-10-10-15-15-15-17-14-14-14-12-|	(guitar1)
G|---------------------------------------------|
D|---------------------------------------------|
A|---------------------------------------------|

d|----------------------------|
a|----------------------------|
F|----------------------------|
C|----------------------------|	(guitar2)
G|----------------------------|
D|-5~~~~8~~~~13~~~~12~~~~~10~-|
A|----------------------------|

d|---------------------------------------------|
a|---------------------------------------------|
F|-9-9-9-9-12-12-12-12-17-17-17-19-16-16-16-14-|
C|-7-7-7-7-10-10-10-10-15-15-15-17-14-14-14-12-|	(guitar1)
G|---------------------------------------------|
D|---------------------------------------------|
A|---------------------------------------------|

d|----------------------------------------------------|
a|----------------------------------------------------|
F|----------------------------------------------------|
C|----------------------------------------------------|	(guitar2)
G|----------------------------------------------------|
D|-55555555888888881313131313131313121212121212121210-|
A|----------------------------------------------------|

Fill1:(in verse)
d|----------|
a|----------|
F|-14-14~~--|
C|----------|
G|----------|
D|----------|
A|----------|

Fill2:(in verse)
d|--------------------------------------------------------|
a|--------------------------------------------------------|
F|--------------------------------------------------------|
C|-14~/15-14-15--14-12-10-9~~--14~/15-14-15--14-12-10-9~~-|
G|--------------------------------------------------------|
D|--------------------------------------------------------|
A|--------------------------------------------------------|

Chorus:
(guitar1)
d|---------------------------|
a|---------------------------|
F|---------------------------|
C|--------------10~~~~-9~~~~-|	(Guitar1)
G|-7~~~~-10~~~~-10~~~~-9~~~~-|
D|-7~~~~-10~~~~- 8~~~~-7~~~~-|
A|-5~~~~- 8~~~~--------------|

(guitar2)
d|---------------------------------|
a|---------------------------------|
F|---------------------------------|
C|---------------------------------|	(guitar2)
G|---------------------------------|
D|-77-77-77-7\\\\\-77-77-77-7\\\\\-|
A|-55-55-55-5\\\\\-55-55-55-5\\\\\-|
   .. .. .. .      .. .. .. .       .palm mute

d|-----------------------------|
a|-----------------------------|
F|-----------------------------|
C|-----------------------------|	(guitar2)
G|-----------------------------|
D|-77-77-77-7-7-77-7-7-7~~-7-77|
A|-55-55-55-5-5-55-5-5-5~~-5-55|
   .. .. ..     .  .       .    .palm mute

(guitar3)
d|-----------------------------------|
a|-1717171717171717-1515151515151515-|
F|-----------------------------------|
C|-----------------------------------|	(guitar3)
G|-----------------------------------|
D|-----------------------------------|
A|-----------------------------------|

d|-----------------------------------|
a|-1717171717171717-1212121313121010-|
F|-----------------------------------|
C|-----------------------------------|	(guitar3)
G|-----------------------------------|
D|-----------------------------------|
A|-----------------------------------|

Bridge1:
d|------------------------------------------------------|
a|------------------------------------------------------|
F|----------------------------------21~~----------------|
C|-21^(22)'2119~~-21^(22)211922~24~~-----19~~~~~-17-19~-|
G|------------------------------------------------------|
D|------------------------------------------------------|
A|------------------------------------------------------|

Bridge2:
d|---------------------------------|
a|---------------------------------|
F|---------------------------------|
C|---------------------------------|
G|---------------------------------|
D|-77-77-77-7\\\\\-77-77-77-7\\\\\-|
A|-55-55-55-5\\\\\-55-55-55-5\\\\\-|
   .. .. .. .      .. .. .. .       .palm mute

Chorus:
(guitar1)
d|---------------------------------|
a|---------------------------------|
F|---------------------------------|
C|---------------------------------|	(guitar1)
G|---------------------------------|
D|-77-77-77-7\\\\\-77-77-77-7\\\\\-|
A|-55-55-55-5\\\\\-55-55-55-5\\\\\-|
   .. .. .. .      .. .. .. .       .palm mute

d|-----------------------------|
a|-----------------------------|
F|-----------------------------|
C|-----------------------------|	(guitar1)
G|-----------------------------|
D|-77-77-77-7-7-77-7-7-7~~-7-77|
A|-55-55-55-5-5-55-5-5-5~~-5-55|
   .. .. ..     .  .       .    .palm mute

(guitar2)
d|------------------------------------------|
a|------------------------------------------|
F|-14~~~~~~16~17~~~21~14~~~~17~~12~~~~~~~9~-|
C|------------------------------------------|	(guitar2)
G|------------------------------------------|
D|------------------------------------------|
A|------------------------------------------|

d|------------------------------------------|
a|------------------------------------------|
F|-14~~-91412~~~~-1412----------------------|
C|--------------------1412~~~~~(14)~~15~17~-|	(guitar2)
G|------------------------------------------|
D|------------------------------------------|
A|------------------------------------------|

KoRn - Do What They Say - Untitled

Tabbed by Elvisz (elvisz84@yahoo.com)
Tuning : 7 String Tuned Low to High (A D G C F a d)

Vocal: Jonathan Houseman Davis 'Hiv'
Guitar: James Randal Shaffer 'Munky'
Bass: Reginald Arvizu 'Fieldy'
Drums: Terry Bozzio

Intro:
d|--------------------------|
a|--------------------------|
F|--------------------------|
C|--------------------------|
G|--------------------------|
D|-1/2-0~~~~~-5~~~-0~~~~~~~-|
A|--------------------------|
              .              .palm mute

Verse:
d|--------------------------|
a|--------------------------|
F|--------------------------|
C|--------------------------|
G|--------------------------|
D|-1/2-0~~~~~-5~~~-0~~~~~~~-|
A|--------------------------|
              .              .palm mute

Pre-Chorus:
(guitar1)
d|---------------------|
a|---------------------|
F|---------------------|
C|---------------------|
G|-2~~2-4~~4-5~~5-7~~7-|
D|-0~~0-2~~2-3~~3-5~~5-|
A|---------------------|

(guitar2)
d|-----------------------------------------------|
a|-----------------------------------------------|
F|-----------------------------------------------|
C|-----------------------------------------------|
G|-----7---7-------5---5-------5---5-----55---5/-|
D|-0~~---0---0~2~~---2---2~3~~---3---3-5----5----|
A|-----------------------------------------------|

(guitar3)
d|------------------------------------------|
a|------------------------------------------|
F|//17~~~~~~\16//17~~~~~~\16//17~~~~~^^(19)-|
C|------------------------------------------|
G|------------------------------------------|
D|------------------------------------------|
A|------------------------------------------|

Chorus:
(guitar1)
d|--------------------------------------------|
a|--------------------------------------------|
F|--------------------------------------------|
C|-2~2~~-12~~-11~~-5~~--2~2~~-12~~-11~~-5/7\5-|
G|-2~2~~-12~~-11~~-5~~--2~2~~-12~~-11~~-5/7\5-|
D|-0~0~~-10~~- 9~~-3~~--0~0~~-10~~- 9~~-3/5\3-|
A|--------------------------------------------|

d|--------------------------------------------|
a|--------------------------------------------|
F|--------------------------------------------|
C|-2~2~~-12~~-11~~-5~~--2~2~~-12~~-11~~-10~~~-|
G|-2~2~~-12~~-11~~-5~~--2~2~~-12~~-11~~-10~~~-|
D|-0~0~~-10~~- 9~~-3~~--0~0~~-10~~- 9~~- 8~~~-|
A|--------------------------------------------|

(guitar2)
d|------------------------------------------|
a|------------------------------------------|
F|//17~~~~~^^(19)~~16~~~~^^^(19)~~14~~12~~~-|
C|------------------------------------------|
G|------------------------------------------|
D|------------------------------------------|
A|------------------------------------------|

Verse:
d|--------------------------|
a|--------------------------|
F|--------------------------|
C|--------------------------|
G|--------------------------|
D|-1/2-0~~~~~-5~~~-0~~~~~~~-|
A|--------------------------|
              .              .palm mute

Pre-Chorus:
(guitar1)
d|---------------------|
a|---------------------|
F|---------------------|
C|---------------------|
G|-2~~2-4~~4-5~~5-7~~7-|
D|-0~~0-2~~2-3~~3-5~~5-|
A|---------------------|

(guitar2)
d|-----------------------------------------------|
a|-----------------------------------------------|
F|-----------------------------------------------|
C|-----------------------------------------------|
G|-----7---7-------5---5-------5---5-----55---5/-|
D|-0~~---0---0~2~~---2---2~3~~---3---3-5----5----|
A|-----------------------------------------------|

(guitar3)
d|------------------------------------------|
a|------------------------------------------|
F|//17~~~~~~\16//17~~~~~~\16//17~~~~~^^(19)-|
C|------------------------------------------|
G|------------------------------------------|
D|------------------------------------------|
A|------------------------------------------|

Chorus:
(guitar1)
d|--------------------------------------------|
a|--------------------------------------------|
F|--------------------------------------------|
C|-2~2~~-12~~-11~~-5~~--2~2~~-12~~-11~~-5/7\5-|
G|-2~2~~-12~~-11~~-5~~--2~2~~-12~~-11~~-5/7\5-|
D|-0~0~~-10~~- 9~~-3~~--0~0~~-10~~- 9~~-3/5\3-|
A|--------------------------------------------|

d|--------------------------------------------|
a|--------------------------------------------|
F|--------------------------------------------|
C|-2~2~~-12~~-11~~-5~~--2~2~~-12~~-11~~-10~~~-|
G|-2~2~~-12~~-11~~-5~~--2~2~~-12~~-11~~-10~~~-|
D|-0~0~~-10~~- 9~~-3~~--0~0~~-10~~- 9~~- 8~~~-|
A|--------------------------------------------|

(guitar2)
d|------------------------------------------|
a|------------------------------------------|
F|//17~~~~~^^(19)~~16~~~~^^^(19)~~14~~12~~~-|
C|------------------------------------------|
G|------------------------------------------|
D|------------------------------------------|
A|------------------------------------------|

Bridge1:
(guitar1)
d|-----------------------------------------------|
a|-----------------------------------------------|
F|-----------------------------------------------|
C|-12-1212-12-1212-5-55-5-55-9-99-9-99-9-99-9-99-|
G|-----------------------------------------------|
D|-----------------------------------------------|
A|-----------------------------------------------|
      ....    ....   ..   ..   ..  ..    ..   ..  .palm mute

(guitar2)
d|-----------------------------------------------|
a|-----------------------------------------------|
F|-----------------------------------------------|
C|-----------------------------------------------|
G|-----------------------------------------------|
D|-10-1010-10-1010-3-33-3-33-7-77-7-77-7-77-7-77-|
A|-----------------------------------------------|
      ....    ....   ..   ..   ..  ..    ..   ..  .palm mute

Bridge2:
(guitar1)
d|-----------------------|
a|-----------------------|
F|-9999-1010-10-5555-777-|
C|-9999-1010-10-5555-777-|
G|-7777- 8 8- 8-3333-555-|
D|-----------------------|
A|-----------------------|

d|--------------------|
a|--------------------|
F|--------------------|
C|--------------------|
G|-2222-33-3----------|
D|-0000-11-1-3333-555-|
A|-----------1111-333-|

Bridge3:
(guitar1)
d|--------------------------------------------|
a|--------------------------------------------|
F|--------------------------------------------|
C|-2~2~~-12~~-11~~-5~~--2~2~~-12~~-11~~-10~~~-|
G|-2~2~~-12~~-11~~-5~~--2~2~~-12~~-11~~-10~~~-|
D|-0~0~~-10~~- 9~~-3~~--0~0~~-10~~- 9~~- 8~~~-|
A|--------------------------------------------|

(guitar2)
d|------------------------------------------|
a|------------------------------------------|
F|//17~~~~~^^(19)~~16~~~~^^^(19)~~14~~12~~~-|
C|------------------------------------------|
G|------------------------------------------|
D|------------------------------------------|
A|------------------------------------------|

Chorus:
(guitar1)
d|--------------------------------------------|
a|--------------------------------------------|
F|--------------------------------------------|
C|-2~2~~-12~~-11~~-5~~--2~2~~-12~~-11~~-5/7\5-|
G|-2~2~~-12~~-11~~-5~~--2~2~~-12~~-11~~-5/7\5-|
D|-0~0~~-10~~- 9~~-3~~--0~0~~-10~~- 9~~-3/5\3-|
A|--------------------------------------------|

d|--------------------------------------------|
a|--------------------------------------------|
F|--------------------------------------------|
C|-2~2~~-12~~-11~~-5~~--2~2~~-12~~-11~~-10~~~-|
G|-2~2~~-12~~-11~~-5~~--2~2~~-12~~-11~~-10~~~-|
D|-0~0~~-10~~- 9~~-3~~--0~0~~-10~~- 9~~- 8~~~-|
A|--------------------------------------------|

(guitar2)
d|------------------------------------------|
a|------------------------------------------|
F|//17~~~~~^^(19)~~16~~~~^^^(19)~~14~~12~~~-|
C|------------------------------------------|
G|------------------------------------------|
D|------------------------------------------|
A|------------------------------------------|

KoRn - Ever Be - Untitled

Tabbed by Elvisz (elvisz84@yahoo.com)
Tuning : 7 String Tuned Low to High (A D G C F a d)

Vocal: Jonathan Houseman Davis 'Hiv'
Guitar: James Randal Shaffer 'Munky'
Bass: Reginald Arvizu 'Fieldy'
Drums: Terry Bozzio

Intro:
d|------------------------------------------|
a|------------------------------------------|
F|-9999////////////21212121\\\\\\\8x8x8x8x8x|
C|------------------------------------------|
G|------------------------------------------|
D|------------------------------------------|
A|------------------------------------------|

Verse:
(guitar1)
d|---------------------------------------|
a|---------------------------------------|
F|-16~-16~-17~-14~---16~-16~-17~---------|
C|-------------------------------16~-14~-|
G|---------------------------------------|
D|---------------------------------------|
A|---------------------------------------|

d|------------------------------------------------------------------|
a|------------------------------------------------------------------|
F|-1616161616161616161616161616161617171717171717171414141414141414-|
C|------------------------------------------------------------------|
G|------------------------------------------------------------------|
D|------------------------------------------------------------------|
A|------------------------------------------------------------------|

d|------------------------------------------------------------------|
a|------------------------------------------------------------------|
F|-161616161616161616161616161616161717171717171717-----------------|
C|-------------------------------------------------1616161614141414-|
G|------------------------------------------------------------------|
D|------------------------------------------------------------------|
A|------------------------------------------------------------------|

(guitar2)
d|--------------------------|
a|--------------------------|
F|--------------------------|
C|--------------------------|
G|--------------------------|
D|-7~~~~(7)/10---5~~~~(5)/8-|
A|-5~~~~(5)/ 8---3~~~~(3)/6-|

(guitar3)
d|------------------------------------------|
a|------------------------------------------|
F|-1717171717171717171919191915151515151515-|
C|------------------------------------------|
G|------------------------------------------|
D|------------------------------------------|
A|------------------------------------------|

Chorus:
(guitar1)
d|-----------------------------------|
a|-----------------------------------|
F|-----------------------------------|
C|-----------------------------------|
G|-2~--9---9--2-9-8--2~-9---9--2-9-8-|
D|-0~--7-0-7--0-7-6--0~-7-0-7--0-7-6-|
A|-----------------------------------|

d|-----------------------------------|
a|-----------------------------------|
F|-----------------------------------|
C|-----------------------------------|
G|-2~--9---9--2-9-8--2~-9---9--2-9-8-|
D|-0~--7-0-7--0-7-6--0~-7-0-7--0-7-6-|
A|-----------------------------------|

d|----------------------|
a|----------------------|
F|----------------------|
C|-5~~~-7~~~-9~~~-12~~~-|
G|-5~~~-7~~~-9~~~-12~~~-|
D|-3~~~-5~~~-7~~~-10~~~-|
A|----------------------|

d|-----------------------------------|
a|-----------------------------------|
F|-----------------------------------|
C|-----------------------------------|
G|-2~--9---9--2-9-8--2~-9---9--2-9-8-|
D|-0~--7-0-7--0-7-6--0~-7-0-7--0-7-6-|
A|-----------------------------------|

d|--------------------------------|
a|--------------------------------|
F|--------------------------------|
C|-5~~~-7~~~-9~~~-12~~~-2~~~~~~~~-|
G|-5~~~-7~~~-9~~~-12~~~-2~~~~~~~~-|
D|-3~~~-5~~~-7~~~-10~~~-0~~~~~~~~-|
A|--------------------------------|

(guitar2)
d|-----------------------------------|
a|-----------------------------------|
F|-----------------------------------|
C|-----------------------------------|
G|-2~--9---9--2-9-8--2~-9---9--2-9-8-|
D|-0~--7-0-7--0-7-6--0~-7-0-7--0-7-6-|
A|-----------------------------------|

d|-----------------------------------|
a|-----------------------------------|
F|-----------------------------------|
C|-----------------------------------|
G|-2~--9---9--2-9-8--2~-9---9--2-9-8-|
D|-0~--7-0-7--0-7-6--0~-7-0-7--0-7-6-|
A|-----------------------------------|

d|----------------------------------|
a|----------------------------------|
F|-12121212141414141616161619192121-|
C|-xxxxxxxxxxxxxxxxxxxxxxxxxxxxxxxx-|
G|-10101010121212121414141417171919-|
D|----------------------------------|
A|----------------------------------|

d|-----------------------------------|
a|-----------------------------------|
F|-----------------------------------|
C|-----------------------------------|
G|-2~--9---9--2-9-8--2~-9---9--2-9-8-|
D|-0~--7-0-7--0-7-6--0~-7-0-7--0-7-6-|
A|-----------------------------------|


d|----------------------------------|
a|----------------------------------|
F|-12121212141414141616161619192121-|
C|-xxxxxxxxxxxxxxxxxxxxxxxxxxxxxxxx-|
G|-10101010121212121414141417171919-|
D|----------------------------------|
A|----------------------------------|

d|--------------------|
a|--------------------|
F|-161616161616161616-|
C|-xxxxxxxxxxxxxxxxxx-|
G|-141414141414141414-|
D|--------------------|
A|--------------------|

Verse:
(guitar1)
d|---------------------------------------|
a|---------------------------------------|
F|-16~-16~-17~-14~---16~-16~-17~---------|
C|-------------------------------16~-14~-|
G|---------------------------------------|
D|---------------------------------------|
A|---------------------------------------|

d|------------------------------------------------------------------|
a|------------------------------------------------------------------|
F|-1616161616161616161616161616161617171717171717171414141414141414-|
C|------------------------------------------------------------------|
G|------------------------------------------------------------------|
D|------------------------------------------------------------------|
A|------------------------------------------------------------------|

d|------------------------------------------------------------------|
a|------------------------------------------------------------------|
F|-161616161616161616161616161616161717171717171717-----------------|
C|-------------------------------------------------1616161614141414-|
G|------------------------------------------------------------------|
D|------------------------------------------------------------------|
A|------------------------------------------------------------------|

(guitar2 with wah wah)
d|---------------------|
a|------20~~------18~~-|
F|-21~~------19~~------|
C|---------------------|
G|---------------------|
D|---------------------|
A|---------------------|

Chorus:
(guitar1)
d|-----------------------------------|
a|-----------------------------------|
F|-----------------------------------|
C|-----------------------------------|
G|-2~--9---9--2-9-8--2~-9---9--2-9-8-|
D|-0~--7-0-7--0-7-6--0~-7-0-7--0-7-6-|
A|-----------------------------------|

d|-----------------------------------|
a|-----------------------------------|
F|-----------------------------------|
C|-----------------------------------|
G|-2~--9---9--2-9-8--2~-9---9--2-9-8-|
D|-0~--7-0-7--0-7-6--0~-7-0-7--0-7-6-|
A|-----------------------------------|

d|----------------------|
a|----------------------|
F|----------------------|
C|-5~~~-7~~~-9~~~-12~~~-|
G|-5~~~-7~~~-9~~~-12~~~-|
D|-3~~~-5~~~-7~~~-10~~~-|
A|----------------------|

d|-----------------------------------|
a|-----------------------------------|
F|-----------------------------------|
C|-----------------------------------|
G|-2~--9---9--2-9-8--2~-9---9--2-9-8-|
D|-0~--7-0-7--0-7-6--0~-7-0-7--0-7-6-|
A|-----------------------------------|

d|----------------------|
a|----------------------|
F|----------------------|
C|-5~~~-7~~~-9~~~-12~~~-|
G|-5~~~-7~~~-9~~~-12~~~-|
D|-3~~~-5~~~-7~~~-10~~~-|
A|----------------------|

d|----------------------|
a|----------------------|
F|----------------------|
C|-5~~~-7~~~-9~~~-12~~~-|
G|-5~~~-7~~~-9~~~-12~~~-|
D|-3~~~-5~~~-7~~~-10~~~-|
A|----------------------|

d|----------------------|
a|----------------------|
F|----------------------|
C|-5~~~-7~~~-9~~~-12~~~-|
G|-5~~~-7~~~-9~~~-12~~~-|
D|-3~~~-5~~~-7~~~-10~~~-|
A|----------------------|

d|--------------------------------|
a|--------------------------------|
F|--------------------------------|
C|-5~~~-7~~~-9~~~-12~~~-2~~~~~~~~-|
G|-5~~~-7~~~-9~~~-12~~~-2~~~~~~~~-|
D|-3~~~-5~~~-7~~~-10~~~-0~~~~~~~~-|
A|--------------------------------|

(guitar2)
d|-----------------------------------|
a|-----------------------------------|
F|-----------------------------------|
C|-----------------------------------|
G|-2~--9---9--2-9-8--2~-9---9--2-9-8-|
D|-0~--7-0-7--0-7-6--0~-7-0-7--0-7-6-|
A|-----------------------------------|

d|-----------------------------------|
a|-----------------------------------|
F|-----------------------------------|
C|-----------------------------------|
G|-2~--9---9--2-9-8--2~-9---9--2-9-8-|
D|-0~--7-0-7--0-7-6--0~-7-0-7--0-7-6-|
A|-----------------------------------|

d|----------------------------------|
a|----------------------------------|
F|-12121212141414141616161619192121-|
C|-xxxxxxxxxxxxxxxxxxxxxxxxxxxxxxxx-|
G|-10101010121212121414141417171919-|
D|----------------------------------|
A|----------------------------------|

d|-----------------------------------|
a|-----------------------------------|
F|-----------------------------------|
C|-----------------------------------|
G|-2~--9---9--2-9-8--2~-9---9--2-9-8-|
D|-0~--7-0-7--0-7-6--0~-7-0-7--0-7-6-|
A|-----------------------------------|

d|----------------------------------|
a|----------------------------------|
F|-12121212141414141616161619192121-|
C|-xxxxxxxxxxxxxxxxxxxxxxxxxxxxxxxx-|
G|-10101010121212121414141417171919-|
D|----------------------------------|
A|----------------------------------|

d|----------------------------------|
a|----------------------------------|
F|-12121212141414141616161619192121-|
C|-xxxxxxxxxxxxxxxxxxxxxxxxxxxxxxxx-|
G|-10101010121212121414141417171919-|
D|----------------------------------|
A|----------------------------------|

d|----------------------------------|
a|----------------------------------|
F|-12121212141414141616161619191919-|
C|-xxxxxxxxxxxxxxxxxxxxxxxxxxxxxxxx-|
G|-10101010121212121414141417171717-|
D|----------------------------------|
A|----------------------------------|

d|----------------------------------|
a|----------------------------------|
F|-24242424242424242323232321212121-|
C|-xxxxxxxxxxxxxxxxxxxxxxxxxxxxxxxx-|
G|-22222222222222222121212119191919-|
D|----------------------------------|
A|----------------------------------|

Bridge1:
(guitar1)
d|-------------------------------------------------|
a|-------------------------------------------------|
F|-------------------------------------------------|
C|-------------------------------------------------|
G|-------------------------------------------------|
D|-------------------------------------------------|
A|-4-5-4-3-4-3-2-3-2-1-2-1-6-7-6-5-6-5-4-5-4-3-4-3-|

d|-------------------------------------------------|
a|-------------------------------------------------|
F|-------------------------------------------------|
C|-------------------------------------------------|
G|-------------------------------------------3~~~~-|
D|-------------------------------------------3~~~~-|
A|-8-9-8-7-8-7-6-7-6-5-6-5-4-5-4-3-4-3-2-3-2-1~~~~-|

(guitar2)
d|-------------------------------------------------|
a|-------------------------------------------------|
F|-------------------------------------------------|
C|-------------------------------------------------|
G|-------------------------------------------------|
D|-6-7-6-5-6-5-4-5-4-3-4-3-8-9-8-7-8-7-6-7-6-5-6-5-|
A|-4-5-4-3-4-3-2-3-2-1-2-1-6-7-6-5-6-5-4-5-4-3-4-3-|

d|-----------------------------------------------------|
a|-----------------------------------------------------|
F|-----------------------------------------------------|
C|-----------------------------------------------------|
G|-----------------------------------------------3~~~~-|
D|-10-11-10-9-10-9-8-9-8-7-8-7-6-7-6-5-6-5-4-5-4-3~~~~-|
A|- 8- 9- 8-7- 8-7-6-7-6-5-6-5-4-5-4-3-4-3-2-3-2-1~~~~-|

Bridge2:
(guitar1)
d|-------------------------------------------------|
a|-------------------------------------------------|
F|-------------------------------------------------|
C|-------------------------------------------------|
G|-------------------------------------------------|
D|-------------------------------------------------|
A|-4-5-4-3-4-3-2-3-2-1-2-1-6-7-6-5-6-5-4-5-4-3-4-3-|

d|-------------------------------------------------|
a|-------------------------------------------------|
F|-------------------------------------------------|
C|-------------------------------------------------|
G|-------------------------------------------3~~~~-|
D|-------------------------------------------3~~~~-|
A|-8-9-8-7-8-7-6-7-6-5-6-5-4-5-4-3-4-3-2-3-2-1~~~~-|

(guitar2)
d|-------------------------------------------------|
a|-------------------------------------------------|
F|-------------------------------------------------|
C|-------------------------------------------------|
G|-6-7-6-5-6-5-4-5-4-3-4-3-8-9-8-7-8-7-6-7-6-5-6-5-|
D|-6-7-6-5-6-5-4-5-4-3-4-3-8-9-8-7-8-7-6-7-6-5-6-5-|
A|-4-5-4-3-4-3-2-3-2-1-2-1-6-7-6-5-6-5-4-5-4-3-4-3-|

d|-----------------------------------------------------|
a|-----------------------------------------------------|
F|-----------------------------------------------------|
C|-----------------------------------------------------|
G|-10-11-10-9-10-9-8-9-8-7-8-7-6-7-6-5-6-5-4-5-4-3~~~~-|
D|-10-11-10-9-10-9-8-9-8-7-8-7-6-7-6-5-6-5-4-5-4-3~~~~-|
A|- 8- 9- 8-7- 8-7-6-7-6-5-6-5-4-5-4-3-4-3-2-3-2-1~~~~-|

Bridge3:
d|------------------------------------------|
a|------------------------------------------|
F|------------------------------------------|
C|------------------------------------------|
G|-14141414-14999-9999--14141414-14999-9999-|
D|-12121212-12777-7777--12121212-12777-7777-|
A|----------------0000-----------------0000-|

Fill1:(natural harmonics)
d|-------|
a|----7*-|
F|-5*----|
C|-------|
G|-------|
D|-------|
A|-------|

Chorus:
(guitar1)
d|-----------------------------------|
a|-----------------------------------|
F|-----------------------------------|
C|-----------------------------------|
G|-2~--9---9--2-9-8--2~-9---9--2-9-8-|
D|-0~--7-0-7--0-7-6--0~-7-0-7--0-7-6-|
A|-----------------------------------|

d|-----------------------------------|
a|-----------------------------------|
F|-----------------------------------|
C|-----------------------------------|
G|-2~--9---9--2-9-8--2~-9---9--2-9-8-|
D|-0~--7-0-7--0-7-6--0~-7-0-7--0-7-6-|
A|-----------------------------------|

d|----------------------|
a|----------------------|
F|----------------------|
C|-5~~~-7~~~-9~~~-12~~~-|
G|-5~~~-7~~~-9~~~-12~~~-|
D|-3~~~-5~~~-7~~~-10~~~-|
A|----------------------|

d|-----------------------------------|
a|-----------------------------------|
F|-----------------------------------|
C|-----------------------------------|
G|-2~--9---9--2-9-8--2~-9---9--2-9-8-|
D|-0~--7-0-7--0-7-6--0~-7-0-7--0-7-6-|
A|-----------------------------------|

d|--------------------------------|
a|--------------------------------|
F|--------------------------------|
C|-5~~~-7~~~-9~~~-12~~~-2~~~~~~~~-|
G|-5~~~-7~~~-9~~~-12~~~-2~~~~~~~~-|
D|-3~~~-5~~~-7~~~-10~~~-0~~~~~~~~-|
A|--------------------------------|

(guitar2)
d|-----------------------------------|
a|-----------------------------------|
F|-----------------------------------|
C|-----------------------------------|
G|-2~--9---9--2-9-8--2~-9---9--2-9-8-|
D|-0~--7-0-7--0-7-6--0~-7-0-7--0-7-6-|
A|-----------------------------------|

d|-----------------------------------|
a|-----------------------------------|
F|-----------------------------------|
C|-----------------------------------|
G|-2~--9---9--2-9-8--2~-9---9--2-9-8-|
D|-0~--7-0-7--0-7-6--0~-7-0-7--0-7-6-|
A|-----------------------------------|

d|----------------------------------|
a|----------------------------------|
F|-12121212141414141616161619192121-|
C|-xxxxxxxxxxxxxxxxxxxxxxxxxxxxxxxx-|
G|-10101010121212121414141417171919-|
D|----------------------------------|
A|----------------------------------|

d|-----------------------------------|
a|-----------------------------------|
F|-----------------------------------|
C|-----------------------------------|
G|-2~--9---9--2-9-8--2~-9---9--2-9-8-|
D|-0~--7-0-7--0-7-6--0~-7-0-7--0-7-6-|
A|-----------------------------------|


d|----------------------------------|
a|----------------------------------|
F|-12121212141414141616161619192121-|
C|-xxxxxxxxxxxxxxxxxxxxxxxxxxxxxxxx-|
G|-10101010121212121414141417171919-|
D|----------------------------------|
A|----------------------------------|

d|--------------------|
a|--------------------|
F|-161616161616161616-|
C|-xxxxxxxxxxxxxxxxxx-|
G|-141414141414141414-|
D|--------------------|
A|--------------------|

Outro:
(guitar1)
d|---------------------------|
a|---------------------------|
F|---------------------------|
C|---------------------------|
G|---------------------------|
D|-//121212-//12121212-/1212-|
A|---------------------------|

(guitar2)
d|---------------------------------|
a|---------------------------------|
F|---------------------------------|
C|---------------------------------|
G|-7-6-7--9-7-9--10-9-10---12-10-9-|
D|---------------------------------|
A|---------------------------------|

(guitar3)
d|-------------------------------------|
a|-------------------------------------|
F|-9-8-9--11-9-11--12-11-12---14-12-11-|
C|-------------------------------------|
G|-------------------------------------|
D|-------------------------------------|
A|-------------------------------------|

(guitar4)
d|-----------------------------------|
a|-----------------------------------|
F|-----------------------------------|
C|-----------------------------------|
G|-2-2--2---2-2--2---2-2--2---2-2--2-|
D|-0-0--0---0-0--0---0-0--0---0-0--0-|
A|-----------------------------------|

(synth)
d|---------------------------|
a|---------------------------|
F|-16~~-14~~-11~~~--12~11~9~-|
C|-xx---xx---xx-----xx-xx-x--|
G|-14~--12~-- 9~~~--10~ 9~7~-|
D|---------------------------|
A|---------------------------|

(guitar5)
d|---------------------------------|
a|---------------------------------|
F|---------------------------------|
C|---------------------------------|
G|-7-6-7--9-7-9--10-9-10---12-10-9-|
D|-7-6-7--9-7-9--10-9-10---12-10-9-|
A|-5-4-5--7-5-7-- 8-7- 8---10- 8-7-|

Fill2:
(guitar)
d|----|
a|----|
F|----|
C|----|
G|-7~-|
D|-7~-|
A|-5~-|

(synth)
d|-----------------|
a|-----------------|
F|-16~~-14~~-11~~~-|
C|-xx---xx---xx----|
G|-14~--12~-- 9~~~-|
D|-----------------|
A|-----------------|

KoRn - Love And Luxury - Untitled

Tabbed by Elvisz (elvisz84@yahoo.com)
Tuning : 7 String Tuned Low to High (A D G C F a d)

Vocal: Jonathan Houseman Davis 'Hiv'
Guitar: James Randal Shaffer 'Munky'
Bass: Reginald Arvizu 'Fieldy'
Drums: Jonathan Houseman Davis 'Hiv'

Intro:
d|-----------------------------|
a|-----------------------------|
F|-----------------------------|
C|-10--1010-10\99\710--1010-10-|
G|-10--1010-10\99\710--1010-10-|
D|- 8-- 8 8- 8\77\5 8-- 8 8- 8-|
A|-----------------------------|

d|-------------------------------|
a|-------------------------------|
F|-------------------------------|
C|---10--1010-10\99\710--1010-10-|
G|---10--1010-10\99\710--1010-10-|
D|-X- 8-- 8 8- 8\77\5 8-- 8 8- 8-|
A|-X-----------------------------|

Verse:
d|-----------------------------|
a|-----------------------------|
F|-----------------------------|
C|-10--1010-10\99\710--1010-10-|
G|-10--1010-10\99\710--1010-10-|
D|- 8-- 8 8- 8\77\5 8-- 8 8- 8-|
A|-----------------------------|

d|-------------------------------|
a|-------------------------------|
F|-------------------------------|
C|---10--1010-10\99\710--1010-10-|
G|---10--1010-10\99\710--1010-10-|
D|-X- 8-- 8 8- 8\77\5 8-- 8 8- 8-|
A|-X-----------------------------|

Chorus:
(guitar1)
d|-----------------------------------------------------------------|
a|-----------------------------------------------------------------|
F|-----------------------------------------------------------------|
C|-----------------------------------------------------------------|
G|-------7-7-9-9-7-------7-7-9-9-7-------2-2-2-2-2-------4-4-4-4-4-|
D|-9-9-9-----------7-7-7-----------5-5-5-----------7-7-7-----------|
A|-----------------------------------------------------------------|

(guitar2)
d|----------------------------------------------------------|
a|-12-12^(14)'-----12-12^(14)'-----10-10^(12)'----10-9------|
F|-----------------------------------------------------9----|
C|-------------------------------------------------------11-|
G|----------------------------------------------------------|
D|----------------------------------------------------------|
A|----------------------------------------------------------|

(guitar3)
d|------------------------------------------|
a|------------------------------------------|
F|------------------------------------------|
C|-1111111111111111999999997777777799999999-|
G|-1111111111111111999999997777777799999999-|
D|- 9 9 9 9 9 9 9 9777777775555555577777777-|
A|------------------------------------------|

Pre-verse:
(guitar1)
d|-----------------------------|
a|-----------------------------|
F|-----------------------------|
C|-10--1010-10\99\710--1010-10-|
G|-10--1010-10\99\710--1010-10-|
D|- 8-- 8 8- 8\77\5 8-- 8 8- 8-|
A|-----------------------------|

d|-------------------------------|
a|-------------------------------|
F|-------------------------------|
C|---10--1010-10\99\710--1010-10-|
G|---10--1010-10\99\710--1010-10-|
D|-X- 8-- 8 8- 8\77\5 8-- 8 8- 8-|
A|-X-----------------------------|

(guitar2)
d|--------------------------|
a|--------------------------|
F|--------------------------|
C|-17~~--16~~-15~~--17-14~~-|
G|--------------------------|
D|--------------------------|
A|--------------------------|

Verse:
d|-----------------------------|
a|-----------------------------|
F|-----------------------------|
C|-10--1010-10\99\710--1010-10-|
G|-10--1010-10\99\710--1010-10-|
D|- 8-- 8 8- 8\77\5 8-- 8 8- 8-|
A|-----------------------------|

d|-------------------------------|
a|-------------------------------|
F|-------------------------------|
C|---10--1010-10\99\710--1010-10-|
G|---10--1010-10\99\710--1010-10-|
D|-X- 8-- 8 8- 8\77\5 8-- 8 8- 8-|
A|-X-----------------------------|

Chorus:
(guitar1)
d|-----------------------------------------------------------------|
a|-----------------------------------------------------------------|
F|-----------------------------------------------------------------|
C|-----------------------------------------------------------------|
G|-------7-7-9-9-7-------7-7-9-9-7-------2-2-2-2-2-------4-4-4-4-4-|
D|-9-9-9-----------7-7-7-----------5-5-5-----------7-7-7-----------|
A|-----------------------------------------------------------------|

(guitar2)
d|----------------------------------------------------------|
a|-12-12^(14)'-----12-12^(14)'-----10-10^(12)'----10-9------|
F|-----------------------------------------------------9----|
C|-------------------------------------------------------11-|
G|----------------------------------------------------------|
D|----------------------------------------------------------|
A|----------------------------------------------------------|

(guitar3)
d|------------------------------------------|
a|------------------------------------------|
F|------------------------------------------|
C|-1111111111111111999999997777777799999999-|
G|-1111111111111111999999997777777799999999-|
D|- 9 9 9 9 9 9 9 9777777775555555577777777-|
A|------------------------------------------|

Bridge1:
d|-----------------------------------------------|
a|-----------------------------------------------|
F|-----------------------------------------------|
C|-----------------------------------------------|
G|-99999999--------------------------------------|
D|---------22222-000000--22-5-22-000--542-00-222-|
A|-----------------------------------------------|

d|-------------------------------------------------|
a|-------------------------------------------------|
F|-------------------------------------------------|
C|-------------------------------------------------|
G|-99999999-777-6-99-2-2-99-12-9-12-9-12-777-66-22-|
D|-------------------------------------------------|
A|-------------------------------------------------|

Bridge2:
d|-------------------------------------------------|
a|-------------------------------------------------|
F|-------------------------------------------------|
C|-------------------------------------------------|
G|-99999999-777-6-99-2-2-99-12-9-12-9-12-777-66-22-|
D|-------------------------------------------------|
A|-------------------------------------------------|

Bridge3:
d|----------------------------------------------------------|
a|-12-12^(14)'-----12-12^(14)'-----10-10^(12)'----10-9------|
F|-----------------------------------------------------9----|
C|-------------------------------------------------------11-|
G|----------------------------------------------------------|
D|----------------------------------------------------------|
A|----------------------------------------------------------|

Chorus:
(guitar1)
d|-----------------------------------------------------------------|
a|-----------------------------------------------------------------|
F|-----------------------------------------------------------------|
C|-----------------------------------------------------------------|
G|-------7-7-9-9-7-------7-7-9-9-7-------2-2-2-2-2-------4-4-4-4-4-|
D|-9-9-9-----------7-7-7-----------5-5-5-----------7-7-7-----------|
A|-----------------------------------------------------------------|

(guitar2)
d|----------------------------------------------------------|
a|-12-12^(14)'-----12-12^(14)'-----10-10^(12)'----10-9------|
F|-----------------------------------------------------9----|
C|-------------------------------------------------------11-|
G|----------------------------------------------------------|
D|----------------------------------------------------------|
A|----------------------------------------------------------|

(guitar3)
d|------------------------------------------|
a|------------------------------------------|
F|------------------------------------------|
C|-1111111111111111999999997777777799999999-|
G|-1111111111111111999999997777777799999999-|
D|- 9 9 9 9 9 9 9 9777777775555555577777777-|
A|------------------------------------------|

Fill1:
d|--------------------------------------------|
a|--------------------------------------------|
F|--------------------------------------------|
C|-18~~~--18^(19)'18-18^(19)'18-18^(19)20^(21)|
G|--------------------------------------------|
D|--------------------------------------------|
A|--------------------------------------------|

d|--------------------------------------------------|
a|--------------------------------------------------|
F|-18-20-20^(21)~~-20-18~~-18~~---------------------|
C|----------------------------------18~~-18^(19)'18-|
G|--------------------------------------------------|
D|--------------------------------------------------|
A|--------------------------------------------------|

KoRn - Innocent Bystander - Untitled

Tabbed by Elvisz (elvisz84@yahoo.com)
Tuning : 7 String Tuned Low to High (A D G C F a d)

Vocal: Jonathan Houseman Davis 'Hiv'
Guitar: James Randal Shaffer 'Munky'
Bass: Reginald Arvizu 'Fieldy'
Drums: Brooks Wackerman

Intro:
d|--------------|
a|--------------|
F|--------------|
C|--------------|
G|-9-9-10-11-12-|
D|-7-7- 8- 9-10-|
A|--------------|

Verse:
d|--------------|
a|--------------|
F|--------------|
C|--------------|
G|-9-9-10-11-12-|
D|-7-7- 8- 9-10-|
A|--------------|

Pre-Chorus:
d|--------------|
a|--------------|
F|--------------|
C|--------------|	(guitar1)
G|-9-9-10-11-12-|
D|-7-7- 8- 9-10-|
A|--------------|

d|-----------------------|
a|-----------------------|
F|-----------------------|
C|-17~~~--14~~~-13~~~~~~-|	Synth
G|-xx-----xx----xx-------|
D|-15~~~--12~~~-11~~~~~~-|
A|-----------------------|

Chorus:
Guitar1
d|-------------------------------------------|
a|-------------------------------------------|
F|-------------------------------------------|
C|-------------------------------------------|	(guitar1)
G|-77777777/88\77\55/77-77777777/88\77\55/77-|
D|-77777777/88\77\55/77-77777777/88\77\55/77-|
A|-55555555/66\55\33/55-55555555/66\55\33/55-|

d|---------------------------------------------|
a|---------------------------------------------|
F|---------------------------------------------|
C|---------------------------------------------|	(guitar1)
G|------10\99-7/99-10\99------10\99-7/99-10\99-|
D|-22-2- 8\77-5/77- 8\77-22-2- 8\77-5/77- 8\77-|
A|-00-0------------------00-0------------------|
   .. .                  .. .                   .palm mute

Guitar2
d|--------------------------------------|
a|--------------------------------------|
F|--------------------------------------|
C|-1414141414141414/1515\1414\1212/1414-|	(guitar2)
G|-1414141414141414/1515\1414\1212/1414-|
D|-1212121212121212/1313\1212\1010/1212-|
A|--------------------------------------|

d|--------------------------------------|
a|--------------------------------------|
F|--------------------------------------|
C|-1414141414141414/1515\1414\1212/1414-|	(guitar2)
G|-1414141414141414/1515\1414\1212/1414-|
D|-1212121212121212/1313\1212\1010/1212-|
A|--------------------------------------|

d|---------------------------------------------|
a|---------------------------------------------|
F|---------------------------------------------|
C|---------------------------------------------|	(guitar2)
G|------10\99-7/99-10\99------10\99-7/99-10\99-|
D|-22-2- 8\77-5/77- 8\77-22-2- 8\77-5/77- 8\77-|
A|-00-0------------------00-0------------------|
   .. .                  .. .                   .palm mute

Pre-Verse:
d|----------------------------|
a|----------------------------|
F|----------------------------|
C|----------------------------|	(guitar1)
G|-9-9-10-11-12---------------|
D|-7-7- 8- 9-10---------------|
A|----------------------------|

d|----------------------------|
a|----------------------------|
F|----------------------------|
C|----------------------------|	(guitar2 clean)
G|----------------------------|
D|---------------10----9----8-|
A|------------------00---00---|
                    ..   ..

Verse:
d|--------------|
a|--------------|
F|--------------|
C|--------------|
G|-9-9-10-11-12-|
D|-7-7- 8- 9-10-|
A|--------------|

Pre-Chorus:
d|--------------|
a|--------------|
F|--------------|
C|--------------|	(guitar1)
G|-9-9-10-11-12-|
D|-7-7- 8- 9-10-|
A|--------------|

d|-----------------------|
a|-----------------------|
F|-----------------------|
C|-17~~~--14~~~-13~~~~~~-|	Synth
G|-xx-----xx----xx-------|
D|-15~~~--12~~~-11~~~~~~-|
A|-----------------------|

Chorus:
Guitar1
d|-------------------------------------------|
a|-------------------------------------------|
F|-------------------------------------------|
C|-------------------------------------------|	(guitar1)
G|-77777777/88\77\55/77-77777777/88\77\55/77-|
D|-77777777/88\77\55/77-77777777/88\77\55/77-|
A|-55555555/66\55\33/55-55555555/66\55\33/55-|

d|---------------------------------------------|
a|---------------------------------------------|
F|---------------------------------------------|
C|---------------------------------------------|	(guitar1)
G|------10\99-7/99-10\99------10\99-7/99-10\99-|
D|-22-2- 8\77-5/77- 8\77-22-2- 8\77-5/77- 8\77-|
A|-00-0------------------00-0------------------|
   .. .                  .. .                   .palm mute

Guitar2
d|--------------------------------------|
a|--------------------------------------|
F|--------------------------------------|
C|-1414141414141414/1515\1414\1212/1414-|	(guitar2)
G|-1414141414141414/1515\1414\1212/1414-|
D|-1212121212121212/1313\1212\1010/1212-|
A|--------------------------------------|

d|--------------------------------------|
a|--------------------------------------|
F|--------------------------------------|
C|-1414141414141414/1515\1414\1212/1414-|	(guitar2)
G|-1414141414141414/1515\1414\1212/1414-|
D|-1212121212121212/1313\1212\1010/1212-|
A|--------------------------------------|

d|---------------------------------------------|
a|---------------------------------------------|
F|---------------------------------------------|
C|---------------------------------------------|	(guitar2)
G|------10\99-7/99-10\99------10\99-7/99-10\99-|
D|-22-2- 8\77-5/77- 8\77-22-2- 8\77-5/77- 8\77-|
A|-00-0------------------00-0------------------|
   .. .                  .. .                   .palm mute

Bridge1:
d|------------------------------------------------------|
a|------------------------------------------------------|
F|------------------------------------------------------|
C|------------------------------------------------------|
G|-------12-----------12------------14-----------14-----|
D|/14-14---1414-1111----1111--15-15---1515-11-11---1111-|
A|------------------------------------------------------|

Bridge2:
d|------------------------------------|
a|------------------------------------|
F|------------------------------------|
C|------------------------------------|
G|-2222--------1111--2222--------1111-|
D|-----3333--------------3333---------|
A|---------3333--------------3333-----|
   ................ .................  .palm mute
Bridge3:
d|------------------------------------|
a|------------------------------------|
F|------------------------------------|
C|-4444--------3333--4444--------3333-|
G|-22225555----1111--22225555----1111-|
D|-----33335555----------33335555-----|
A|---------3333--------------3333-----|

Bridge4:
Guitar1
d|-------------------------------------------|
a|-------------------------------------------|
F|-------------------------------------------|
C|-------------------------------------------|	(guitar1)
G|-77777777/88\77\55/77-77777777/88\77\55/77-|
D|-77777777/88\77\55/77-77777777/88\77\55/77-|
A|-55555555/66\55\33/55-55555555/66\55\33/55-|

d|---------------------------------------------|
a|---------------------------------------------|
F|---------------------------------------------|
C|---------------------------------------------|	(guitar1)
G|------10\99-7/99-10\99------10\99-7/99-10\99-|
D|-22-2- 8\77-5/77- 8\77-22-2- 8\77-5/77- 8\77-|
A|-00-0------------------00-0------------------|
   .. .                  .. .                   .palm mute

Guitar2
d|------------------------------------------|
a|------------------------------------------|
F|-11~~~~11^(12)~~~~~-----------------------|
C|-------------------9~~~~~~9^(10)~~~~r9~~~-|	(guitar2)
G|------------------------------------------|
D|------------------------------------------|
A|------------------------------------------|

d|------------------------------------------|
a|-15~~~~~~~~~~--16~~~~~~~~~~~--22~~~~~~~~~-|
F|-17^(18)~~~~~--18^(19)~~~~~~--24^(25)~~~~-|
C|------------------------------------------|	(guitar2)
G|------------------------------------------|
D|------------------------------------------|
A|------------------------------------------|

Fill1:
Guitar1
d|-------------------------------------------|
a|-------------------------------------------|
F|-------------------------------------------|
C|-------------------------------------------|	(guitar1)
G|-77777777/88\77\55/77-77777777/88\77\5-----|
D|-77777777/88\77\55/77-77777777/88\77\5-----|
A|-55555555/66\55\33/55-55555555/66\55\3-----|

d|---------------------------------------------|
a|---------------------------------------------|
F|---------------------------------------------|
C|---------------------------------------------|	(guitar2)
G|------10\99-7/99-10\99------10\99-7/99-10\99-|
D|------ 8\77-5/77- 8\77-22-2- 8\77-5/77- 8\77-|
A|-----------------------00-0------------------|
                         .. .                   .palm mute

Guitar2
d|--------------------------------------|
a|--------------------------------------|
F|--------------------------------------|
C|-1414141414141414/1515\1414\1212/1414-|	(guitar2)
G|-1414141414141414/1515\1414\1212/1414-|
D|-1212121212121212/1313\1212\1010/1212-|
A|--------------------------------------|

d|--------------------------------------|
a|--------------------------------------|
F|--------------------------------------|
C|-1414141414141414/1515\1414\12--------|	(guitar2)
G|-1414141414141414/1515\1414\12--------|
D|-1212121212121212/1313\1212\10--------|
A|--------------------------------------|

d|---------------------------------------------|
a|---------------------------------------------|
F|---------------------------------------------|
C|---------------------------------------------|	(guitar2)
G|------10\99-7/99-10\99------10\99-7/99-10\99-|
D|------ 8\77-5/77- 8\77-22-2- 8\77-5/77- 8\77-|
A|-----------------------00-0------------------|
                         .. .                   .palm mute

Chorus:
Guitar1
d|-------------------------------------------|
a|-------------------------------------------|
F|-------------------------------------------|
C|-------------------------------------------|	(guitar1)
G|-77777777/88\77\55/77-77777777/88\77\55/77-|
D|-77777777/88\77\55/77-77777777/88\77\55/77-|
A|-55555555/66\55\33/55-55555555/66\55\33/55-|

d|---------------------------------------------|
a|---------------------------------------------|
F|---------------------------------------------|
C|---------------------------------------------|	(guitar1)
G|------10\99-7/99-10\99------10\99-7/99-10\99-|
D|-22-2- 8\77-5/77- 8\77-22-2- 8\77-5/77- 8\77-|
A|-00-0------------------00-0------------------|
   .. .                  .. .                   .palm mute

Guitar2
d|--------------------------------------|
a|--------------------------------------|
F|--------------------------------------|
C|-1414141414141414/1515\1414\1212/1414-|	(guitar2)
G|-1414141414141414/1515\1414\1212/1414-|
D|-1212121212121212/1313\1212\1010/1212-|
A|--------------------------------------|

d|--------------------------------------|
a|--------------------------------------|
F|--------------------------------------|
C|-1414141414141414/1515\1414\1212/1414-|	(guitar2)
G|-1414141414141414/1515\1414\1212/1414-|
D|-1212121212121212/1313\1212\1010/1212-|
A|--------------------------------------|

d|---------------------------------------------|
a|---------------------------------------------|
F|---------------------------------------------|
C|---------------------------------------------|	(guitar2)
G|------10\99-7/99-10\99------10\99-7/99-10\99-|
D|-22-2- 8\77-5/77- 8\77-22-2- 8\77-5/77- 8\77-|
A|-00-0------------------00-0------------------|
   .. .                  .. .                   .palm mute

OUtro:
d|---------------------------------------------|
a|---------------------------------------------|
F|---------------------------------------------|
C|---------------------------------------------|	(guitar1)
G|------10\99-7/99-10\99------10\99-7/99-10\99-|
D|-22-2- 8\77-5/77- 8\77-22-2- 8\77-5/77- 8\77-|
A|-00-0------------------00-0------------------|
   .. .                  .. .                   .palm mute

d|-----------------------------------------------------------|
a|-15~~~~~~~~--16~~~~~~~~-17~~~~~~~~~~~~~~~~~~~~-22~~~~~~~~~-|
F|-17^(18)~~~--18^(19)~~~-19^(20)~~~~~~~~~~~~~~~-24^(25)~~~~-|
C|-----------------------------------------------------------|	(guitar2)
G|-----------------------------------------------------------|
D|-----------------------------------------------------------|
A|-----------------------------------------------------------|

KoRn - Killing - Untitled

Tabbed by Elvisz (elvisz84@yahoo.com)
Tuning : 7 String Tuned Low to High (A D G C F a d)

Vocal: Jonathan Houseman Davis 'Hiv'
Guitar: James Randal Shaffer 'Munky'
Bass: Reginald Arvizu 'Fieldy'
Drums: Terry Bozzio

Intro:
d|-------------------------------------------|
a|-------------------------------------------|
F|-------------------------------------------|
C|----------------------------------------7~-|
G|------------------------------------8~7~7~-|
D|-55-55-5555--55-55-5555--55-55-5555-8~7~5~-|
A|-33-33-3333--33-33-3333--33-33-3333-6~5~---|
   .. .. ....  .. .. ....  .. .. ....         .palm mute

Pre-Verse:
d|--------------------------------------------|
a|--------------------------------------------|
F|--------------------------------------------|
C|--------------------------------------------|	(guitar1)
G|--------------------------------------------|
D|--------------------------------------------|
A|-3-3-3-334--3-3-3-334--3-3-3-334--3-3-3-334-|
   . . . ...  . . . ...  . . . ...  . . . ...  .palm mute

d|-------(0)------(0)-----------(0)------(0)------|
a|--------5~~~~~~~-5~~~~~~~~~~~--5~~~~~~~-5~~~~~~-|
F|--------3~~~~~~~-4r3~~~~~~~~~--3~~~~~~~-4r3~~~~-|
C|--------2~~~~~~~-2~~~~~~~~~~~--2~~~~~~~-2~~~~~~-|	(guitar2)
G|------------------------------------------------|
D|------------------------------------------------|
A|------------------------------------------------|

Verse:
d|-------------------------------------------|
a|-------------------------------------------|
F|-------------------------------------------|
C|----------------------------------------7~-|
G|------------------------------------8~7~7~-|
D|-55-55-5555--55-55-5555--55-55-5555-8~7~5~-|
A|-33-33-3333--33-33-3333--33-33-3333-6~5~---|
   .. .. ....  .. .. ....  .. .. ....         .palm mute

Chorus:
d|----------------------------------|
a|----------------------------------|
F|----------------------------------|
C|--------------7777----------------|	(guitar1)
G|-88888888888887777555555555555555-|
D|-88888888888885555555555555555555-|
A|-6666666666666----333333333333333-|

d|----------------------------------------------------------------------|
a|----------------------------------------------------------------------|
F|-191919191919191921---------------------------------------------------|
C|-xxxxxxxxxxxxxxxxxx19191919191919192219191919191919191919191919191919-|	(guitar2)
G|-171717171717171719xxxxxxxxxxxxxxxxxxxxxxxxxxxxxxxxxxxxxxxxxxxxxxxxxx-|
D|-------------------17171717171717172017171717171717171717171717171717-|
A|----------------------------------------------------------------------|

Pre-Verse:
d|--------------------------------------------|
a|--------------------------------------------|
F|--------------------------------------------|
C|--------------------------------------------|	(guitar1)
G|--------------------------------------------|
D|--------------------------------------------|
A|-3-3-3-334--3-3-3-334--3-3-3-334--3-3-3-334-|
   . . . ...  . . . ...  . . . ...  . . . ...  .palm mute

d|-------(0)------(0)-----------(0)------(0)------|
a|--------5~~~~~~~-5~~~~~~~~~~~--5~~~~~~~-5~~~~~~-|
F|--------3~~~~~~~-4r3~~~~~~~~~--3~~~~~~~-4r3~~~~-|
C|--------2~~~~~~~-2~~~~~~~~~~~--2~~~~~~~-2~~~~~~-|	(guitar2)
G|------------------------------------------------|
D|------------------------------------------------|
A|------------------------------------------------|

Verse:
d|-------------------------------------------|
a|-------------------------------------------|
F|-------------------------------------------|
C|----------------------------------------7~-|
G|------------------------------------8~7~7~-|
D|-55-55-5555--55-55-5555--55-55-5555-8~7~5~-|
A|-33-33-3333--33-33-3333--33-33-3333-6~5~---|
   .. .. ....  .. .. ....  .. .. ....         .palm mute

Chorus:
d|----------------------------------|
a|----------------------------------|
F|----------------------------------|
C|--------------7777----------------|	(guitar1)
G|-88888888888887777555555555555555-|
D|-88888888888885555555555555555555-|
A|-6666666666666----333333333333333-|

d|----------------------------------------------------------------------|
a|----------------------------------------------------------------------|
F|-191919191919191921---------------------------------------------------|
C|-xxxxxxxxxxxxxxxxxx19191919191919192219191919191919191919191919191919-|	(guitar2)
G|-171717171717171719xxxxxxxxxxxxxxxxxxxxxxxxxxxxxxxxxxxxxxxxxxxxxxxxxx-|
D|-------------------17171717171717172017171717171717171717171717171717-|
A|----------------------------------------------------------------------|

Fill1:
d|-----------------|
a|-----------------|
F|-----------------|
C|-191919191919~~~-|
G|-xxxxxxxxxxxx----|
D|-171717171717~~~-|
A|-----------------|

Bridge1:
d|------------------------------------------------------------|
a|------------------------------------------------------------|
F|------------------------------------------------------------|
C|-17----17---17----17--17----16----16---16----16----16--16---|
G|----19---19----19---19--19-----19---19----19----19---19--19-|
D|------------------------------------------------------------|
A|------------------------------------------------------------|

d|-----------------------------------------------|
a|-----------------------------------------------|
F|-----------------------------------------------|
C|-17----17---17----17--17----16----16---16~~~~~-|
G|----19---19----19---19--19-----19---19---------|
D|-----------------------------------------------|
A|-----------------------------------------------|

Bridge2:
d|-----------------------------------|
a|-----------------------------------|
F|-----------------------------------|
C|-----------------------------------|
G|-----------------------------------|
D|-----------------------------------|
A|-8-5-85-8-5-8-585-7-5-75-7-5-7-575-|

d|-----------------------------------|
a|-----------------------------------|
F|-----------------------------------|
C|-----------------------------------|
G|-----------------------------------|
D|-----------------------------------|
A|-3-0-30-3-0-3-030-2-0-20-2-0-2-020-|

d|-----------------------------------|
a|-----------------------------------|
F|-----------------------------------|
C|-----------------------------------|
G|-----------------------------------|
D|-----------------------------------|
A|-8-5-85-8-5-8-585-7-5-75-7-5-7-575-|

d|---------------------------|
a|---------------------------|
F|---------------------------|
C|---------------------------|
G|---------------------------|
D|---------------------------|
A|-3-0-30-3-0-3-030-2-0-20-2-|

Fill2:
d|-------------------------------------------|
a|-------------------------------------------|
F|-------------------------------------------|
C|----------------------------------------7~-|	(guitar1)
G|------------------------------------8~7~7~-|
D|-55-55-5555--55-55-5555--55-55-5555-8~7~5~-|
A|-33-33-3333--33-33-3333--33-33-3333-6~5~---|
   .. .. ....  .. .. ....  .. .. ....         .palm mute

d|------------------------------------------------------------|
a|----------------------------------------------------15~~~~~~|
F|-19191919\14141414/15151515\12121212/1414\1515\1414-17^(18)-|
C|-xxxxxxxxxxxxxxxxxxxxxxxxxxxxxxxxxxxxxxxxxxxxxxxxxx---------|	(guitar2)
G|-17171717\12121212/13131313\10101010/1212\1313\1212---------|
D|------------------------------------------------------------|
A|------------------------------------------------------------|

d|----------------------------------------------------------------------------|
a|----------------------------------------------------15~~~~~~16~~~~~~17~~~~~~|
F|-19191919\14141414/15151515\12121212/1414\1515\1414-17^(18)~18^(19)~19^(20)~|
C|-xxxxxxxxxxxxxxxxxxxxxxxxxxxxxxxxxxxxxxxxxxxxxxxxxx-------------------------|	(guitar2)
G|-17171717\12121212/13131313\10101010/1212\1313\1212-------------------------|
D|----------------------------------------------------------------------------|
A|----------------------------------------------------------------------------|

Outro:
(guitar1)
d|------------------------------------------------------|
a|------------------------------------------------------|
F|------------------------------------------------------|
C|------------------------------------------------------|
G|------------------------------------------------------|
D|---------5555---------55555---------------------------|
A|-66665555-----66665555------666655554444-666655554444-|
   ............ ............. ............ ............  .palm mute

d|------------------------------------------------------|
a|------------------------------------------------------|
F|------------------------------------------------------|
C|------------------------------------------------------|
G|-------------------------------------------------3~~~~|
D|---------5555---------55555----------------------3~~~~|
A|-66665555-----66665555------666655554444-666655551~~~~|
   ............ ............. ............ ........      .palm mute

(guitar2)
d|--------------------------------------------|
a|--------------------------------------------|
F|--------------------------------------------|
C|--------------------------------------------|
G|--------------------------------------------|
D|----------------858585---------------858585-|
A|-106106106959595------106106106959595-------|
   -T -T -T T T T T T T -T -T -T T T T T T T    T tap with pick

d|--------------------------------------------|
a|--------------------------------------------|
F|--------------------------------------------|
C|--------------------------------------------|
G|--------------------------------------------|
D|--------------------------------------------|
A|-106106106959595747474106106106959595747474-|
   -T -T -T T T T T T T -T -T -T T T T T T T    T tap with pick

d|--------------------------------------------|
a|--------------------------------------------|
F|--------------------------------------------|
C|--------------------------------------------|
G|--------------------------------------------|
D|----------------858585---------------858585-|
A|-106106106959595------106106106959595-------|
   -T -T -T T T T T T T -T -T -T T T T T T T    T tap with pick

d|--------------------------------------------|
a|--------------------------------------------|
F|--------------------------------------------|
C|--------------------------------------------|
G|--------------------------------------------|
D|--------------------------------------------|
A|-10610610695959574747410610610695959551~~~~-|
   -T -T -T T T T T T T -T -T -T T T T T       T tap with pick

KoRn - Hushabye - Untitled

Tabbed by Elvisz (elvisz84@yahoo.com)
Tuning : 7 String Tuned Low to High (A D G C F a d)

Vocal: Jonathan Houseman Davis 'Hiv'
Guitar: James Randal Shaffer 'Munky'
Bass: Reginald Arvizu 'Fieldy'
Drums: Brooks Wackerman

Intro:
d|--------------------------------------------|
a|------3-3-------3-3----------5-5-------5-5--|
F|---4---4-4---4---4-4------6---6-6---6---6-6-|
C|--------------------------------------------| (guitar1)	
G|-2---------2----------//4---------4---------|
D|--------------------------------------------|
A|--------------------------------------------|

(guitar2)
d|-222222222222\2121212121212121\\1515151515151515\14141414|
a|---------------------------------------------------------|
F|---------------------------------------------------------|
C|---------------------------------------------------------|	(guitar2)
G|---------------------------------------------------------|
D|---------------------------------------------------------|
A|---------------------------------------------------------|

d|---------------------------------------------------------|
a|15151515~~~~-15151515/17171717\141414141414141414\1212\\-|
F|---------------------------------------------------------|
C|---------------------------------------------------------|	(guitar2)
G|---------------------------------------------------------|
D|---------------------------------------------------------|
A|---------------------------------------------------------|

Verse:
d|--------------------------------------------|
a|------3-3-------3-3----------5-5-------5-5--|
F|---4---4-4---4---4-4------6---6-6---6---6-6-|
C|--------------------------------------------|
G|-2---------2----------//4---------4---------|
D|--------------------------------------------|
A|--------------------------------------------|

Fill1:
d|--------------------|
a|--------------------|
F|--------------------|
C|-16~~~-15~~~-12~~~~-|	(guitar2)
G|-xx----xx----xx-----|
D|-14~~~-13~~~-10~~~~-|
A|--------------------|

Chorus:
d|---------------------------------------|
a|---------------------------------------|
F|---------------------------------------|
C|---------------------------------------|
G|-----------------------------------7~\-|
D|-2~~-5---5--2~~-5---5--4~--2----5~-5~\-|
A|-0~~-3-0-3--0~~-3-0-3--2~---30~-3~-----|

d|-----------------------------------------|
a|-----------------------------------------|
F|-----------------------------------------|
C|-----------------------------------------|
G|-----------------------------------7~-5~-|
D|-2~~-5---5--2~~-5---5--4~--2----5~-5~-3~-|
A|-0~~-3-0-3--0~~-3-0-3--2~---30~-3~-------|

Pre-Verse:
d|--------------------------------------------|
a|------3-3-------3-3----------5-5-------5-5--|
F|---4---4-4---4---4-4------6---6-6---6---6-6-|
C|--------------------------------------------| (guitar1)	
G|-2---------2----------//4---------4---------|
D|--------------------------------------------|
A|--------------------------------------------|

(guitar2)
d|-222222222222\2121212121212121\\1515151515151515\14141414|
a|---------------------------------------------------------|
F|---------------------------------------------------------|
C|---------------------------------------------------------|	(guitar2)
G|---------------------------------------------------------|
D|---------------------------------------------------------|
A|---------------------------------------------------------|

d|---------------------------------------------------------|
a|15151515~~~~-15151515/17171717\141414141414141414\1212\\-|
F|---------------------------------------------------------|
C|---------------------------------------------------------|	(guitar2)
G|---------------------------------------------------------|
D|---------------------------------------------------------|
A|---------------------------------------------------------|

Verse:
d|--------------------------------------------|
a|------3-3-------3-3----------5-5-------5-5--|
F|---4---4-4---4---4-4------6---6-6---6---6-6-|
C|--------------------------------------------|
G|-2---------2----------//4---------4---------|
D|--------------------------------------------|
A|--------------------------------------------|

Fill1:
d|--------------------|
a|--------------------|
F|--------------------|
C|-16~~~-15~~~-12~~~~-|	(guitar2)
G|-xx----xx----xx-----|
D|-14~~~-13~~~-10~~~~-|
A|--------------------|

Fill2:
d|---------------------------------|
a|---------------------------------|
F|---------------------------------|
C|-4-44444-4-44444-7-77777-6-66666-|
G|-2-22222-2-22222-5-55555-4-44444-|
D|---------------------------------|
A|---------------------------------|

d|-----------------|
a|-----------------|
F|-----------------|
C|-6-66666-6-66666-|
G|-4-44444-4-44444-|
D|-----------------|
A|-----------------|

Chorus:
d|---------------------------------------|
a|---------------------------------------|
F|---------------------------------------|
C|---------------------------------------|
G|-----------------------------------7~\-|
D|-2~~-5---5--2~~-5---5--4~--2----5~-5~\-|
A|-0~~-3-0-3--0~~-3-0-3--2~---30~-3~-----|

d|-----------------------------------------|
a|-----------------------------------------|
F|-----------------------------------------|
C|-----------------------------------------|
G|-----------------------------------7~-5~-|
D|-2~~-5---5--2~~-5---5--4~--2----5~-5~-3~-|
A|-0~~-3-0-3--0~~-3-0-3--2~---30~-3~-------|

Bridge1:
d|-----------------------------------------------------|
a|-12121212-12-x10101010-10-x-14141414-14-x15151515\14-|
F|-11111111-11-x 9 9 9 9- 9-x-13131313-13-x14141414\13-|
C|- 9 9 9 9- 9-x 7 7 7 7- 7-x-11111111-11-x12121212\11-|
G|-----------------------------------------------------|
D|-----------------------------------------------------|
A|-----------------------------------------------------|

Bridge2:
d|----------------------------------------------------------|
a|----------------------------------------------------------|
F|----------------------------------------------------------|
C|-9999x-9999x----------------------------------7777x-8888x-|
G|-9999x-9999x--10101010x-10101010x-7777x-7777x-7777x-8888x-|
D|-7777x-7777x--10101010x-10101010x-7777x-7777x-5555x-6666x-|
A|-------------- 8 8 8 8x- 8 8 8 8x-5555x-5555x-------------|

Verse:
d|--------------------------------------------|
a|------3-3-------3-3----------5-5-------5-5--|
F|---4---4-4---4---4-4------6---6-6---6---6-6-|
C|--------------------------------------------|
G|-2---------2----------//4---------4---------|
D|--------------------------------------------|
A|--------------------------------------------|

Chorus:
d|---------------------------------------|
a|---------------------------------------|
F|---------------------------------------|
C|---------------------------------------|
G|-----------------------------------7~\-|
D|-2~~-5---5--2~~-5---5--4~--2----5~-5~\-|
A|-0~~-3-0-3--0~~-3-0-3--2~---30~-3~-----|

d|-----------------------------------------|
a|-----------------------------------------|
F|-----------------------------------------|
C|-----------------------------------------|
G|-----------------------------------7~-5~-|
D|-2~~-5---5--2~~-5---5--4~--2----5~-5~-3~-|
A|-0~~-3-0-3--0~~-3-0-3--2~---30~-3~-------|

Outro:
d|-----------------------------------------------------|
a|-12121212-12-x10101010-10-x-14141414-14-x15151515\14-|
F|-11111111-11-x 9 9 9 9- 9-x-13131313-13-x14141414\13-|
C|- 9 9 9 9- 9-x 7 7 7 7- 7-x-11111111-11-x12121212\11-|
G|-----------------------------------------------------|
D|-----------------------------------------------------|
A|-----------------------------------------------------|

KoRn - I Will Protect You - Untitled

Tabbed by Elvisz (elvisz84@yahoo.com)
Tuning : 7 String Tuned Low to High (A D G C F a d)

Vocal: Jonathan Houseman Davis 'Hiv'
Guitar: James Randal Shaffer 'Munky'
Bass: Reginald Arvizu 'Fieldy'
Drums: Terry Bozzio

Verse:
d|-------------------------|
a|-------------------------|
F|-------------------------|
C|-------------------------|	(guitar1)
G|-------------------------|
D|-77--777-777--7-7-7--777-|
A|-55--555-555--5-5-5--555-|
   ..  ... ...  . . .  ...  .palm mute

d|--------------------------------------------|
a|--------------------------------------------|
F|--------------------------------------------|
C|--------------------------------------------|	(guitar2)
G|-//19~~\\14~~//15~\\12~/14/15\14\12\11~~7~~-|
D|--------------------------------------------|
A|--------------------------------------------|

Pre-Chorus:
d|----------------------------------------------------|
a|----------------------------------------------------|
F|----------------------------------------------------|
C|----------------------------------------------------|
G|-777x-999x-101010x-555x-999x-777x-999x-101010x-555x-|
D|-777x-999x-101010x-555x-999x-777x-999x-101010x-555x-|
A|-555x-777x- 8 8 8x-333x-777x-555x-777x- 8 8 8x-333x-|

Chorus:
d|---------------|
a|---------------|
F|---------------|
C|---------------|	(guitar1)
G|-7~~~~~-5~~~~~-|
D|-7~~~~~-5~~~~~-|
A|-5~~~~~-3~~~~~-|

Fill1:
d|-----------------|
a|-----------------|
F|-----------------|
C|-----------------|
G|-//12~~~~~\11~~~-|
D|-----------------|
A|-----------------|

Verse:
d|-------------------------|
a|-------------------------|
F|-------------------------|
C|-------------------------|	(guitar1)
G|-------------------------|
D|-77--777-777--7-7-7--777-|
A|-55--555-555--5-5-5--555-|
   ..  ... ...  . . .  ...  .palm mute

d|--------------------------------------------|
a|--------------------------------------------|
F|--------------------------------------------|
C|--------------------------------------------|	(guitar2)
G|-//19~~\\14~~//15~\\12~/14/15\14\12\11~~7~~-|
D|--------------------------------------------|
A|--------------------------------------------|

Pre-Chorus:
d|----------------------------------------------------|
a|----------------------------------------------------|
F|----------------------------------------------------|
C|----------------------------------------------------|
G|-777x-999x-101010x-555x-999x-777x-999x-101010x-555x-|
D|-777x-999x-101010x-555x-999x-777x-999x-101010x-555x-|
A|-555x-777x- 8 8 8x-333x-777x-555x-777x- 8 8 8x-333x-|

Chorus:
d|---------------|
a|---------------|
F|---------------|
C|---------------|	(guitar1)
G|-7~~~~~-5~~~~~-|
D|-7~~~~~-5~~~~~-|
A|-5~~~~~-3~~~~~-|

Bridge1:
d|------------------------------------------|
a|------------------------------------------|
F|-1212-1212-1111-1111------1010-1010-99-99-|
C|-xxxx-xxxx-xxxx-xxxx------xxxx-xxxx-xx-xx-|
G|-1010-1010- 9 9- 9 9------ 8 8- 8 8-77-77-|
D|------------------------------------------|
A|------------------------------------------|

Bridge2:
d|------------------------------------------|
a|------------------------------------------|
F|-1212-1212-1111-1111------1010-1010-99-99-|
C|-xxxx-xxxx-xxxx-xxxx------xxxx-xxxx-xx-xx-|	(guitar1)
G|-1010-1010- 9 9- 9 9------ 8 8- 8 8-77-77-|
D|------------------------------------------|
A|------------------------------------------|

d|----------------------------------|
a|----------------------------------|
F|----------------------------------|
C|----------------------------------|	(guitar2)
G|-1010-1010-99-99------88-88-77-77-|
D|-xxxx-xxxx-xx-xx------xx-xx-xx-xx-|
A|- 8 8- 8 8-77-77------66-66-55-55-|

Bridge3:
d|-------------------------------------------------|
a|-------------------------------------------------|
F|-1212-1212-1111-1111-------1010-1010-99-99-------|
C|-xxxx-xxxx-xxxx-xxxx-------xxxx-xxxx-xx-xx-------|
G|-1010-1010- 9 9- 9 9-22-2~- 8 8- 8 8-77-77-22-2~-|
D|---------------------00-0~-----------------00-0~-|
A|-------------------------------------------------|
                       ..                    ..     .palm mute

d|-------------------------------------------|
a|-------------------------------------------|
F|-------------------------------------------|
C|-------------------------------------------|	(guitar2)
G|-1010-1010-99-99-22-2~---88-88-77-77-22-2~-|
D|-xxxx-xxxx-xx-xx-00-0~---xx-xx-xx-xx-00-0~-|
A|- 8 8- 8 8-77-77---------66-66-55-55-------|
                   ..              .. .       .palm mute

Bridge4:
d|---------------------------------|
a|---------------------------------|
F|---------------------------------|
C|---------------------------------|
G|---------------------------------|
D|-2~~--------------2~-------------|
A|-0~~-6-5-3--3-1-0-0~-653-310-100-|

d|---------------------------------|
a|---------------------------------|
F|---------------------------------|
C|---------------------------------|
G|---------------------------------|
D|-2~~--------------2~-------------|
A|-0~~-6-5-3--3-1-0-0~-653-310-100-|

d|---------------------------|
a|---------------------------|
F|---------------------------|
C|---------------------------|
G|---------------------------|
D|----------2~~--------------|
A|----------0~~-6-5-3--3-1-0-|

d|---------------------------|
a|---------------------------|
F|---------------------------|
C|---------------------------|
G|---------------------------|
D|----------2~~--------------|
A|----------0~~-6~5~3~-3~1~0-|

d|------------------------------|
a|------------------------------|
F|------------------------------|
C|------------------------------|
G|------------------------------|
D|-2~~--------------222-222-222-|
A|-0~~-6-5-3--3-1-0-000-000-000-|

Chorus:
d|---------------|
a|---------------|
F|---------------|
C|---------------|	(guitar1)
G|-7~~~~~-5~~~~~-|
D|-7~~~~~-5~~~~~-|
A|-5~~~~~-3~~~~~-|

Fill2:
d|-----------------|
a|-----------------|
F|-//14~~~~~\13~~~-|
C|-----------------|
G|-----------------|
D|-----------------|
A|-----------------|

Outro:
d|-------------------|
a|-------------------|
F|-------------------|
C|-------------------|	(guitar1)
G|-77x77x-55x55x-----|
D|-xx-xx--xx-xx--2-2-|
A|-55x55x-33x33x-0-0-|

KoRn - Sing Sorrow - Untitled

Tabbed by Elvisz (elvisz84@yahoo.com)
Tuning : 7 String Tuned Low to High (A D G C F a d)
         8 String tuned Low to High (F# A D G C F a d)

Vocal: Jonathan Houseman Davis 'Hiv'
Guitar: James Randal Shaffer 'Munky'
Bass: Reginald Arvizu 'Fieldy'
Drums: Terry Bozzio

Pre-Verse:
d|-----------------------------------|
a|-----------------------------------|
F|-----------------------------------|
C|-----------------------------------|
G|-77-77--77-77--99-99-1010-1010--\\-|
D|-77-77--77-77--99-99-1010-1010--\\-|
A|-55-55--55-55--77-77- 8 8- 8 8--\\-|

Verse:
d|--------------------------------------------------- 0~-|
a|---------------------------------------------------17~-|
F|-------------------------------------------------------|
C|-------------------------------------------------------|
G|-------h10r7-------h10r7--------h12r9-------h14r10-----|
D|-------------------------------------------------------|
A|-55555-------55555--------77777-------88888------------|
   .....       .....        .....       .....              .palm mute

Pre-Chorus:
d|--------------|
a|--------------|
F|--------------|
C|-15~~~~14~~~~-|
G|-xx----xx-----|
D|-13~~~~12~~~~-|
A|- 0~~~~ 0~~~~-|

Chorus:
d|-------------------------------------|
a|-------------------------------------|
F|-------------------------------------|
C|-------------------------------------|	(guitar1)
G|-------------------------------------|
D|-------------------------------------|
A|-5555-54444-444-44-5555-54444-444-44-|
F#|------------------------------------|
   .... ..... ... .. .... ..... ... ..  .palm mute

d|------------------------------|
a|------------------------------|
F|------------------------------|
C|------------------------------|	(guitar1)
G|------------------------------|
D|--------------------------5~~-|
A|-2222-21111-111-11-0000-0-5~~-|
F#|-------------------------3~~-|
   .... ..... ... .. .... .      .palm mute

d|-------------------------------------------------|
a|-------------------------------------------------|
F|-24-2424-24-23-2323-2323-24-2424-24-23-2323-2323-|
C|-xx-xxxx-xx-xx-xxxx-xxxx-xx-xxxx-xx-xx-xxxx-xxxx-|	(guitar2)
G|-22-2222-22-21-2121-2121-22-2222-22-21-2121-2121-|
D|-------------------------------------------------|
A|-------------------------------------------------|

d|-------------------------------------------------|
a|-------------------------------------------------|
F|-21-2121-21-17-1717-1717-16-1616-16-14-1414-1414-|
C|-xx-xxxx-xx-xx-xxxx-xxxx-xx-xxxx-xx-xx-xxxx-xxxx-|	(guitar2)
G|-19-1919-19-15-1515-1515-14-1414-14-12-1212-1212-|
D|-------------------------------------------------|
A|-------------------------------------------------|

Pre-Verse:
d|-----------------------------------|
a|-----------------------------------|
F|-----------------------------------|
C|-----------------------------------|
G|-77-77--77-77--99-99-1010-1010--\\-|
D|-77-77--77-77--99-99-1010-1010--\\-|
A|-55-55--55-55--77-77- 8 8- 8 8--\\-|

Verse:
d|--------------------------------------------------- 0~-|
a|---------------------------------------------------17~-|
F|-------------------------------------------------------|
C|-------------------------------------------------------|
G|-------h10r7-------h10r7--------h12r9-------h14r10-----|
D|-------------------------------------------------------|
A|-55555-------55555--------77777-------88888------------|
   .....       .....        .....       .....              .palm mute

Pre-Chorus:
d|--------------|
a|--------------|
F|--------------|
C|-15~~~~14~~~~-|
G|-xx----xx-----|
D|-13~~~~12~~~~-|
A|- 0~~~~ 0~~~~-|

Chorus:
d|-------------------------------------|
a|-------------------------------------|
F|-------------------------------------|
C|-------------------------------------|	(guitar1)
G|-------------------------------------|
D|-------------------------------------|
A|-5555-54444-444-44-5555-54444-444-44-|
F#|------------------------------------|
   .... ..... ... .. .... ..... ... ..  .palm mute

d|------------------------------|
a|------------------------------|
F|------------------------------|
C|------------------------------|	(guitar1)
G|------------------------------|
D|--------------------------5~~-|
A|-2222-21111-111-11-0000-0-5~~-|
F#|-------------------------3~~-|
   .... ..... ... .. .... .      .palm mute

d|-------------------------------------------------|
a|-------------------------------------------------|
F|-24-2424-24-23-2323-2323-24-2424-24-23-2323-2323-|
C|-xx-xxxx-xx-xx-xxxx-xxxx-xx-xxxx-xx-xx-xxxx-xxxx-|	(guitar2)
G|-22-2222-22-21-2121-2121-22-2222-22-21-2121-2121-|
D|-------------------------------------------------|
A|-------------------------------------------------|

d|-------------------------------------------------|
a|-------------------------------------------------|
F|-21-2121-21-17-1717-1717-16-1616-16-14-1414-1414-|
C|-xx-xxxx-xx-xx-xxxx-xxxx-xx-xxxx-xx-xx-xxxx-xxxx-|	(guitar2)
G|-19-1919-19-15-1515-1515-14-1414-14-12-1212-1212-|
D|-------------------------------------------------|
A|-------------------------------------------------|

Bridge1:
d|----------------------------|
a|----------------------------|
F|----------------------------|
C|----------------------------|
G|----------------------------|
D|----------------------------|
A|-5-555-3-4-5-55-55-5-55-5-5-|
   . ... . . . .. .. . .. . .  .palm mute

Bridge2:
d|----------------------------|
a|----------------------------|
F|----------------------------|
C|----------------------------|
G|----------------------------|
D|-------5-6-7----------------|
A|-5-555-3-4-5-55-55-5-55-5-5-|
   . ...       .. .. . .. . .  .palm mute

Bridge3:
d|----------------------------|
a|----------------------------|
F|----------------------------|
C|----------------------------|	(guitar1)
G|----------------------------|
D|-------5-6-7----------------|
A|-5-555-3-4-5-55-55-5-55-5-5-|
   . ...       .. .. . .. . .  .palm mute

d|-----------------------------------|
a|-----------------------------------|
F|-----------------------------------|
C|-191919-141414-1919-1414-1919-1414-|	(guitar2)
G|-----------------------------------|
D|-----------------------------------|
A|-----------------------------------|
          ......      ....      ....  .palm mute

d|-----------------------------------|
a|-----------------------------------|
F|-----------------------------------|
C|-181818-141414-1818-1414-1818-1414-|	(guitar2)
G|-----------------------------------|
D|-----------------------------------|
A|-----------------------------------|
          ......      ....      ....  .palm mute

Bridge4:
d|------------------------------------------|
a|------------------------------------------|
F|------------------------------------------|
C|--9~~~--7~~~-------------9~~~-7~~~~-------|	(guitar1)
G|--9~~~--7~~~-5~~-7~~~~---9~~~-7~~~-7~~~~~-|
D|--7~~~--5~~~-5~~-7~~~~---7~~~-5~~--7~~~~~-|
A|-------------3~~-5~~~~-------------5~~~~~-|

d|------------------------------------------|
a|------------------------------------------|
F|-//16~-\14-------------//16~-\14~---------|
C|---xx---xx--/12~-/14-----xx---xx---14~~~~-|	(guitar2)
G|-//14~-\12~--xx---xx---//14~-\12~--xx-----|
D|------------/10~-/12~-------------/12~~~~-|
A|------------------------------------------|

Chorus:
d|-------------------------------------|
a|-------------------------------------|
F|-------------------------------------|
C|-------------------------------------|	(guitar1)
G|-------------------------------------|
D|-------------------------------------|
A|-5555-54444-444-44-5555-54444-444-44-|
F#|------------------------------------|
   .... ..... ... .. .... ..... ... ..  .palm mute

d|------------------------------|
a|------------------------------|
F|------------------------------|
C|------------------------------|	(guitar1)
G|------------------------------|
D|--------------------------5~~-|
A|-2222-21111-111-11-0000-0-5~~-|
F#|-------------------------3~~-|
   .... ..... ... .. .... .      .palm mute

d|-------------------------------------------------|
a|-------------------------------------------------|
F|-24-2424-24-23-2323-2323-24-2424-24-23-2323-2323-|
C|-xx-xxxx-xx-xx-xxxx-xxxx-xx-xxxx-xx-xx-xxxx-xxxx-|	(guitar2)
G|-22-2222-22-21-2121-2121-22-2222-22-21-2121-2121-|
D|-------------------------------------------------|
A|-------------------------------------------------|

d|-------------------------------------------------|
a|-------------------------------------------------|
F|-21-2121-21-17-1717-1717-16-1616-16-14-1414-1414-|
C|-xx-xxxx-xx-xx-xxxx-xxxx-xx-xxxx-xx-xx-xxxx-xxxx-|	(guitar2)
G|-19-1919-19-15-1515-1515-14-1414-14-12-1212-1212-|
D|-------------------------------------------------|
A|-------------------------------------------------|

Outro:
d|-------------------------------------|
a|-8~-8-10~-10-12r10--8~-8-10~-10-7h10-|
F|-9~-9-11~-11--------9~-9-11~-11------|
C|-------------------------------------|
G|-------------------------------------|
D|-------------------------------------|
A|-------------------------------------|

d|-------3~--3--3r0-----------------|
a|-5~-5--5~--5-------3~-3-2~-2--3r2-|
F|-7~-7-(7)-(7)------4~-4-2~-2------|
C|----------------------------------|
G|----------------------------------|
D|----------------------------------|
A|----------------------------------|

d|--------------------------------|
a|-8~-8-10~-10-12r10--8~-8-10~-10-|
F|-9~-9-11~-11--------9~-9-11~-11-|
C|--------------------------------|
G|--------------------------------|
D|--------------------------------|
A|--------------------------------|

d|----------------3~--3----------------0-----|
a|-12-13-15-5~-5--5~--5--3~-3-2~-2---2---3-2-|
F|----------7~-7-(7)-(7)-4~-4-2~-2-----------|
C|-------------------------------------------|
G|-------------------------------------------|
D|-------------------------------------------|
A|-------------------------------------------|
comments
print report bad tab
5 comments total. Showing first comments.
0 reply
War Nerve wrote on September 17 2007, 06:59 pm

You are my hero, good job with the Korn tabs, you rule!!

0 reply
macolicious14 wrote on September 20 2007, 05:59 pm

awesome job probs to you!

0 reply
rapprocka1017 wrote on December 27 2009, 09:17 am

i cant see where a few of the tabs start! :S

I want to post or [tab]
guest
You may want to rate the tab now too:
select rating
Please do not post tabs as comments. Select "correction" instead!