Oops, an error
Loading. Please wait.

Untouchables Bass Tab

by Korn
1,780 views 3 this week
no commentswrite comment
1 2 3 4 5
accurate
x 3
add to favorites launch autoscroll
font size
0
reset
Autoscroll
+/-
esc
set tempo
stop
Contributor
WARNING: You are trying to view
                                    content from Ultimate-Guitar.com
                                    in an unauthorized application,
                                    which is prohibited.

                                    Please use an official Ultimate
                                    Guitar Tabs application for iPhone,
                                    iPad or Android to access legitimate
                                    chords, guitar, bass, and drum tabs
                                    from Ultimate-Guitar.com database.

                                    Type "ultimate guitar tabs" in Apple
                                    App Store's or Android Market's
                                    search to find the application.
Band- Korn
Album- Untouchables

1.HERE TO STAY

Tunning: 5-string Bass
Low to High- (A,D,G,C,F)
tune down one whole step.

(0:11)
F----------------------|
C----------------------|  X2
G----------------------|
D----------------------|
A-0--1--0-0-1-0-0-1-2--|

(0:31)
F-------------------------------------------|
C-------------------------------------------|
G-------------------2--------------------1--|
D-0--1--0-3-1-0-0-1----0--1--0-3-1-0-0-1----|
A-------------------------------------------|

Verses  (0:40, 1:28)
F-------------------------------------------|
C-------------------------------------------|  X4
G-------------------2--------------------1--|
D-0--1--0-3-1-0-0-1----0--1--0-3-1-0-0-1----|
A-------------------------------------------|

Pre-Chorus  (1:00, 1:48, 3:19)
F------------------------------------------------------------------------------------|
C------------------------------------------------------------------------------------|
G------------------------------------------------------------------------------------|
D-3-------------------3----------------------3---------------------3-----------------|
A--2-0-2-3-2-0-2~-0-2----2~-0-2-3-2-0-2~-0-2---2-0-2-3-2-0-2~-0-2----2~-0-2-3-2-0-2~-|

Chorus  (1:09, 1:57, 3:28)
F-----------------------------------------------------|
C-----------------------------------------------------|  X2
G-----------------------------------------------------|
D-------------3-----0-------------------3-----0-------|
A-0-----3--------3-----1---0-----3---------3-----1-1--|

Interlude  (2:16)
F-------------------------------|        this is the slap and pluck technique
C-------------------------------|  X3    Slap- hit string w/ right thumb
G-------------------------------|        Pluck- pull string w/ right finger
D----------3-----0--------------|
A-0---3-------3-----1-----------|

Bridge  (2:35)
F-------------------------------------------------------------------------|
C--r------------------r------------------r--------------------r-----------|
G--e------------------e------------------e--------------------e-----------|
D--s----X---X----X----s----X---X----X----s----X---X----X---X--s----X---X--|
A--t--X---X----X---X--t--X---X----X---X--t--X---X----X---X----t--X---X----|
      S P S P  S P S     S P S P  S P S     S P S P  S P S P     S P S P

F----------------------------------|
C----------------------------------|  X3
G----------------------------------|
D---X---X---X---X---X---X---X---X--|
A-X---X---X---X---X---X---X---X----|
  S P S P S P S P S P S P S P S P

F------------------------|
C------------------------|
G------------------------|
D---X---X---X---X---X----|
A-X---X---X---X---X---X--|
  S P S P S P S P S P S

(2:58)
F-------------------------------------------------------------|
C-------------------------------------------------------------|
G-------------------------------------------------------------|
D-------------------------------------------------------------|
A-0--0--12-0---0-0-0-0--0h1h2h3--0--0--12-0-----0-0-0--0h1h2--|

F-------------------------------------------|
C-------------------------------------------|
G-------------------2--------------------1--|
D-0--1--0-3-1-0-0-1----0--1--0-3-1-0-0-1----|
A-------------------------------------------|

Outro  (3:48)
F----------------------|
C----------------------|  X2
G----------------------|
D----------------------|
A-0--1--0-0-1-0-0-1-2--|

F---------------------------------------|
C---------------------------------------|  X3
G---------------------------------------|
D---------------------------------------|
A-0-0-12-0--0-0-0-0----0-0-12-0--0-0-0--|

F------------------|
C------------------|
G------------------|
D------------------|
A-0-0-12-0--0-0-0--|

2.MAKE BELIEVE

Verse
G ----------------------------------|
D ----------------------------------|
A -4-7--10-9v--4-7--10-9v-----------|        x5
E ----------------------------------|
B ----------------------------------|

Pre-Chorus
G -------------------------|
D -------------------------|
A -------------------------|        x4
E -------------------------|
B -2--5--8--12-------------|
Chorus
G ---------------------------------------------|
D ---------------------------------------------|
A ---------------------------------------------|        x4
E ---------------------------------------------|
B -2--4-5-0-8-11--2--4-5-0-8-11----------------|

Verse
G ----------------------------------|
D ----------------------------------|
A -4-7--10-9v--4-7--10-9v-----------|        x5
E ----------------------------------|
B ----------------------------------|

Pre-Chorus
G -------------------------|
D -------------------------|
A -------------------------|        x4
E -------------------------|
B -2--5--8--12-------------|

Chorus
G ---------------------------------------------|
D ---------------------------------------------|
A ---------------------------------------------|        x4
E ---------------------------------------------|
B -2--4-5-0-8-11--2--4-5-0-8-11----------------|

...And the *** seems to follow...
G ------------------------------|
D ------------------------------|
A ------------------------------|
D ------------------------------|
B -0-2-3-2-0-2-3-2-0-2-3--------|

Quiet bit
G --------------------|
D --------------------|
A -4-7--10-9----------|        x4
E --------------------|
B --------------------|

Louder bit
G ---------------------|
D ---------------------|
A ---------------------|        x8
E ---------------------|
B -2-5--8-7------------|

Chorus
G ---------------------------------------------|
D ---------------------------------------------|
A ---------------------------------------------|        x8
E ---------------------------------------------|
B -2--4-5-0-8-11--2--4-5-0-8-11----------------|

...And the *** seems to follow...
G --------------------------------------|
D --------------------------------------|
A --------------------------------------|        x2
D --------------------------------------|
B -0-2-3-2-0-2-3-2-0-2-3----------------|

3.BLAME

Tuning dropped down 1 whole step
Low to High (A,D,G,C,F)

Intro-no bass

Second Intro/Chorus
F------------------------------|
C------------------------------|
G------------------------------|
D------------------------------|
A--0-0-0-0-3-0-3-0-3-0-5-5-5-5-|

Verse:
F-----------------------------|
C-----------------------------|
G-----------------------------|
D-----------------------------|
A--0-0-3-x-x-x-x--------------| Listen to song for timing of the musted notes

Chorus
F------------------------------|
C------------------------------|
G------------------------------|
D------------------------------|
A--0-0-0-0-3-0-3-0-3-0-5-5-5-5-|

Verse:
F-----------------------------|
C-----------------------------|
G-----------------------------|
D-----------------------------|
A--0-0-3-x-x-x-x--------------| Listen to song for timing of the musted notes

Chorus
F------------------------------|
C------------------------------|
G------------------------------|
D------------------------------|
A--0-0-0-0-3-0-3-0-3-0-5-5-5-5-|

Chorus 2
F-----------------------------|
C-----------------------------|
G-----------------------------|
D-----------------------------|
A--0002-2222-5555-4444--------|

Solo/Bridge
F------------------------------|
C------------------------------|
G------------------------------|
D------------------------------|
A--0-3-0-0-0-0-4/3-0-3-0-0-3/1-|

Chorus
F------------------------------|
C------------------------------|
G------------------------------|
D------------------------------|
A--0-0-0-0-3-0-3-0-3-0-5-5-5-5-|

Chorus 2
F-----------------------------|
C-----------------------------|
G-----------------------------|
D-----------------------------|
A--0002-2222-5555-4444--------|

4.HOLLOW LIFE

Intro (with distortion)
F[----------|
C[----------|
G[----------|
D[---5------|
A[-3---6-8--|

Verse (same as intro)

Prechorus
F[-----------------|
C[-----------------|
G[-----------------|
D[-----3---5---7---|
A[-3------------8--|

Chorus (with distortion)
F[-----------|
C[-----------|
G[-----------|
D[-----------|
A[-33334333--|

Bridge
F[-----------------------------|
C[-----------------------------|
G[-----5~------3~------5~------|
D[-3~------6~------3~------6~--|
A[-----------------------------|

5.BOTTLED UP INSIDE

Main Riff
D|---------------------||
A|--------------------*|| x16 (around the 8th time it cuts out
E|--------------------*||      and starts again with singing so
A|-0-0-2-0-0-2-0-0-2-2-||      be aware of that)

Pre-Chorus
D|------------------|
A|-----------------*| x3
E|---7-------------*|
A|-0---6--4--3--02--|
Pre-Chorus Continued
D|--------||------------------||
A|--------||-----------------*|| x2
E|---7----||-----------------*||
A|-0---6--||-0-2-0-2-33-2-0-2-||

Chorus
D|------------------------------|
A|-----------------------------*|
E|---------------------7---5---*|
A|-0-0-2-0-0-2-0-0-2-0---7---5--|

Main Riff x8
Pre-Chorus x3
Pre-Chorus Continued x2
Chorus x4

Interlude
D|------------------||
A|-----------------*|| x10
E|-----------------*||
A|-0-2-0-2-33-2-0-2-||

Break Down
D|------------------------||
A|-----------------------*||
E|-----------------------*||
A|-0-2-00-2-0-2-00-12\\---||

Chorus x4
Break Down x 4

End
D|-----||
A|-----||
E|-----||
A|-0~~-|| let ring

6.THOUGHTLESS

Tuning: (Low To High) A, D, G, C, F


       W
F: |:|---------------------------------|:|x6  (0:24)
C:4|:|---------------------------------|:|
G:4|:|---------------------------------|:|
D: |:|---------------------------------|:|
A: |:|---------------------------------|:|


     S S S S S E   S S S S S S E   S   S S S S S E   S S S S S S S S S
F: |---------------------------------|---------------------------------|
C:4|---------------------------------|---------------------------------|
G:4|---------------------------------|---------------------------------|
D: |---------5---------5-----5-------|---7-----7---------7-----8-8-8-8-|
A: |-4-4-4-4-------0-0---0-0-------0-|-0---0-0-------0-0---0-0---------|


       S S S S S E   S S S S S S E   S   S S S S S E   S S S S S S S S S
F: |:|---------------------------------|---------------------------------|:|x5  (1:01)
C:4|:|---------------------------------|---------------------------------|:|
G:4|:|---------------------------------|---------------------------------|:|
D: |:|---------5---------5-----5-------|---7-----7---------7-----8-8-8-8-|:|
A: |:|---4-4-4-------0-0---0-0-------0-|-0---0-0-------0-0---0-0---------|:|


     S S S S S S S S S E*    Q	       S S S S S S S S S E*    Q
F: |---------------------------------|---------------------------------|
C:4|---------------------------------|---------------------------------|
G:4|---------------------------------|---------------------------------|
D: |---------------------------------|---------------------------------|
A: |---3-3-3-4-4-4-4-3---------------|---0-3-3-4-4-4-4-4-1====(1)======|


     S S S S S S S S S E*      Q	 S S S S S S S S S E*    S S S S
F: |-----------------------------------|---------------------------------|  (1:14)
C:4|-----------------------------------|---------------------------------|
G:4|-----------------------------------|---------------------------------|
D: |-----------------------------------|---------------------------------|
A: |=(1)-0-3-3-4-4-4-4-3---------------|---0-3-3-4-4-4-4-4-2-----2-1-1-1-|


       S S S S S S S S S S S S S S S S   S S S S S S S S S S S S S S S S
F: |:|---------------------------------|---------------------------------|
C:4|:|---------------------------------|---------------------------------|
G:4|:|---------------------------------|---------------------------------|
D: |:|---------------------------------|---------------------------------|
A: |:|-5-5-5-5---5---5-5-5-5-5---5---5-|-8-8-8-8---8---8-8-8-8-8---8---8-|


     S S S S S S S S S S S S S S S S   S S S S S S S S S S S S S S S S
F: |---------------------------------|---------------------------------|:|x2  (1:39)
C:4|---------------------------------|---------------------------------|:|
G:4|---------------------------------|---------------------------------|:|
D: |---------------------------------|---------------------------------|:|
A: |-3-3-3-3---3---3-3-3-3-3---3---3-|-1-1-1-1---1---1-1-1-1-1-3-3-3-3-|:|


       S S S S S E   S S S S S S E   S   S S S S S E   S S S S S S S S S
F: |:|---------------------------------|---------------------------------|:|x4  (2:05)
C:4|:|---------------------------------|---------------------------------|:|
G:4|:|---------------------------------|---------------------------------|:|
D: |:|---------5---------5-----5-------|---7-----7---------7-----8-8-8-8-|:|
A: |:|---4-4-4-------0-0---0-0-------0-|-0---0-0-------0-0---0-0---------|:|


     S S S S S S S S S E*    Q	       S S S S S S S S S E*    Q
F: |---------------------------------|---------------------------------|
C:4|---------------------------------|---------------------------------|
G:4|---------------------------------|---------------------------------|
D: |---------------------------------|---------------------------------|
A: |---3-3-3-4-4-4-4-3---------------|---0-3-3-4-4-4-4-4-1====(1)======|


     S S S S S S S S S E*      Q	 S S S S S S S S S E*    S S S S
F: |-----------------------------------|---------------------------------|  (2:17)
C:4|-----------------------------------|---------------------------------|
G:4|-----------------------------------|---------------------------------|
D: |-----------------------------------|---------------------------------|
A: |=(1)-0-3-3-4-4-4-4-3---------------|---0-3-3-4-4-4-4-4-2-----2-1-1-1-|


       S S S S S S S S S S S S S S S S   S S S S S S S S S S S S S S S S
F: |:|---------------------------------|---------------------------------|
C:4|:|---------------------------------|---------------------------------|
G:4|:|---------------------------------|---------------------------------|
D: |:|---------------------------------|---------------------------------|
A: |:|-5-5-5-5---5---5-5-5-5-5---5---5-|-8-8-8-8---8---8-8-8-8-8---8---8-|


     S S S S S S S S S S S S S S S S   S S S S S S S S S S S S S S S S
F: |---------------------------------|---------------------------------|:|x2  (2:41)
C:4|---------------------------------|---------------------------------|:|
G:4|---------------------------------|---------------------------------|:|
D: |---------------------------------|---------------------------------|:|
A: |-3-3-3-3---3---3-3-3-3-3---3---3-|-1-1-1-1---1---1-1-1-1-1-3-3-3-3-|:|


       W
F: |:|---------------------------------|:|x8  (3:06)
C:4|:|---------------------------------|:|
G:4|:|---------------------------------|:|
D: |:|---------------------------------|:|
A: |:|---------------------------------|:|


       S S S S S E   S S S S S S E   S   S S S S S E   S S S S S S S S S
F: |:|---------------------------------|---------------------------------|:|x4  (3:37)
C:4|:|---------------------------------|---------------------------------|:|
G:4|:|---------------------------------|---------------------------------|:|
D: |:|---------5---------5-----5-------|---7-----7---------7-----8-8-8-8-|:|
A: |:|---4-4-4-------0-0---0-0-------0-|-0---0-0-------0-0---0-0---------|:|


       W
F: |:|---------------------------------|:|x2
C:4|:|---------------------------------|:|
G:4|:|---------------------------------|:|
D: |:|---------------------------------|:|
A: |:|---------------------------------|:|


       S S S S S S S S S S S S S S S S   S S S S S S S S S S S S S S S S
F: |:|---------------------------------|---------------------------------|
C:4|:|---------------------------------|---------------------------------|
G:4|:|---------------------------------|---------------------------------|
D: |:|---------------------------------|---------------------------------|
A: |:|-5-5-5-5---5---5-5-5-5-5---5---5-|-8-8-8-8---8---8-8-8-8-8---8---8-|


     S S S S S S S S S S S S S S S S   S S S S S S S S S S S S S S S S
F: |---------------------------------|---------------------------------|:|x4
C:4|---------------------------------|---------------------------------|:|
G:4|---------------------------------|---------------------------------|:|
D: |---------------------------------|---------------------------------|:|
A: |-3-3-3-3---3---3-3-3-3-3---3---3-|-1-1-1-1---1---1-1-1-1-1-3-3-3-3-|:|


     W
F: |---------------------------------|
C:4|---------------------------------|
G:4|---------------------------------|
D: |---------------------------------|
A: |---------------------------------|

7.HATING

Verse
F|----------------|
C|----------------|
G|----------------|
D|-00------33-----|
A|-----11-----4-3-|

Pre - Chorus
F|-------------------|
C|-------------------|
G|---------|x3 ------|
D|---------|      ---|
A|-00-X-XX-|      ---|
                   |--> x3
F|----------|     ---|
C|----------|     ---|
G|----------|x1 -----|
D|-------------------|
A|-00-XXXXX-|

F|---------|
C|---------|
G|---------|x3
D|---------|
A|-00-X-XX-|

F|-------|
C|-------|
G|-------|x1
D|-------|
A|-4-3-2-|

Chorus
F|---------------------|
C|---------------------|
G|---------------------|
D|-0----3-----0--------|
A|---1----4-----1--0-4-|

After 2nd Chorus
F|------------------------------------------------------------------|
C|------------------------------------------------------------------|
G|------------------------------------------------------------------|
D|------------------------------------------------------------------|
A|-000000-0000000-0000000-00001111-0000000-0000000-0000000-00001111-|

Bridge
F|---------|
C|---------|
G|---------|
D|-0-1-4-3-|
A|---------|

Just Before last Chorus
F|----|
C|----|
G|----|
D|----|
A|-0~-|

Outro: Same as the After 2nd chorus riff

8.ONE MORE TIME

Tunning: A,D,G,C,F

Intro
F|-------------------|
C|-------------------|
G|-------------------|
D|-------------------|
A|-33344433333344433-|

Verse: Same as Intro

Pre - Chorus
F|-----------------------------|
C|-----------------------------|
G|-----------------------------|
D|-----------------------------|
A|-3-4\3-4\3-4\3-4\3-4\3-4\3-3-|

Chorus
F|---------------|
C|---------------|
G|---------------|
D|-------3-2-----|
A|-3-332-----4-6-|

After 2nd Chorus
F|---------------------|
C|---------------------|
G|---------------------|
D|---------------------|
A|-5-5/6-5/6-4-4/5-4/5-|

Bridge (Listen song for timin)
F|------3-----------5-----------7-----------9------|
C|----2---2-------4---4-------6---6-------8---8----|
G|-1--------11-3--------33-5--------55-7--------77-|
D|-------------------------------------------------|
A|-------------------------------------------------|

After Bridge play pre- Chorus and then chorus

Outro: Same as Intro

9.ALONE I BREAK

Verse
G||-------------------||
D||-------------------||
A||----44----44----44-||
E||-44----44----44----||

Chorus
G||------------------------------------------||
D||------------------------------------------||
A||-444444442222222222-----------------------||
E||-------------------2222222222200000000000-||

Bridge
G||----------||    This follows the rap-ish beat
D||----------||
A||----44-44-||
E||-44-------||

10.EMBRACE

Tunning: A,D,G,C,F

Intro
F|--------|
C|--------|
G|--------|
D|--------|
A|-11-010-|

Verse
F|-------|
C|-------|
G|-------|
D|-------|
A|-00-11-|

Pre - Chorus
F|--------------------|
C|--------------------|
G|--------------------|
D|--------------------|
A|-3-3^3^-6--3-3^3^-4-|

Chorus
F|-------------|
C|-------------|
G|-------------|
D|-8-7-6-5-----|
A|---------5-4-|

Bridge
F|------------|
C|------------|
G|------------|x8
D|------------|
A|-22-2^-22-3-|

F|----------------------------------------------------------------------------|
C|----------------------------------------------------------------------------|
G|----------------------------------------------------------------------------|
D|----------------------------------------------------------------------------|
A|-00XX000--00XX000--00XX000--00XX000--00XX000--00XX000-XXXX-00XX000--00XX000-|

Heavy Bridge
F|------------|
C|------------|
G|----5^------|
D|------------|
A|-22----22-3-|

Outro: Same as Intro

11.WAKE UP HATE

A---0--0--0--0-111-|
E-23-23--2-23------|

A-000-0-000--011-000-0-000--|
E----4-----4--------4-----4-|

A-00-0--00-00--|
E-----44--4--4-|

A-100-0-100-0-100-011110000-|
E----4-----4-----4----------|

A-02301-0---02301-10-0--|
E---------4---------4-4-|

A--0---0---030-0---00--|
E-4-4-4-4-4---4-4-4--4-|

12.I'M HIDING

Tuning: 5 string dropped one whole step, low to high(ADGCF)
Main Riff:

A|---1--2-1-0--|---1--2-1-0-1---|

note: play the first part of this riff three
times and then play the other one.


Verse:
      times 3         times 1
D|----------------|----------------2-|
A|---1-1-1-h2-1-0-|---1-1-1-h2-1-0---|


note: There are some variations in the verse, but
I didn't want to put them all.

Chorus:
      times 3
D|---1---2---1-0--|---1--2---1--0---1--|

13.NO ONE'S THERE

Tunning: A,D,G,C,F

Intro
F|--------------------------------|
C|------7-6-5-------7--98-6-5-----|
G|-2~/---------2~/----------------|x1
D|-----------------------------6\-|
A|--------------------------------|

F|----------------------------|
C|------7-6-5-------7--98-6-5-|
G|-2~/---------2~/------------|x1
D|----------------------------|
A|----------------------------|

Verse
F|----------------------------|
C|------7-6-5-------7--98-6-5-|
G|-2~/---------2~/------------|
D|----------------------------|
A|----------------------------|

Pre - Chorus
F|------------------|
C|------------------|
G|------------------|
D|------------------|
A|-0~--3433-3-4-3-4-|

Chorus
F|--------------|
C|--------------|
G|--------------|
D|-0~-----------|
A|-----8~\-10~\-|

Bridge
F|-------------------|
C|-------------------|
G|-------------------|
D|-------------------|
A|-10-0010-0010-0010-|

Last Note
F|----|
C|----|
G|----|
D|-0~-|
A|----|
comments
We did not receive enough feedback on this tab! Please rate:
1 2 3 4 5
I want to post or [tab]
guest
You may want to rate the tab now too:
select rating
Please do not post tabs as comments. Select "correction" instead!