Oops, an error
Loading. Please wait.

Untouchables Tab

by Korn
ver1
ver1

Album

More versions @911Tabs.com
10,809 views 18 this week
5 commentsread comments
1 2 3 4 5
excellent!
x 19
add to favorites launch autoscroll
font size
0
reset
Autoscroll
+/-
esc
set tempo
stop
Contributor
WARNING: You are trying to view
                                    content from Ultimate-Guitar.com
                                    in an unauthorized application,
                                    which is prohibited.

                                    Please use an official Ultimate
                                    Guitar Tabs application for iPhone,
                                    iPad or Android to access legitimate
                                    chords, guitar, bass, and drum tabs
                                    from Ultimate-Guitar.com database.

                                    Type "ultimate guitar tabs" in Apple
                                    App Store's or Android Market's
                                    search to find the application.
Korn - Untouchables (Album)
___________________________________________________



KoRn - Here To Stay - Untouchables

Tabbed by Elvisz (elvisz@kornkids.com)
Tuning : 7 String Tuned Low to High (A D G C F a d)

Intro:(guitar1)
		   3X		
d|------------------|---------------|
a|------------------|---------------|
F|------------------|---------------|
C|------------------|---------------|
G|------------------|---------------|
D|------------------|---------------|
A|-0-1-0-3-1-0-0-1h2|-0-1-0-3-1-0-0-|

Verse1:(guitar1,guitar2)
		   8X
d|------------------|
a|------------------|
F|------------------|
C|------------------|
G|------------------|
D|-2-3--------------|
A|-0-1-0-3-1-0-0-1h2|

Verse2:(guitar1,guitar2)
		   9X		      5X
d|------------------|------------------|
a|------------------|------------------| 
F|------------------|------------------|          
C|------------------|------------------|
G|------------------|------------------|
D|----------------/7|----------------/6|
A|-5-6-5-8-6-5-5-6--|-5-6-5-8-6-5-5-6--|

Pre-chorus:(guitar1,guitar2)

d|---------------------|--------------------|
a|---------------------|--------------------|
F|---------------------|--------------------|   
C|---------------------|--------------------|    2X
G|5--------------------|5-------------------|
D|3--------------------|3-------------------|
A|-------2-0-2-3-2-0-2-|--2-----0-2-3-2-0-2-|

Chorus:

d|---------------------------|
a|---------------------------|		
F|---------------------------|     (Guitar1)
C|-----------5---------2-----|	      4X
G|-2----5----5----5----2----3|
D|-2----5----3----5----0----3|
A|-0----3---------3---------1|

d|-------------------------|------------------------|
a|-------------------------|------------------------|
F|-16-16-14-14-19-19-21-/23|-16-16-14-14-14---------|	(Guitar2)
C|-------------------------|----------------16-17-14|	    2X
G|-14-14-12-12-17-17-19-/21|-14-14-12-12-12---------|
D|-------------------------|----------------14-15-12|
A|-------------------------|------------------------|

Verse2:(guitar1,guitar2)
		   4X		      4X
d|------------------|------------------|
a|------------------|------------------| 
F|------------------|------------------|          
C|------------------|------------------|
G|------------------|------------------|
D|----------------/7|----------------/6|
A|-5-6-5-8-6-5-5-6--|-5-6-5-8-6-5-5-6--|

Pre-chorus:(guitar1,guitar2)

d|---------------------|--------------------|
a|---------------------|--------------------|
F|---------------------|--------------------|   
C|---------------------|--------------------|    2X
G|5--------------------|5-------------------|
D|3--------------------|3-------------------|
A|-------2-0-2-3-2-0-2-|--2-----0-2-3-2-0-2-|

Chorus:

d|---------------------------|
a|---------------------------|		
F|---------------------------|     (Guitar1)
C|-----------5---------2-----|	      4X
G|-2----5----5----5----2----3|
D|-2----5----3----5----0----3|
A|-0----3---------3---------1|

d|-------------------------|------------------------|
a|-------------------------|------------------------|
F|-16-16-14-14-19-19-21-/23|-16-16-14-14-14---------|	(Guitar2)
C|-------------------------|----------------16-17-14|	    2X
G|-14-14-12-12-17-17-19-/21|-14-14-12-12-12---------|
D|-------------------------|----------------14-15-12|
A|-------------------------|------------------------|

Fill1:

d|---|
a|---|
F|---|		(Guitar1)
C|---|		Let it ring... after that scratch the A,D string with 
G|-2-|	        fingernail, palmuted, while guitar2 plays:
D|-2-|
A|-0-|

d|----------------------------|------------------------------------|
a|----------------------------|------------------------------------|
F|---16----14----19----21---23|---16----14----14-------------------|	
C|----------------------------|---------------------16----17-----14|	    
G|-14----12----17----19---21--|-14----12----12---------------------|
D|----------------------------|-------------------14----15-----12--|
A|----------------------------|------------------------------------|

d|----------------------------|------------------------------------|
a|----------------------------|------------------------------------|
F|---16----14----19----21---23|---16----14----14-----19-----21-----|	
C|----------------------------|------------------------------------|	    
G|-14----12----17----19---21--|-14----12----12-----17-----19-------|
D|----------------------------|------------------------------------|
A|----------------------------|------------------------------------|

Bridge1:
		   8X	
d|------------------|
a|------------------|
F|------------------|
C|------------------|		(Guitar1)
G|------------------|		The second time at the end there's just for 0
D|------------------|		not five...
A|-0-0-12-0-0-0-0-0-|

d|-------------------------------|
a|-------------------------------|
F|-23-24---23-21---23-24---23-19-|	(Guitar2)
C|-------------------------------|	4X
G|-21-22---21-19---21-22---21-17-|
D|-------------------------------|
A|-------------------------------|

Bridge2:(Guitar1,Guitar2)
			 4X			4X
d|------------------------|----------------------|
a|------------------------|----------------------|
F|------------------------|----------------------| 
C|------------------------|----------------------|   
G|------------------------|----------------------|
D|------------------------|----------------------|
A|-0-0-12-0-0-0-0-0-12/15-|-0-0-12-0-0-0-0-12/14-|

Verse2:(Guitar1,Guitar2)

d|------------------|------------------|
a|------------------|------------------| 
F|------------------|------------------|          
C|------------------|------------------|
G|------------------|------------------|
D|----------------/7|----------------/6|
A|-5-6-5-8-6-5-5-6--|-5-6-5-8-6-5-5-6--|

Pre-chorus:(Guitar1,Guitar2)

d|---------------------|--------------------|
a|---------------------|--------------------|
F|---------------------|--------------------|   
C|---------------------|--------------------|    2X
G|5--------------------|5-------------------|
D|3--------------------|3-------------------|
A|-------2-0-2-3-2-0-2-|--2-----0-2-3-2-0-2-|

Chorus:

d|---------------------------|
a|---------------------------|		
F|---------------------------|     (Guitar1)
C|-----------5---------2-----|	      4X
G|-2----5----5----5----2----3|
D|-2----5----3----5----0----3|
A|-0----3---------3---------1|

d|-------------------------|------------------------|
a|-------------------------|------------------------|
F|-16-16-14-14-19-19-21-/23|-16-16-14-14-14---------|	(Guitar2)
C|-------------------------|----------------16-17-14|	    2X
G|-14-14-12-12-17-17-19-/21|-14-14-12-12-12---------|
D|-------------------------|----------------14-15-12|
A|-------------------------|------------------------|

Verse1:(Guitar1) and Chorus(Guitar2)

		   8X
d|------------------|
a|------------------|
F|------------------|
C|------------------|
G|------------------|
D|-2-3--------------|
A|-0-1-0-3-1-0-0-1h2|

d|-------------------------|------------------------|
a|-------------------------|------------------------|
F|-16-16-14-14-19-19-21-/23|-16-16-14-14-14---------|	(Guitar2)
C|-------------------------|----------------16-17-14|	    4X
G|-14-14-12-12-17-17-19-/21|-14-14-12-12-12---------|
D|-------------------------|----------------14-15-12|
A|-------------------------|------------------------|

Outro:

	  		 8X
d|--------------------------|
a|-------------------0------|
F|-------------------4-(^6)-|       (Guitar1)
C|--------------------------|	    Every second time bend up the 4 till 6	
G|--------------------------|			
D|--------------------------|
A|-0-0-12-0-0-0-0-0---------|
			      8X
d|----------------------------|
a|---------------------0------|
F|-16-17--16-17--16-17-4--(^6)|
C|----------------------------|	(Guitar2)
G|-14-15--14-15--14-15--------|	Every second time bend up the 4 till 6
D|----------------------------|
A|----------------------------|

Last fill:

d|---------------------------------|
a|-------------------0-------------|
F|-------------------4-(^6)-\\\\\\0|       
C|---------------------------------|	    			
G|---------------------------------|			
D|---------------------------------|
A|-0-0-12-0-0-0-0-0----------------|

KoRn - Make Believe - Untouchables

Tabbed by Elvisz (elvisz@kornkids.com)
Tuning : 7 String Tuned Low to High (A D G C F a d)

Intro:(Guitar1)
					  10X
d|------------------------------------------|
a|------------------------------------------|
F|------------------------------------------|
C|----------14-14-14-15-15-15----------17-17|		
G|-12-12-12-------------------13-13-13------|		
D|------------------------------------------|
A|------------------------------------------|

Verse:(Guitar1)
	     4X
d|-------------|
a|-------------|
F|-------------|
C|-------------|
G|-----8-3-----|
D|-5-8-6-1-(6)-|
A|-3-6-----(4)-|

Chorus:(Guitar1)
			    8X
d|---------------------------|
a|---------------------------|
F|---------------------------|
C|---------------------------|
G|-5----4--------------------|
D|-5----4--------------------|
A|-3----2----6-5-3--66-5-3-5h|

Intro again:(Guitar1)
					   8X
d|------------------------------------------|
a|------------------------------------------|
F|------------------------------------------|
C|----------14-14-14-15-15-15----------17-17|		
G|-12-12-12-------------------13-13-13------|		
D|------------------------------------------|
A|------------------------------------------|

Verse:(Guitar1)
	     4X
d|-------------|
a|-------------|
F|-------------|
C|-------------|
G|-----8-3-----|
D|-5-8-6-1-(6)-|
A|-3-6-----(4)-|

Chorus:(Guitar1)
			    8X
d|---------------------------|
a|---------------------------|
F|---------------------------|
C|---------------------------|
G|-5----4--------------------|
D|-5----4--------------------|
A|-3----2----6-5-3--66-5-3-5h|

Fill1:(Guitar1)

d|-----------------|
a|-----------------|
F|-----------------|
C|-----------------|
G|-----------------|
D|-----------------|
A|-6-5-3--66-5-3-5h|

Fill2:(Guitar2, think with vibratio)
		       2X
d|----------------------|
a|----------------------|
F|----------------------|
C|----------------------|
G|----------------------|
D|-------5-1-----5-6---1|
A|-3-6-------3-6--------|

Fill3:(Guitar1)

d|--------------------------|
a|--------------------------|
F|--------------------------|
C|--------7-3--------7-8---3|
G|-5-8----7-3----5-8-7-8---3|
D|-5-8----5-1----5-8-5-6---1|
A|-3-6-----------3-6--------|

Intro again:(Guitar1)
					   2X
d|------------------------------------------|
a|------------------------------------------|
F|------------------------------------------|
C|----------14-14-14-15-15-15----------17-17|		
G|-12-12-12-------------------13-13-13------|		
D|------------------------------------------|
A|------------------------------------------|

Chorus:(Guitar1)
			    8X
d|---------------------------|
a|---------------------------|
F|---------------------------|
C|---------------------------|
G|-5----4--------------------|
D|-5----4--------------------|
A|-3----2----6-5-3--66-5-3-5h|

Outro:(Guitar1)
		  7X
d|-----------------|---|
a|-----------------|---|
F|-----------------|---|
C|-----------------|---|
G|-----------------|---|
D|-----------------|---|
A|-6-5-3--66-5-3-5h|-3-|

KoRn - Blame - Untouchables

Tabbed by Elvisz (elvisz@kornkids.com)
Tuning : 7 String Tuned Low to High (A D G C F a d)

Intro:(Guitar1)
Totally disorted, played pretty fast...
			      3X
d|-----------------------------| 
a|-----------------------------| 
F|-----------------------------|          
C|-----------------------------|
G|-----------------------------|
D|-----------------------------|
A|-0-1-0-1-0--1-0--1-0-1-0-333-|
     .   .    .    .   .   .     .hammered

d|-------------------------| 
a|-------------------------| 
F|-------------------------|          
C|-------------------------|
G|-------------------------|
D|-------------------------|
A|-0-1-0-1-0--1-0--1-0-1-0-|
     .   .    .    .   .     .hammered

Verse:(Guitar2)
d|----------------------------------|
a|-----7--------5--------7--------5-|
F|---7---7----6---6----7---7----6---|
C|-5--------4--------5--------4-----|
G|----------------------------------|
D|----------------------------------|
A|----------------------------------|

Pre-chorus:(Guitar1,Guitar2)
     			      8X
d|-----------------------------| 
a|-----------------------------| 
F|-----------------------------|          
C|-----------------------------|
G|-----------------------------|
D|-0-1-0-1-0--1-0--1-0-1-0-333-|
A|-0-1-0-1-0--1-0--1-0-1-0-333-|
     .   .    .    .   .   .     .hammered

Verse:(Guitar2)
d|----------------------------------|
a|-----7--------5--------7--------5-|
F|---7---7----6---6----7---7----6---|
C|-5--------4--------5--------4-----|
G|----------------------------------|
D|----------------------------------|
A|----------------------------------|

Pre-chorus:(Guitar1,Guitar2)
     			      8X
d|-----------------------------| 
a|-----------------------------| 
F|-----------------------------|          
C|-----------------------------|
G|-----------------------------|
D|-0-1-0-1-0--1-0--1-0-1-0-333-|
A|-0-1-0-1-0--1-0--1-0-1-0-333-|

Chorus:(Guitar1)
		    4X
d|-------------------| 
a|--------------0-0-0| 
F|--------------0-0-0|          
C|-----5-------------|
G|-2---5--5-5--7-6-5-|
D|-2---3--5-5--7-6-5-|
A|-0------3-3--5-4-3-|

Bridge1(Guitar2)
					 5X
d|----------------------------------------|
a|----------------------------------------|
F|----------------------------------------|
C|---9---9---10---10---12---12---12-10-9--|
G|-7---7---7----7----7----7----7---------7|
D|----------------------------------------|
A|----------------------------------------|
		   8X
d|------------------|
a|------------------|
F|-12^12---12^12----|
C|------------------|	(Guitar2)
G|------------------|
D|------------------|
A|------------------|

Intro again:
			      2X
d|-----------------------------| 
a|-----------------------------| 
F|-----------------------------|          
C|-----------------------------|
G|-----------------------------|
D|-----------------------------|
A|-0-1-0-1-0--1-0--1-0-1-0-333-|
     .   .    .    .   .   .     .hammered

d|-------------------------| 
a|-------------------------| 
F|-------------------------|          
C|-------------------------|
G|-------------------------|
D|-------------------------|
A|-0-1-0-1-0--1-0--1-0-1-0-|
     .   .    .    .   .     .hammered

Pre-chorus:(Guitar1,Guitar2)
     			      8X
d|-----------------------------| 
a|-----------------------------| 
F|-----------------------------|          
C|-----------------------------|
G|-----------------------------|
D|-0-1-0-1-0--1-0--1-0-1-0-333-|
A|-0-1-0-1-0--1-0--1-0-1-0-333-|
     .   .    .    .   .   .     .hammered

Chorus:(Guitar1)
		    8X
d|-------------------| 
a|--------------0-0-0| 
F|--------------0-0-0|          
C|-----5-------------|
G|-2---5--5-5--7-6-5-|
D|-2---3--5-5--7-6-5-|
A|-0------3-3--5-4-3-|

Outro:
(Guitar1)
		    8X
d|-------------------| 
a|--------------0-0-0| 
F|--------------0-0-0|          
C|-----5-------------|
G|-2---5--5-5--7-6-5-|
D|-2---3--5-5--7-6-5-|
A|-0------3-3--5-4-3-|

(Guitar2) 
d|------------------------------------------------------|
a|------------------------------------------------------|
F|11111111111112121111141414141414141412121212-/16-11-9-|
C|------------------------------------------------------|
G|-9-9-9-9-9-91010-9-9121212121212121210101010-/14--9-7-|
D|------------------------------------------------------|
A|------------------------------------------------------|	

KoRn - Hollow Life - Untouchables

Tabbed by Elvisz (elvisz@kornkids.com)
Tuning : 7 String Tuned Low to High (A D G C F a d)

Intro:

d|-17-19-15----|
a|----------17-|
F|-------------|
C|-------------|	(Guitar2, with effect)
G|-------------|
D|-------------|
A|-------------|

d|-------------|
a|-------------|
F|-------------|
C|-------------|	(Guitar1,Played real slow..)
G|-5-9-----4-7-|
D|-5-9-----4-7-|
A|-3-7-----2-5-|

Pre-Chorus:(Guitar1)

d|-----------------------|
a|-----------------------|
F|-----------------------|
C|-----------------------|
G|-----------------------|
D|-7-3-2-/10---7-3-2-9-5-|
A|-5-1-0-/8----5-1-0-7-3-|

Again Intro:

d|-17-19-15----|
a|----------17-|
F|-------------|
C|-------------|	(Guitar2, with effect)
G|-------------|
D|-------------|
A|-------------|

d|-------------|
a|-------------|
F|-------------|
C|-------------|	(Guitar1,Played real slow..)
G|-5-9-----4-7-|
D|-5-9-----4-7-|
A|-3-7-----2-5-|

Pre-Chorus:(Guitar1)

d|-----------------------|
a|-----------------------|
F|-----------------------|
C|-----------------------|
G|-----------------------|
D|-7-3-2-/10---7-3-2-9-5-|
A|-5-1-0-/8----5-1-0-7-3-|

Chorus:(Guitar1)

d|----------|
a|----------|
F|----------|
C|----------|
G|-2-3--2/3^|
D|-2-3--2/3^|
A|-0-0--0-0-|

Bridge:(same as intro)

d|-17-19-15----|
a|----------17-|
F|-------------|
C|-------------|	(Guitar2, with effect)
G|-------------|
D|-------------|
A|-------------|

Pre-Chorus:(Guitar1)

d|-----------------------|
a|-----------------------|
F|-----------------------|
C|-----------------------|
G|-----------------------|
D|-7-3-2-/10---7-3-2-9-5-|
A|-5-1-0-/8----5-1-0-7-3-|

Chorus:(Guitar1)

d|----------|
a|----------|
F|----------|
C|----------|
G|-2-3--2/3^|
D|-2-3--2/3^|
A|-0-0--0-0-|

KoRn - Bottled Up Inside - Untouchables

Tabbed by Elvisz (elvisz@kornkids.com)
Tuning : 7 String Tuned Low to High (A D G C F a d)

Intro:(Guitar1)

d|------------------------------------------|
a|------------------------------------------|
F|------------------------------------------|
C|------------------------------------------|
G|------------------------------------------|
D|-2/3-0-2/3-0-2/3-0-0--2h3-0-2h3-0-2h3-0-0-|
A|-2/3-0-2/3-0-2/3-0-0--2h3-0-2h3-0-2h3-0-0-|

Verse1:(Guitar1, same as intro)

d|------------------------------------------|
a|------------------------------------------|
F|------------------------------------------|
C|------------------------------------------|
G|------------------------------------------|
D|-2/3-0-2/3-0-2/3-0-0--2h3-0-2h3-0-2h3-0-0-|
A|-2/3-0-2/3-0-2/3-0-0--2h3-0-2h3-0-2h3-0-0-|

Fill1:(Guitar1)

d|-----|
a|-----|
F|-----|
C|-----|
G|-----|
D|-2h3-|
A|-2h3-|

Fill2:(Guitar1)

d|-----------------------------------|
a|-----------------------------------|
F|-----------------------------------|
C|-----------------------------------|
G|-----------------------------------|
D|-2h3-2h3-22h3-2h3-2h3-2h3-22h3-2h3-|
A|-2h3-2h3-22h3-2h3-2h3-2h3-22h3-2h3-|

Chorus:

d|--------------------------------------|
a|--------------------------------------|
F|--------------------------------------|
C|--------------------------------------|
G|--------------------------------------|
D|-2-(2)/6--22-(2)/6--2-(2)/6---6\2-6\2-|
A|-2--------22--------2---------6\2-6\2-|

Verse1 again:

d|------------------------------------------|
a|------------------------------------------|
F|------------------------------------------|
C|------------------------------------------|
G|------------------------------------------|
D|-2/3-0-2/3-0-2/3-0-0--2h3-0-2h3-0-2h3-0-0-|
A|-2/3-0-2/3-0-2/3-0-0--2h3-0-2h3-0-2h3-0-0-|

Fill1:(Guitar1)
      
d|-----|
a|-----|
F|-----|
C|-----|
G|-----|
D|-2h3-|
A|-2h3-|

Fill2:(Guitar1)

d|-----------------------------------|
a|-----------------------------------|
F|-----------------------------------|
C|-----------------------------------|
G|-----------------------------------|
D|-2h3-2h3-22h3-2h3-2h3-2h3-22h3-2h3-|
A|-2h3-2h3-22h3-2h3-2h3-2h3-22h3-2h3-|

Chorus:

d|--------------------------------------|
a|--------------------------------------|
F|--------------------------------------|
C|--------------------------------------|
G|--------------------------------------|
D|-2-(2)/6--22-(2)/6--2-(2)/6---6\2-6\2-|
A|-2--------22--------2---------6\2-6\2-|

Fill2:(Guitar1)

d|-----------------------------------|
a|-----------------------------------|
F|-----------------------------------|
C|-----------------------------------|
G|-----------------------------------|
D|-2h3-2h3-22h3-2h3-2h3-2h3-22h3-2h3-|
A|-2h3-2h3-22h3-2h3-2h3-2h3-22h3-2h3-|

Fill3:(Guitar1)

d|------------------------------|
a|------------------------------|
F|------------------------------|
C|------------------------------|	Instead of the last 2 Fieldy plays
G|------------------------------|	a slide down...
D|-2---2---22-2---2--2--22--(2)-|
A|-2---2---22-2---2--2--22--(2)-|

Chorus:

d|--------------------------------------|
a|--------------------------------------|
F|--------------------------------------|
C|--------------------------------------|
G|--------------------------------------|
D|-2-(2)/6--22-(2)/6--2-(2)/6---6\2-6\2-|
A|-2--------22--------2---------6\2-6\2-|

Outro:(Same as fill3)

d|------------------------------|
a|------------------------------|
F|------------------------------|	(Guitar1)
C|------------------------------|	Instead of the last 2 Fieldy plays
G|------------------------------|	a slide down...
D|-2---2---22-2---2--2--22--(2)-|
A|-2---2---22-2---2--2--22--(2)-|

KoRn - Thoughtless - Untouchables

Tabbed by Elvisz (elvisz@kornkids.com)
Tuning : 7 String Tuned Low to High (A D G C F a d)

Intro:

d|--------------------------------------------------------------|
a|--------------------------------------------------------------|
F|--------------------------------------------------------------|
C|--------------------------------------------------------------|  (Guitar1)
G|--------------------------------------------------------------|
D|-----5---5--------5----5------7-----7---------7-------8-8-8-8-|
A|-0-0--0-0------0-0--0-0----0-0--0-0-------0-0----0-0----------|

d|------------|
a|------------|
F|------------|
C|-12--14--10>|	(Guitar2)
G|-9---12--8>-|
D|-9---12--8>-|
A|------------|

d|-------|
a|-------|
F|-------|
C|-------|	(Guitar3)	
G|-------|	
D|-5-7-8-|
A|-------|

Verse1:
At the start guitar1 and guitar2 plays this after that guitar2 plays verse2
d|-------------------------------------------------------|
A|-------------------------------------------------------|
F|-------------------------------------------------------|
C|---------7------7----7----9----9-----9-----10-10-10-10-|
G|-6-6-6-6-7------7----7----9----9-----9-----10-10-10-10-|
D|-6-6-6-6-5------5----5----7----7-----7-----8--8--8--8--|
A|-4-4-4-4-----0-0--0-0--0-0--0-0---0-0---0-0------------|

Verse2:

d|----------------------------|
a|----------------------------|
F|-11>-11>-7>---11>-11>-6>-11>|
C|----------------------------|		(Guitar2)
G|-9>--9>--5>---9>--9>--4>-9>-|
D|----------------------------|
A|----------------------------|

Pre-Chorus:

d|--------------------------------------------|
a|--------------------------------------------|
F|--------------------------------------------|
C|--------------------------------------------|		(Guitar1)
G|-5-5-5/6-6-6-6/5-----5-5-5/6-6-6-6-3~-----2-|
D|-5-5-5/6-6-6-6/5-----5-5-5/6-6-6-6-3~-----2-|
A|-3-3-3/4-4-4-4/3-----3-3-3/4-4-4-4-1~-----0-|

d|--------------|
a|--------------|
F|-11>-12>--15>-|
C|--------------|	(Guitar2)
G|-9>--10>--13>-|
D|--------------|
A|--------------|

Chorus:
(Guitar1)
d|---------------------------------------------------------------------------------|
a|---------------------------------------------------------------------------------|
F|---------------------------------------------------------------------------------|
C|---------------------------------------------------------------------------------|
G|-7--777-7-777--77-7/10--101010-10-101010-1010-10\5-555-5-555-55--5\3-3333-33/5---|
D|-7--777-7-777--77-7/10--101010-10-101010-1010-10\5-555-5-555-55--5\3-3333-33/5---|
A|-5--555-5-555--55-5/8---8-8-8--8--8-8-8--8-8--8 \3-333-3-333-33--3\1-1111-11/3---|
  
(Guitar2)
d|-------------------------------------|
a|-------------------------------------|
F|-16--17--21--22-20-15---17-13--13/15-|
C|-------------------------------------|
G|-14--15--19--20-18-13---15-11--11/13-|
D|-------------------------------------|
A|-------------------------------------|

Repeat Verse1:
At the start guitar1 and guitar2 plays this after that guitar2 plays verse2
d|-------------------------------------------------------|
A|-------------------------------------------------------|
F|-------------------------------------------------------|
C|---------7------7----7----9----9-----9-----10-10-10-10-|
G|-6-6-6-6-7------7----7----9----9-----9-----10-10-10-10-|
D|-6-6-6-6-5------5----5----7----7-----7-----8--8--8--8--|
A|-4-4-4-4-----0-0--0-0--0-0--0-0---0-0---0-0------------|

Verse2:

d|----------------------------|
a|----------------------------|
F|-11>-11>-7>---11>-11>-6>-11>|
C|----------------------------|		(Guitar2)
G|-9>--9>--5>---9>--9>--4>-9>-|
D|----------------------------|
A|----------------------------|

Pre-Chorus:

d|--------------------------------------------|
a|--------------------------------------------|
F|--------------------------------------------|
C|--------------------------------------------|		(Guitar1)
G|-5-5-5/6-6-6-6/5-----5-5-5/6-6-6-6-3~-----2-|
D|-5-5-5/6-6-6-6/5-----5-5-5/6-6-6-6-3~-----2-|
A|-3-3-3/4-4-4-4/3-----3-3-3/4-4-4-4-1~-----0-|

d|--------------|
a|--------------|
F|-11>-12>--15>-|
C|--------------|	(Guitar2)
G|-9>--10>--13>-|
D|--------------|
A|--------------|

Chorus:
(Guitar1)
d|---------------------------------------------------------------------------------|
a|---------------------------------------------------------------------------------|
F|---------------------------------------------------------------------------------|
C|---------------------------------------------------------------------------------|
G|-7--777-7-777--77-7/10--101010-10-101010-1010-10\5-555-5-555-55--5\3-3333-33/5---|
D|-7--777-7-777--77-7/10--101010-10-101010-1010-10\5-555-5-555-55--5\3-3333-33/5---|
A|-5--555-5-555--55-5/8---8-8-8--8--8-8-8--8-8--8 \3-333-3-333-33--3\1-1111-11/3---|
  
(Guitar2)
d|-------------------------------------|
a|-------------------------------------|
F|-16--17--21--22-20-15---17-13--13/15-|
C|-------------------------------------|
G|-14--15--19--20-18-13---15-11--11/13-|
D|-------------------------------------|
A|-------------------------------------|

Fill1:

d|-------|
a|-------|
F|-------|
C|-------|	(Guitar2)	
G|-------|	
D|-5-7-8-|
A|-------|

d|--------------------------------------------|
a|--------------------------------------------|
F|--------------------------------------------|
C|--------------------------------------------|		(Guitar1)
G|--------------------------------------------|
D|----7----7------7----8-8-8-8---5--5--5----5-|
A|-0-0--0-0----0-0--0-0---------0--0--0--0-0--|

Verse1 again:

d|-------------------------------------------------------|
a|-------------------------------------------------------|
F|-------------------------------------------------------|
C|---------7------7----7----9----9-----9-----10-10-10-10-|	(Guitar1)
G|-6-6-6-6-7------7----7----9----9-----9-----10-10-10-10-|
D|-6-6-6-6-5------5----5----7----7-----7-----8--8--8--8--|
A|-4-4-4-4-----0-0--0-0--0-0--0-0---0-0---0-0------------|

While Guitar2:

d|------------|
a|------------|
F|------------|
C|-12--14--10>|	(Guitar2)
G|-9---12--8>-|
D|-9---12--8>-|
A|------------|

Chorus:
(Guitar1)
d|---------------------------------------------------------------------------------|
a|---------------------------------------------------------------------------------|
F|---------------------------------------------------------------------------------|
C|---------------------------------------------------------------------------------|
G|-7--777-7-777--77-7/10--101010-10-101010-1010-10\5-555-5-555-55--5\3-3333-33/5---|
D|-7--777-7-777--77-7/10--101010-10-101010-1010-10\5-555-5-555-55--5\3-3333-33/5---|
A|-5--555-5-555--55-5/8---8-8-8--8--8-8-8--8-8--8 \3-333-3-333-33--3\1-1111-11/3---|
  
(Guitar2)
d|-------------------------------------|
a|-------------------------------------|
F|-16--17--21--22-20-15---17-13--13/15-|
C|-------------------------------------|
G|-14--15--19--20-18-13---15-11--11/13-|
D|-------------------------------------|
A|-------------------------------------|

Outro:

d|------|
a|------|
F|------|
C|-10->-|
G|-8-->-|
D|-8-->-|
A|------|

KoRn - Hating - Untouchables

Tabbed by Elvisz (elvisz@kornkids.com)
Tuning : 7 String Tuned Low to High (A D G C F a d)

Intro:(Guitar1)

d|---------------------------------------------------------------------|
a|---------------------------------------------------------------------|
F|---------------------------------------------------------------------|
C|----------------6----------------------------------6-----------------|  
G|-6-6--8-8---------9-9-8-8-6-6-------6-6--8-8---------9-9-8-8-6-6-6---|
D|----------9-9-9---------------9-9------------9-9-9-----------------9-|
A|---------------------------------------------------------------------|

Guitar2:
d|----------------|
a|----------------|
F|----------------|
C|-12--10---10-9-7|
G|----------------|
D|----------------|
A|----------------|


Pre-Chorus:(Guitar1)

d|-----------------------------|
a|-----------------------------|
F|-----------------------------|
C|-8-9-6--8-9-6--8-9-6--8-9-11-|
G|-8-9-6--8-9-6--8-9-6--8-9-11-|
D|-6-7-4--6-7-4--6-7-4--6-7-9--|
A|-----------------------------|

Chorus:(Guitar1)

d|--------------------------------|
a|--------------------------------|
F|--------------------------------|
C|---------4----------------------|
G|-6---2---4---4----6---2---4---5-|
D|-6---2---2---4----6---2---4---5-|
A|-4---0-------2----4---0---2---3-|

Intro:(Guitar1)

d|---------------------------------------------------------------------|
a|---------------------------------------------------------------------|
F|---------------------------------------------------------------------|
C|----------------6----------------------------------6-----------------|  
G|-6-6--8-8---------9-9-8-8-6-6-------6-6--8-8---------9-9-8-8-6-6-6---|
D|----------9-9-9---------------9-9------------9-9-9-----------------9-|
A|---------------------------------------------------------------------|

Guitar2:
d|----------------|
a|----------------|
F|----------------|
C|-12--10---10-9-7|
G|----------------|
D|----------------|
A|----------------|

Pre-Chorus:(Guitar1)

d|-----------------------------|
a|-----------------------------|
F|-----------------------------|
C|-8-9-6--8-9-6--8-9-6--8-9-11-|
G|-8-9-6--8-9-6--8-9-6--8-9-11-|
D|-6-7-4--6-7-4--6-7-4--6-7-9--|
A|-----------------------------|

Chorus:(Guitar1)

d|--------------------------------|
a|--------------------------------|
F|--------------------------------|
C|---------4----------------------|
G|-6---2---4---4----6---2---4---5-|
D|-6---2---2---4----6---2---4---5-|
A|-4---0-------2----4---0---2---3-|

Verse1:(Guitar1,Guitar2)

d|---------------------------------------------------------|
a|---------------------------------------------------------|
F|---------------------------------------------------------|
C|---------------------------------------------------------|
G|-6-6-6-6-6-6-----6-6-6-6-6-6-----6-6-6-6-6-6-----6-6-6-7-|
D|-6-6-6-6-6-6-----6-6-6-6-6-6-----6-6-6-6-6-6-----6-6-6-7-|
A|-4-4-4-4-4-4-----4-4-4-4-4-4-----4-4-4-4-4-4-----4-4-4-5-|

Bridge:(Guitar1)

d|---------------------------|
a|---------------------------|
F|---------------------------|
C|---------------------------|
G|-6-----7-----10------9-5-4-|
D|-6-----7-----10------9-5-4-|
A|-4-----5------8------7-3-2-|

Chorus:(Guitar1)

d|--------------------------------|
a|--------------------------------|
F|--------------------------------|
C|---------4----------------------|
G|-6---2---4---4----6---2---4---5-|
D|-6---2---2---4----6---2---4---5-|
A|-4---0-------2----4---0---2---3-|

Outro: same as verse1

(Guitar1,Guitar2)

d|---------------------------------------------------------|
a|---------------------------------------------------------|
F|---------------------------------------------------------|
C|---------------------------------------------------------|
G|-6-6-6-6-6-6-----6-6-6-6-6-6-----6-6-6-6-6-6-----6-6-6-7-|
D|-6-6-6-6-6-6-----6-6-6-6-6-6-----6-6-6-6-6-6-----6-6-6-7-|
A|-4-4-4-4-4-4-----4-4-4-4-4-4-----4-4-4-4-4-4-----4-4-4-5-|

KoRn - One More Time - Untouchables

Tabbed by Elvisz (elvisz@kornkids.com)
Tuning : 7 String Tuned Low to High (A D G C F a d)

Intro:

d|-----------------|
a|-----------------|
F|-----------------|
C|-------0---------|	(Guitar1)
G|-------5---------|
D|-----------------|
A|-2-2-2---2-2-0-0-|

d|-------------|
a|----14-13----|
F|-12-------13-|
C|-------------|	(Guitar2)
G|-------------|
D|-------------|
A|-------------|

Pre-Chorus:

d|-----------|
a|-----------|
F|-----------|
C|-----------|	(Guitar1)
G|-4--7-4--6-|
D|-4--7-4--6-|
A|-2--5-2--4-|

d|-----------|
a|-----------|
F|-----------|
C|----0------|	(Guitar2)
G|----5------|
D|-----------|
A|-----------|

Chorus:

d|--------------------------------------------------|
a|--------------------------------------------------|
F|--------------------------------------------------|
C|--------------------------------------------------|	(Guitar1)
G|-4---2-9---7-4---2-9---10-4---2-9---7-4---2-9---10|
D|-4---2-9---7-4---2-9---10-4---2-9---7-4---2-9---10|
A|-2---0-7---5-2---0-7---8--2---0-7---5-2---0-7---8-|

Verse:(Same as intro)

d|-----------------|
a|-----------------|
F|-----------------|
C|-------0---------|	(Guitar1)
G|-------5---------|
D|-----------------|
A|-2-2-2---2-2-0-0-|

d|-------------|
a|----14-13----|
F|-12-------13-|
C|-------------|	(Guitar2)
G|-------------|
D|-------------|
A|-------------|

Pre-Chorus:

d|-----------|
a|-----------|
F|-----------|
C|-----------|	(Guitar1)
G|-4--7-4--6-|
D|-4--7-4--6-|
A|-2--5-2--4-|

d|-----------|
a|-----------|
F|-----------|
C|----0------|	(Guitar2)
G|----5------|
D|-----------|
A|-----------|

Chorus:

d|--------------------------------------------------|
a|--------------------------------------------------|
F|--------------------------------------------------|
C|--------------------------------------------------|	(Guitar1)
G|-4---2-9---7-4---2-9---10-4---2-9---7-4---2-9---10|
D|-4---2-9---7-4---2-9---10-4---2-9---7-4---2-9---10|
A|-2---0-7---5-2---0-7---8--2---0-7---5-2---0-7---8-|

Bridge:

d|-----------------------------------------------|
a|-----------------------------------------------|
F|---11---11----12----12----14----14----16----16-|
C|-9----9----10----10----12----12----14----14----|	(Guitar2)
G|-----------------------------------------------|
D|-----------------------------------------------|
A|-----------------------------------------------|

d|------------------|
a|-13--11----13--11-|
F|------------------|
C|------------------|	(Guitar1 real slow)
G|------------------|
D|------------------|
A|------------------|

Pre-Chorus:

d|-----------|
a|-----------|
F|-----------|
C|-----------|	(Guitar1)
G|-4--7-4--6-|
D|-4--7-4--6-|
A|-2--5-2--4-|

d|-----------|
a|-----------|
F|-----------|
C|----0------|	(Guitar2)
G|----5------|
D|-----------|
A|-----------|

Chorus:

d|--------------------------------------------------|
a|--------------------------------------------------|
F|--------------------------------------------------|
C|--------------------------------------------------|	(Guitar1)
G|-4---2-9---7-4---2-9---10-4---2-9---7-4---2-9---10|
D|-4---2-9---7-4---2-9---10-4---2-9---7-4---2-9---10|
A|-2---0-7---5-2---0-7---8--2---0-7---5-2---0-7---8-|

Outro:

d|-----------------|
a|-----------------|
F|-----------------|
C|-------0---------|	(Guitar1)
G|-------5---------|
D|-----------------|
A|-2-2-2---2-2-0-0-|

d|-------------|
a|----14-13----|
F|-12-------13-|
C|-------------|	(Guitar2)
G|-------------|
D|-------------|
A|-------------|

KoRn - Alone I Brake - Untouchables

Tabbed by Elvisz (elvisz@kornkids.com)
Tuning : 7 String Tuned Low to High (A D G C F a d)

Intro:

d|------------------------------------|
a|------------------------------------|
F|------------------------------------|
C|------------------------------------|	(Guitar1)
G|----77----77---77--7-77----77----77-|
D|-55-77-55-77-5577-57-77-55-77-55-77-|
A|-55----55----55---5-----55----55----|

d|----------------|
a|----------------|
F|----------------|
C|----------------|	(GUitar2)
G|---9~-----10~--7|
D|-7------8-------|
A|----------------|

Pre-Chorus:

d|--------------------|
a|--------------------|
F|--------------------|
C|-7-77-7-77-77777777-|	(Guitar2)
G|-7-77-7-77-77777777-|
D|-7-77-7-77-77777777-|
A|--------------------|

KoRn - Embrace - Untouchables

Tabbed by Elvisz (elvisz@kornkids.com)
Tuning : 7 String Tuned Low to High (A D G C F a d)

Intro:

d|---------------------|
a|---------------------|
F|---------------------|
C|---------------------|	(Guitar1)
G|-----(1/5)-----(1/7)-|
D|---7---------7-------|
A|-5---------5---------|

Verse:(Guitar1,Guitar2)
lots of times
d|-------|
a|-------|
F|-------|
C|-------|
G|-------|
D|-44-44-|
A|-22-22-|

Pre-Chorus:

d|------------------------------------|
a|------------------------------------|
F|------------------------------------|
C|------------------------------------|	(Guitar1)
G|-4~-------------45-4-------------2-3|	Repeat...
D|-4~-------------23-4-------------2-3|
A|-2~----------------2-------------0-1|

d|------------------------------------|
a|------------------------------------|
F|------------------------------------|
C|------------------------------------|	(Guitar2)
G|------------------------------------|	Real fast
D|---5/6\5-5/6\5-------5/6\5-5/6\5----|
A|------------------------------------|

Chorus:

d|-----------------------|
a|-----------------------|
F|-----------------------|
C|-----------------------|	(Guitar1)
G|-9-8-7~-----5/6\5--4-3-|
D|-9-8-7~-----5/6\5--4-3-|
A|-7-6-5~-----3/4\3--2-1-|

Verse:(Guitar1,Guitar2)
lots of times
d|-------|
a|-------|
F|-------|
C|-------|
G|-------|
D|-44-44-|
A|-22-22-|

Pre-Chorus:

d|------------------------------------|
a|------------------------------------|
F|------------------------------------|
C|------------------------------------|	(Guitar1)
G|-4~-------------45-4-------------2-3|	Repeat...
D|-4~-------------23-4-------------2-3|
A|-2~----------------2-------------0-1|

d|------------------------------------|
a|------------------------------------|
F|------------------------------------|
C|------------------------------------|	(Guitar2)
G|------------------------------------|	Real fast
D|---5/6\5-5/6\5-------5/6\5-5/6\5----|
A|------------------------------------|

Chorus:

d|-----------------------|
a|-----------------------|
F|-----------------------|
C|-----------------------|	(Guitar1)
G|-9-8-7~-----5/6\5--4-3-|
D|-9-8-7~-----5/6\5--4-3-|
A|-7-6-5~-----3/4\3--2-1-|

Repeat intro:

d|---------------------|
a|---------------------|
F|---------------------|
C|---------------------|	(Guitar1)
G|-----(1/5)-----(1/7)-|
D|---7---------7-------|
A|-5---------5---------|

Chorus:

d|-----------------------|
a|-----------------------|
F|-----------------------|
C|-----------------------|	(Guitar1)
G|-9-8-7~-----5/6\5--4-3-|
D|-9-8-7~-----5/6\5--4-3-|
A|-7-6-5~-----3/4\3--2-1-|

Outro:(Guitar1,Guitar2)
lots of times
d|-------|
a|-------|
F|-------|
C|-------|
G|-------|
D|-44-44-|
A|-22-22-|

KoRn - Beat It Up Right - Untouchables

Tabbed by Elvisz (elvisz@kornkids.com)
Tuning : 7 String Tuned Low to High (A D G C F a d)

Intro:

d|-------------------------------------------x-|
a|-------------------------------------------x-|
F|-----------------9-------------------------9-|
C|-9^9-98-9^9-98-9----9^9-98-9^9-98-9^9-98-9---|	(Guitar2)
G|---------------------------------------------|
D|---------------------------------------------|
A|---------------------------------------------|

Verse:(Guitar1,Guitar2)

d|-----------------------------|
a|-----------------------------|
F|-----------------------------|
C|-----------------------------|
G|-----------------------------|
D|-5--5\4--5--5\4--5--5\4--5---|
A|-3--3\2--3--3\2--3--3\2--3-0-|

Chorus:

d|-----------------------------------------------|
a|-----------------------------------------------|
F|-----------------------------------------------|
C|-----------------------------------------------|	(Guitar1)
G|-4--2/3\2/3--5-3\2/3\2--4-2/3\2/3--8\7\6-6\5\4-|
D|-4--2/3\2/3--5-3\2/3\2--4-2/3\2/3--------------|
A|-2-----------3----------2----------6\5\4-4\3\2-|

Bridge:

d|-----------------------------------------|
a|-----------------------------------------|
F|-----------------------------------------|
C|-----------------------------------------|	(Guitar1)
G|-----------------------------8\7\6-6\5\4-|
D|-5--5\4--5--5\4--5--5\4--5---------------|
A|-3--3\2--3--3\2--3--3\2--3---6\5\4-4\3\2-|

Fill1:

d|-----|
a|-----|
F|-----|
C|-----|	(Guitar1)
G|-----|
D|-5/4-|
A|-3/2-|

Verse:(Guitar1,Guitar2)

d|-----------------------------|
a|-----------------------------|
F|-----------------------------|
C|-----------------------------|
G|-----------------------------|
D|-5--5\4--5--5\4--5--5\4--5---|
A|-3--3\2--3--3\2--3--3\2--3-0-|

Chorus:

d|-----------------------------------------------|
a|-----------------------------------------------|
F|-----------------------------------------------|
C|-----------------------------------------------|	(Guitar1)
G|-4--2/3\2/3--5-3\2/3\2--4-2/3\2/3--8\7\6-6\5\4-|
D|-4--2/3\2/3--5-3\2/3\2--4-2/3\2/3--------------|
A|-2-----------3----------2----------6\5\4-4\3\2-|

Bridge:

d|-----------------------------------------|
a|-----------------------------------------|
F|-----------------------------------------|
C|-----------------------------------------|	(Guitar1)
G|-----------------------------8\7\6-6\5\4-|
D|-5--5\4--5--5\4--5--5\4--5---------------|
A|-3--3\2--3--3\2--3--3\2--3---6\5\4-4\3\2-|

KoRn - Wake Up Hate - Untouchables

Tabbed by Elvisz (elvisz@kornkids.com)
Tuning : 7 String Tuned Low to High (A D G C F a d)

Intro:(Guitar1)

d|----------------------------------|
a|----------------------------------|
F|----------------------------------|
C|----------------------------------|
G|----------------------------------|
D|-5-4-4-5-4-4-5-4-5-4-4-5-4-5-7777-|
A|----------------------------------|

Chorus:(Guitar1)

d|----------------------------------|
a|----------------------------------|
F|----------------------------------|
C|----------------------------------|
G|----------------------------------|
D|-5-4-4-5-4-4-5-4-5-4-4-5-4-5-7777-|
A|-5-4-4-5-4-4-5-4-5-4-4-5-4-5-7777-|

KoRn - I'm Hiding - Untouchables

Tabbed by Elvisz (elvisz@kornkids.com)
Tuning : 7 String Tuned Low to High (A D G C F a d)

Intro:(Guitar1)

d|---------------------|
a|---------------------|
F|---------------------|
C|---------------------|
G|-4-5-4-2--44-5-4-2-4-|
D|-4-5-4-2--44-5-4-2-4-|
A|-2-3-2-0--22-3-2-0-2-|

Verse:(Guitar2)

d|----------------------------|
a|----------------------------|
F|----------------------------|
C|----------------------------|
G|-9-9-9/10\9--9-9-9/10/12\10-|
D|----------------------------|
A|----------------------------|

Intro again:(Guitar1)

d|---------------------|
a|---------------------|
F|---------------------|
C|---------------------|
G|-4-5-4-2--44-5-4-2-4-|
D|-4-5-4-2--44-5-4-2-4-|
A|-2-3-2-0--22-3-2-0-2-|

Repeat Verse:(Guitar2)

d|----------------------------|
a|----------------------------|
F|----------------------------|
C|----------------------------|
G|-9-9-9/10\9--9-9-9/10/12\10-|
D|----------------------------|
A|----------------------------|

Repeat Intro:(Guitar1)

d|---------------------|
a|---------------------|
F|---------------------|
C|---------------------|
G|-4-5-4-2--44-5-4-2-4-|
D|-4-5-4-2--44-5-4-2-4-|
A|-2-3-2-0--22-3-2-0-2-|

Chorus:(Guitar1)

d|--------------------|
a|--------------------|
F|--------------------|
C|--------------------|
G|-9------10----------|
D|-9--5-7-10----------|
A|-7--3-5-8---3-4-6-4-|

Repeat Verse:(Guitar2)

d|----------------------------|
a|----------------------------|
F|----------------------------|
C|----------------------------|
G|-9-9-9/10\9--9-9-9/10/12\10-|
D|----------------------------|
A|----------------------------|

Repeat Intro:(Guitar1)

d|---------------------|
a|---------------------|
F|---------------------|
C|---------------------|
G|-4-5-4-2--44-5-4-2-4-|
D|-4-5-4-2--44-5-4-2-4-|
A|-2-3-2-0--22-3-2-0-2-|

Chorus:(Guitar1)

d|--------------------|
a|--------------------|
F|--------------------|
C|--------------------|
G|-9------10----------|
D|-9--5-7-10----------|
A|-7--3-5-8---3-4-6-4-|

KoRn - No One's There - Untouchables

Tabbed by Elvisz (elvisz@kornkids.com)
Tuning : 7 String Tuned Low to High (A D G C F a d)

Intro:(Guitar1)

d|----------------------------------|
a|----------------------------------|
F|----------------------------------|
C|----------------------------------|
G|----------------------------------|
D|----------------------------------|
A|-0---5---1---6---0---5---8-7-5--7-|

Pre-Chorus:(Guitar1)

d|----------------------------|
a|----------------------------|
F|----------------------------|
C|----------------------------|
G|-2--22-2-22-2-22-2--4-5-4-3-|
D|-2--22-2-22-2-22-2--4-5-4-3-|
A|-0--00-0-00-0-00-0--2-3-2-1-|

Chorus:(Guitar1)

d|-------------|
a|-------------|
F|-------------|
C|-------------|
G|-5~--9~--10-7|
D|-5~--9~--10-7|
A|-3~--7~--8--5|

Well this is what I could figure out from this great album...
If it sounds awful, sorry, you have to do better than me...
I just wanted to help all the KoRn fans to play these great songs...
If you have any corrections, ideas or comments... mail me... =->
 		KoRn ROCKS!!!			(Elvisz ®)
5 comments total. Showing first comments.
0 reply
hi72 wrote on March 14 2003, 12:00 am

sounds good i gave you 5 *****
but see if you could change tose and tab them int six string guitars

0 reply
Fallen_Haven wrote on August 7 2003, 12:00 am

good job, 5 stars

0 reply
METALYBOY wrote on February 21 2004, 12:00 am

VERY GOOD WORK IS A SO GOOD TAB 5 STARS

I want to post or [tab]
guest
You may want to rate the tab now too:
select rating
Please do not post tabs as comments. Select "correction" instead!