Oops, an error
Loading. Please wait.

Untouchables Tab

by Korn
ver2
ver2

Album

More versions @911Tabs.com
1,292 views 1 this week
1 commentread comment
1 2 3 4 5
worth learning
x 2
Autoscroll
+/-
esc
set tempo
stop
Contributor
Hey! There's an official Ultimate Guitar app which is ideal
for learning songs when you're away from computer. Get the app
WARNING: You are trying to view
                                    content from Ultimate-Guitar.com
                                    in an unauthorized application,
                                    which is prohibited.

                                    Please use an official Ultimate
                                    Guitar Tabs application for iPhone,
                                    iPad or Android to access legitimate
                                    chords, guitar, bass, and drum tabs
                                    from Ultimate-Guitar.com database.

                                    Type "ultimate guitar tabs" in Apple
                                    App Store's or Android Market's
                                    search to find the application.
UNTOUCHABLES
1.Here To Stay
2.Make Believe
3.Blame
4.Hollow Life
5.Bottled Up Inside
6.Thoughtless
7.Hating
8.One More Time
9.Alone I Break
10.Embrace
11.Wake Up Hate
12.I'm Hiding
13.No One's There

1.Here To Stay

Intro:

|---------------------|---------------------|
|---------------------|---------------------|
|---------------------|---------------------|
|---------------------|---------------------|
|---------------------|---------------------|
|---------------------|---------------------|
|-0--1--0-1-0-1-2-2-2-|-0--1--0-1-0-1-2-2-2-|


 
|---------------------|---------------------|
|---------------------|---------------------|
|---------------------|---------------------|
|---------------------|---------------------|
|---------------------|---------------------|
|---------------------|---------------------|
|-0--1--0-1-0-1-2-2-2-|-0--1--0-1-0-1-2-2-2-|

Main Riff:

|---------------------|---------------------|
|---------------------|---------------------|
|---------------------|---------------------|
|-0--1--0-1-0-1-2-2-2-|-0--1--0-1-0-1-2-2-2-|  X4
|-0--1--0-1-0-1-2-2-2-|-0--1--0-1-0-1-2-2-2-|
|-0--1--0-1-0-1-2-2-2-|-0--1--0-1-0-1-2-2-2-|
|-------------------------|--------------------------|

Verse:

|---------------------|---------------------|
|---------------------|---------------------|
|---------------------|---------------------|
|---------------------|---------------------|
|-------------------2-|-------------------2-|  X12
|-0--1--0-1-0-1-0-1---|-0--1--0-1-0-1-0-1---|
|---------------------|---------------------|

Pre-chorus:
  
|---------------------|---------------------|
|---------------------|---------------------|
|---------------------|---------------------|
|---------------------|---------------------|
|---------------------|---------------------|
|---------------------|---------------------|
|---0-1--0-1-0-1-2-2-2|-0--1--0-1-0-1-2-2-2-|

Chorus:

|-----------|-------------|-----------|-------------|
|-----------|-------------|-----------|-------------|
|-----------|-------------|-----------|-------------|
|-----------|-5-----------|-----------|-5-----------|
|-2----5----|-5--5--7--3--|-2----5----|-5--5--7--3--|
|-2----5----|-3--5--7--3--|-2----5----|-3--5--7--3--|
|-0----3----|----3--5--1--|-0----3----|----3--5--1--|

Interlude/Outro:
  PM--------------|        PM------------|
|------------------------|----------------------|
|------------------------|----------------------|
|------------------------|----------------------|
|------------------------|----------------------|
|------------------------|----------------------|
|-----7-----------------|-----7----------------|
|-0-0---0---0-0-0-0--|-0-0---0---0-0-0-------|

2.Make Believe

Tuning: 1 Step Down (A,D,G,C,F,A,D)

VERSE: (guitar 1)
|----------12-12-12-12-12-1313131313----------15-15-|
|-10-10-10---------------------------11-11-11-------|
|---------------------------------------------------|
|---------------------------------------------------|
|---------------------------------------------------|
|---------------------------------------------------|
|---------------------------------------------------|

VERSE: (guitar 2)
|----------------|
|----------------|
|-12-11---10-9-7-|
|--X--X----X-X-X-|
|-10--9----8-7-5-|
|----------------|
|----------------|

BRIDGE: (guitar 1)
|------------|
|------------|
|------------|
|------------|
|-7-10---5-8-|
|-7-10---5-8-|
|-5--8---3-6-|

BRIDGE: (guitar 2)
|----------------|
|----------------|
|-12---/19-------|
|--X-------17-16-|
|-10-------------|
|----------------|
|----------------|

CHORUS: (guitar 1)
|-----------------------|
|-----------------------|
|-----------------------|
|-----------------------|
|-8--7------------------|
|-8--7--5-------4-------|
|-6--5----5-4-3---4-3-2-|

CHORUS: (guitar 2)
|----------------------16----|
|--------17------------------|
|-14-16-----16--14-16-----16-|
|----------------------------|
|----------------------------|
|----------------------------|
|----------------------------|

CHORUS FILL: (guitar 1)
|-----------------|
|-----------------|
|-----------------|
|-----------------|
|-----------------|
|-3-------2-------|
|---3-2-1---2-1-0-|

INTERLUDE: (guitar 1) (w/ effect)
|----------------------------|
|----------------------------|
|-9-11--14-13--9-10-11-14-13-|
|-X--X---X--X--X--X--X--X--X-|
|-7--9--12-11--7--8--9-12-11-|
|----------------------------|
|----------------------------|

INTERLUDE: (guitar 2)
|---------------------|
|---------------------|
|---------------------|
|---------------------|
|-3-5--8-7--3-4-5-8-7-|
|-3-5--8-7--3-4-5-8-7-|
|-1-3--6-5--1-2-3-6-5-|

OUTRO:
|---------------------------------|
|---------------------------------|
|---------------------------------|
|---------------------------------|
|---------------------------------|
|-5-------4-------3-------2-------|
|---5-4-3---4-3-2---3-2-1---2-1-0-|

3.Blame

Tuning: 1 Step Down (A,D,G,C,F,A,D)

BRIDGE:
|-------------------------------|
|-------------------------------|
|-------------------------------|
|-------------------------------|
|-------------------------------|
|-------------------------------|
|-0-1-0-1-0--1-0--1-0-1-2-2-2-2-|

VERSE:
|--------------------------------|
|-----7--------5--------7------5-|
|---7----7---6---6----7----7--6--|
|-5--------4--------5--------4---|
|--------------------------------|
|--------------------------------|
|--------------------------------|

CHORUS:
|--------------------|
|------------0---0---|
|------------0---0---|
|----5---------------|
|-2--5--5--7---6---5-|
|-2--3--5--7---6---5-|
|-0-----3--5---4---3-|

INTERLUDE:
|---<24>----<24>-------------------------------|
|-0-------0-------0-7--0-7--0-8--0-8--0-10-7---|
|--------------------------------------------7-|
|----------------------------------------------|
|----------------------------------------------|
|----------------------------------------------|
|----------------------------------------------|

INTERLUDE: (guitar 2) (^ - bend 1/2 step)
|-7^--7^-|
|--------|
|--------|
|--------|
|--------|
|--------|
|--------|

OUTRO CHORUS: (guitar 2) (plays behind guitar in original chorus)
|-------------------------------------------------------|
|-------------------------------------------------------|
|-11111111111112121111141414141414141412121212-/16-11-9-|
|--X-X-X-X-X-X-X-X-X-X-X-X-X-X-X-X-X-X-X-X-X-X---X--X-X-|
|--9-9-9-9-9-91010-9-9121212121212121210101010-/14--9-7-|
|-------------------------------------------------------|
|-------------------------------------------------------|

4.Hollow Life

Tuning: 1 Step Down (A,D,G,C,F,A,D)

INTRO:
|-----------|
|-----------|
|-12--11--9-|
|-----------|
|-----------|
|-----------|
|-----------|

VERSE: (guitar 1)
|-------------|
|-------------|
|-------------|
|-------------|
|-------------|
|----/5-----3-|
|-3------6----|

VERSE: (guitar 2)
|-----------------------------------|
|-----------------------------------|
|-12--11--9---12--14--9---12--11--9-|
|-----------------------------------|
|-----------------------------------|
|-----------------------------------|
|-----------------------------------|

CHORUS: (guitar 1)
|----------------------------|
|----------------------------|
|----------------------------|
|----------------------------|
|--------10-9---------10-8---|
|-10--8---8-7--10--8---8-6-8-|
|--8--6---------8--6-------6-|

CHORUS: (guitar 2)
|---------------|
|---------------|
|-12--13--15-10-|
|--x---x---x--x-|
|-10--11--13--8-|
|---------------|
|---------------|

INTERLUDE: (guitar 1)
|---------------|
|---------------|
|---------------|
|---------------|
|---------------|
|-44-5-6--4/5-6-|
|-22-3-4--2/3-3-|

INTERLUDE: (guitar 2)
|----------------|
|----------------|
|-10---9---9---7-|
|--X---X---X---X-|
|--8---7---7---5-|
|----------------|
|----------------|

5.Bottled Up Inside

Tuning: 1 Step Down (A,D,G,C,F,A,D)

VERSE:
|-----------------------|
|-----------------------|
|-----------------------|
|-----------------------|
|-----------------------|
|-4-2-4--4-5-4--4-2-4-4-|
|-2-0-2--2-3-2--2-0-2-2-|

VERSE FILL: (play when he starts singing)
|-------------------|
|-------------------|
|-------------------|
|-------------------|
|-------------------|
|-4--4-5-4--4-2-4-4-|
|-2--2-3-2--2-0-2-2-|

BRIDGE: (guitar 1) (^(n) - bend 1/2 step then release)
|------------------|
|------------------|
|------------------|
|---9^(9)----9^(9)-|
|------------------|
|-7--------7-------|
|------------------|

BRIDGE: (guitar 2)
|------------------------------------------------|
|------------------------------------------------|
|------------------------------------------------|
|------------------------------------------------|
|------------------------------------------------|
|-4-5---4-5---4-5-4-5-44-5-4-5--4-5-4-5-44-5-4-5-|
|-2-3---2-3---2-3-2-3-22-3-2-3--2-3-2-3-22-3-2-3-|

CHORUS:
|----------------------------------|
|----------------------------------|
|----------------------------------|
|----------------------------------|
|-----9^----2p0-2------------------|
|-2-2-7^--2--------2-2-7---5-------|
|-0-0-----0--------0-0---7---5-8-7-|

INTERLUDE:
|------------------|
|------------------|
|------------------|
|------------------|
|------------------|
|-4-5-4-5-44-5-4-5-|
|-2-3-2-3-22-3-2-3-|

INTERLUDE 2:
|------------------|
|------------------|
|------------------|
|------------------|
|------------------|
|-2-2-22-2--2-2-22-|
|-0-0-00-0--0-0-00-|

6.Thoughtless

intro (head)
clean
------------------------------------------------------------------
------------------------------------------------------------------
------------------------------------------------------------------
------------------------------------------------------------------
--------------------------------------2------2-----2-------3333---
----5------5-------5--------5-------------------------------------
-0----0-0----0-0----0-0------0-0----0-0----0-0-----0-0------------
pm    ...    ...    ...      ...    ...    ...     ...

intro (munky)
some weird effect
-----------------------------------------
-----------------------------------------
-----------------------------------------
---9--/-11-/--8--------------------------
---8--/-10-/--7--------------------------
---7--/--9-/--6--------------------------
-----------------------------------------

pre-verse (both)
----------------------------------------------------------------------------
----------------------------------------------------------------------------
----------------------------------------------------------------------------
-----------7--------7--------7-------9-------9----- 9---------10-10-10-10---
--6-6-6-0--7--------7--------7-------9-------9------9---------10-10-10-10--- 
--6-6-6-0--5--------5--------5-------7-------7----- 7----------8---8---8--8-
--4-4-4-0------0-0-----0-0-----0-0----0-0--- 0-0-------0-0------------------


verse (head)
im not too sure but i think tremelo picking
----------------------------------------
---13-----------12----------------------
--------------------------------13------
----------------------------------------
----------------------------------------
----------------------------------------
----------------------------------------

pre-chorus (head)
tremelo pick
------------------------------------------------
------------------------------------------------
-9----10-----12-------9-----10-----12----13-----
-7-----8-----10-------7------8-----10----11-----
------------------------------------------------
------------------------------------------------
------------------------------------------------

pre-chorus (munky)
-------------------------------------------------------------------
-------------------------------------------------------------------
-------------------------------------------------------------------
-------------------------------------------------------------------
-------------------------------------------------------------------
---5-5-5-5/6-6-6-6--5-5-5-5----5-5-5-5/6-6-6-6--5-5-5-5-3-3-3-3-3--
-0-3-3-3-3/4-4-4-4--3-3-3-3--0-3-3-3-3/4-4-4-4--3-3-3-3-1-1-1-1-1--

pre-chorus (munky cont'd)
power cords as well
----------------------------------------------------------------
----------------------------------------------------------------
----------------------------------------------------------------
----------------------------------------------------------------
----------------------------------------------------------------
----------------------------------------------------------------
-0-3-3-3-3/4-4-4-4--3-3-3-3--0-3-3-3-3/4-4-4-4--3-3-3-3-2-2-1-1-

chorus (munky)
------------------------------------------------------------------------------------
------------------------------------------------------------------------------------
------------------------------------------------------------------------------------
------------------------------------------------------------------------------------
------------------------------------------------------------------------------------
-7-7-7-7-7-7-7--7-7--10101010101010-----10105-5-5-5-5-5-5-5--5-5-3-3-3-3-3-3-3/5555-
-5-5-5-5-5-5-5--5-5--8-8-8-8-8-8-8-8----8-8-3-3-3-3-3-3-3-3--3-3-1-1-1-1-1-1-1/3333-

chorus (head)
tremelo pick
-----------------------------------
-----------------------------------
-----------------------------------
--16-----17------19-----21---------
--14-----15------17-----19---------
-----------------------------------
-----------------------------------

7.Hating

intro/verse:
wah
-------------------------------------------------------
-------------------------------------------------------
-------------------------------------------------------
--------------------------7-7---5-5-4-4----------------
-7-7-----9-9-----5-5-5-------------------5-5-----------
-------------------------------------------------------
-------------------------------------------------------

--------------------------------------------------
--------------------------------------------------
--------------------------------------------------
------------------------------7-7----5-5-4-4-4----
-----7-7-----9-9---5-5-5--------------------------
7-----------------------------7-------------------
--------------------------------------------------


gtr. 2
----------------------------
----------------------------
--16---14---14---12---11----
--x----x----x----x----x-----
--14---12---12---10---9-----
----------------------------
----------------------------

pre chorus (gtr 1)
----------------
----------------
----------------
--9--10---7-----   x3
--9--10---7-----
--7---8---5-----
----------------
cont'd
--------------------
--------------------
--------------------
-9--10---12--------- 
-9--10---12---------
-7---8---10---------
--------------------

pre chorus (gtr 2)
--------------------------------
--12-12-12-12-12-12-------------
--------------------------------
--------------------------------
--------------------------------
--------------------------------
--------------------------------


chorus (gtr 1)
-------------------
-------------------
-------------------
--------5---------- 
-7---3--5---5------
-7---3--3---5------
-5---1------3------
cont'd
-----------------------
-----------------------
-----------------------
-----------------------
-7----3---5----6-------
-7----3---5----6-------
-5----1---3----4-------

chorus (gtr 2)
-----------------------------------------
-----------------------------------------
---9---11----------------12---11----9----
---x----x----12-----9-----x----x----x----
---7----9----x------x----10----9----7----
-------------10-----7--------------------
-----------------------------------------

------------------------------------
------------------------------------
---9---11----------------12---11----
---x----x----12-----9-----x----x----
---7----9----x------x----10----9----
-------------10-----7---------------
------------------------------------ 

interlude
-----------------
-----------------
-----------------
-----------------
-7-7-7-7-7-7----- x3
-7-7-7-7-7-7-----
-5-5-5-5-5-5-----

---------------------
---------------------
---------------------
---------------------
-7-7-7-----8-8-8-8--- 
-7-7-7-----8-8-8-8---
-5-5-5-----6-6-6-6---

other part
------------------------------------
-----0------0------0----------------
-----0------0------0----------------
------------------------------------
--7-----8------11-----10----6--5----
--7-----8------11-----10----6--5----
--5-----6------9-------8----4--3----
     
-------------------------------------------
-----0------0------0-----------------------
-----0------0------0-----------------------
-------------------------------------------
--7-----8------11-----10----6--5-----------
--7-----8------11-----10----6--5-----------
--5-----6------9-------8----4--3----------

outro 
----------------
----------------
----------------
----------------
-7-7-7-7-7-7---- x3
-7-7-7-7-7-7----
-5-5-5-5-5-5----

-----------------------
-----------------------
-----------------------
-----------------------
-7-7-7-----8-8-8-8----- 
-7-7-7-----8-8-8-8-----
-5-5-5-----6-6-6-6-----

8.One More Time

Tuning: 1 Step Down (A,D,G,C,F,A,D)

INTRO: (guitar 1)
|-----------------|
|-----------------|
|-----------------|
|-0-0-0-0-0-0-0-0-|
|-----------------|
|-----------------|
|-----------------|

INTRO: (guitar 2)
VERSE: (guitar 2)
|--------17-17-16-16-16-----|
|-/15-15----------------16\-|
|---------------------------|
|---------------------------|
|---------------------------|
|---------------------------|
|---------------------------|

INTRO FILL: (guitar 2)
VERSE FILL: (guitar 2)
|--------17-17-16-|
|-/15-15----------|
|-----------------|
|-----------------|
|-----------------|
|-----------------|
|-----------------|

VERSE: (guitar 1)
|----------------|
|----------------|
|----------------|
|-------3--------|
|----------------|
|----------------|
|-3-3-3----1-3-1-|
pm. . .    . . .

BRIDGE:
|----------|
|----------|
|----------|
|----3-----|
|----------|
|-5---5--6-|
|-3---3--4-|

CHORUS: (guitar 1)
|---------------------------|
|---------------------------|
|---------------------------|
|---------------------------|
|-5--3--10--8--5--3--10--11-|
|-5--3--10--8--5--3--10--11-|
|-3--1---8--6--3--1---8---9-|

CHORUS: (guitar 2)
|-----------|    |-------------|
|-----------|    |-------------|
|-8-8-8---7-|play|-8-8-8---7-5-|
|-X-X-X---X-| 3X |-X-X-X---X-X-|
|-6-6-6---5-|then|-6-6-6---5-3-|
|-----------|    |-------------|
|-------3---|    |-------3-----|

INTERLUDE:
|----------------------------|
|----0-----0--0---0-----0--0-|
|----0-----0--0---0-----0--0-|
|----------------------------|
|-7----7-7------6---6-6------|
|-7----7-7------6---6-6------|
|-5----5-5------4---4-4------|

INTERLUDE 2: (guitar 1)
|---0-2--0-2---0-3--0-3---0-5--0-5---0-7--0-7-|
|---------------------------------------------|
|---------------------------------------------|
|---------------------------------------------|
|-2----------3----------5----------7----------|
|---------------------------------------------|
|---------------------------------------------|

INTERLUDE 2: (guitar 2) (w/ effect)
|------------|
|------------|
|------------|
|------------|
|------------|
|-7----------|
|----1--3--5-|

INTERLUDE 2: (guitar 3)
|-------17-----------17----|
|----13--------------------|
|-16--------16-17-14----16-|
|--------------------------|
|--------------------------|
|--------------------------|
|--------------------------|

9.Alone I Break

Tuning: 7 string 1 1/2 down  G# C# F# B E G# C#

Intro: 
C#|-----------------------------------------------------------------------|
G#|-----------------------------------------------------------------------|
E |-----------------------------------------------------------------------|
B |-----------------------------------------------------------------------|
F#|--------7--7--------7--7--------8--8-----7---7-7-------7--7-------8--8-|
C#|-----------------------------------------------------------------------|
G#|--0--0--------0--0--------0--0--------0-----------0--0-------0--0------|
pm.........................................................................

Verse:
C#|--------------------------------------------------|
G#|------0------------------------0------------------|
E |----------------5----------------------5----------|
B |--------------------------------------------------|
F#|--5--------3----------0----5--------3-------0-----|
C#|--------------------------------------------------|
G#|--------------------------------------------------|

Pre-Chorus:
C#|------------------------------------------------------------------------|
G#|------------------------------------------------------------------------|
E |------------------------------------------------------------------------|
B |------------------------------------------------------------------------|
F#|------------------------------------------------------------------------|
C#|-----------5--5--6--7--------7--7----5-----------5-5-6-7--------7-7---5-|
G#|-0-0---0---------------0--0--------------0-0--0-----------0--0----------|

C#|-------------------------------------------------------------------|
G#|-------------------------------------------------------------------|
E |-------------------------------------------------------------------|
B |-------------------------------------------------------------------|
F#|-------------------------------------------------------------------|
C#|-----------5--5--6--7--------7--7---5--------5-5-6-7------5-5-7-7--|
G#|-0---0--0--------------0--0-----------0-0-0-----------0-0----------|

C#|---------------------------------------------------------------------|
G#|---------------------------------------------------------------------|
E |--4--4--4--4--4---4--4---4--4---4------------------------------------|
B |-------------------------------------7--7--7--7--7---7--7---7--7---7-|
F#|--2--2--2--2--2---2--2---2--2---2------------------------------------|
C#|-------------------------------------5--5--5--5--5---5--5---5--5---5-|
G#|---------------------------------------------------------------------|

C#|---------------------------------------------------------------------|
G#|---------------------------------------------------------------------|
E |--4--4--4--4--4---4--4---4--4---4------------------------------------|
B |-------------------------------------7--7--7--7--7---7--7---7--7---7-|
F#|--2--2--2--2--2---2--2---2--2---2------------------------------------|
C#|-------------------------------------5--5--5--5--5---5--5---5--5---5-|
G#|---------------------------------------------------------------------|

Chorus: Guitar 1
C#|---------------------------------------------------------------------|
G#|---------------------------------------------------------------------|
E |--4--4--4--4--4---4--4---4--4---4----7--7--7--7--7---7--7---7--7---7-|
B |---------------------------------------------------------------------|
F#|--2--2--2--2--2---2--2---2--2---2----5--5--5--5--5---5--5---5--5---5-|
C#|---------------------------------------------------------------------|
G#|---------------------------------------------------------------------|

        Guitar 2
C#|-----------------------12--------------12---------12------10----9----10---|
G#|-12-----------------------------------------------------------------------|
E |--------------------------------------------------------------------------|
B |--------------------------------------------------------------------------|
F#|--------------------------------------------------------------------------|
C#|--------------------------------------------------------------------------|
G#|--------------------------------------------------------------------------|

Chorus: (continued) Guitar 1
C#|--------------------------------------------------------------------------|
G#|--------------------------------------------------------------------------|
E |--------------------------------------------------------------------------|
B |--7--7--7--7--7----7--7----7--7-----7----5--5--5--5--5----5--5---5--5---5-|
F#|--------------------------------------------------------------------------|
C#|--5--5--5--5--5----5--5----5--5-----5----3--3--3--3--3----3--3---3--3---3-|
G#|--------------------------------------------------------------------------|

Bridge: Guitar 1
C#|--14------------------------------12-----11-------|
G#|--12----------7-----5-------------13-----12-------|
E |--13----------4-----4-------------12-----11-------|
B |--14----------------------------------------------|
F#|--------------------------------------------------|
C#|--------------------------------------------------|
G#|--------------------------------------------------|

Bridge: Guitar 2
C#|------------------------10/12---------------------|
G#|------------------------10/12---------------------|
E |--------------------------------------------------|
B |--------------------------------------------------|
F#|--------------------------------------------------|
C#|--------------------------------------------------|
G#|--------------------------------------------------|

10.Embrace

Tuning: 1 Step Down (A,D,G,C,F,A,D)

INTRO:
|-----------------------|
|-----------------------|
|-----------------------|
|-----------------------|
|-----------------------|
|---5-5/9-9---5-5/10-10-|
|-3---------3-----------|

INTRO 2:
|------------|
|------------|
|------------|
|------------|
|------------|
|-3-2--2-2-2-|
|-1-0--0-0-0-|

VERSE:
|----------|
|----------|
|----------|
|----------|
|----------|
|-3-2--2-2-|
|-1-0--0-0-|

BRIDGE: (guitar 1)
|--------------------------------------|
|--------------------------------------|
|--------------------------------------|
|--------------------------------------|
|---5/6\5-5/6----------5/6\5-5/6-------|
|-----------------2--------------------|
|-3-----------3-4----3-----------3-6-4-|

|--------------------------------------|
|--------------------------------------|
|--------------------------------------|
|--------------------------------------|
|---5/6\5-5/6----------5/6\5-5/6-----6-|
|-----------------2----------------5---|
|-3-----------3-4----3-----------3-----|

BRIDGE: (guitar 2) (trem. - tremolo pick)
|----------------------|    |--------------------------------|
|----------------------|    |--------------------------------|
|-14(trem.)--13(trem.)-|play|-14(trem.)--13(trem.)-19(trem.)-|
|--X----------X--------| 3X |--X----------X---------X--------|
|-12---------11--------|then|-12---------11--------17--------|
|----------------------|    |--------------------------------|
|----------------------|    |--------------------------------|

CHORUS:
|------------------|
|------------------|
|------------------|
|-10-9-8-----------|
|-10-9-8-------8-7-|
|--8-7-6-5h6p5-8-7-|
|--------------6-5-|

INTERLUDE:
|-----------------------------------|
|-----------------------------------|
|-10(tremolo pick)--7(tremolo pick)-|
|--X----------------X---------------|
|--8----------------5---------------|
|-----------------------------------|
|-----------------------------------|

11.Wake Up Hate

Tuning: 1 Step Down (A,D,G,C,F,A,D)

INTRO:
|------------------------------------------------|
|------------------------------------------------|
|------------------------------------------------|
|------------------------------------------------|
|------------------------------------------------|
|------------------------------------------------|
|-0-11-12--0-11-12--0-11-12--0-11-12--0-13-13-13-|

CHORUS:
|------------------------------------------------|
|------------------------------------------------|
|------------------------------------------------|
|------------------------------------------------|
|------------------------------------------------|
|---13-14----13-14----13-14----13-14----15-15-15-|
|-0-11-12--0-11-12--0-11-12--0-11-12--0-13-13-13-|

VERSE: (palm mute)
|---------------------------------------------------|
|---------------------------------------------------|
|---------------------------------------------------|
|---------------------------------------------------|
|---------------------------------------------------|
|---------------------------------------------------|
|-0-1-1-0-1--0-1-1-0-1--0-2--2-0-1-1-0-1--0-1-1-0-1-|

VERSE B: (guitar 1)
|--------------------------|
|--------------------------|
|--------------------------|
|--------------------------|
|--------------------------|
|--------------------------|
|-2-1--1--0-1-2-1-0-1--0-0-|

VERSE B: (guitar 2) (w/ effect)
|--------|
|--------|
|--------|
|-11--10-|
|--------|
|--------|
|--------|

VERSE C:
|--------------------------------------------------|
|--------------------------------------------------|
|--------------------------------------------------|
|--------------------------------------------------|
|--------------------------------------------------|
|--------------------------------------------------|
|-2-1-1-0--0-2-1-1-0--0-2-1-1-0--0-2-2-2-2-2-2-2-2-|

INTERLUDE:
|---------------------------------------|
|---------------------------------------|
|---------------------------------------|
|---------------------------------------|
|---------------------------------------|
|-0h1-2--1--------0h1-2--2--1--1--------|
|-----------3--2-----------------3--3-2-|

INTERLUDE 2:
|-------------------------------------------|
|-------------------------------------------|
|-------------------------------------------|
|-------------------------------------------|
|-------------------------------------------|
|-------------------2-----------------------|
|-2-3-2--2-3-2--2-3---3--2-3-2--2-2-3-3-3-2-|

12.I'm Hiding

uning: 1 Step Down (A,D,G,C,F,A,D)

BRIDGE:
|----------------------|
|----------------------|
|----------------------|
|----------------------|
|----------------------|
|-5-6-6-4--555-6-6-4-4-|
|-3-4-4-2--333-4-4-2-2-|

VERSE: (guitar 1) (w/ effect)
|-------------------------------------|
|-------------------------------------|
|-------------------------------------|
|-------------------------------------|
|-5-5/6\5--5-5/6\5--5-5/6\5--5-5/6/10-|
|-------------------------------------|
|-------------------------------------|

VERSE: (guitar 2)
|---------------------|
|---------------------|
|-7---5------7-7/8/12-|
|-X---X---7--X-X-X--X-|
|-5---3---X--5-5/6/10-|
|---------5-----------|
|---------------------|

CHORUS:
|-------------------------------------------|
|-------------------------------------------|
|-------------------------------------------|
|---9-9/11----------------9-9/11------------|
|---9-9/11--10------------9-9/11--10--------|
|---7-7/9---10------------7-7/9---10--5-7-5-|
|-0----------8--3-5-7-3-0----------8--3-5-3-|

OUTRO: (trem - tremolo pick)
|------------------------------------------------------------------|
|------------------------------------------------------------------|
|-11(trem)--9(trem)--12(trem)--14(trem)-12(trem)-14(trem)-12(trem)-|
|--X--------X---------X---------X--------X--------X--------X-------|
|--9--------7--------10--------12-------10-------12-------10-------|
|------------------------------------------------------------------|
|------------------------------------------------------------------|

13.No One's There

(clean) bass intro
 |------------------------------|
 |------------------------------|
 |------------------------------|
 |------------------------------|
 |------------------------------|
 |-0--5--4--3---0--5--7-5-4--3--|
  
 (distorted) guitar intro
 |-------------------------------------------------------------------------|
 |-------------------------------------------------------------------------|
 |---7-7-7-7---------9-9-9-9---------10101010--------14-14-14-14-12-12-12--|
 |-------------------------------------------------------------------------|
 |---5-5-5-5---------7-7-7-7---------8-8-8-8---------12-12-12-12-10-10-10--|
 |-0---------0-0-0-0---------0-0-0-0---------0-0-0-0-----------------------|
comments
We did not receive enough feedback on this tab! Please rate:
print report bad tab
1 2 3 4 5
1 comment total.
0 reply
macolicious14 wrote on October 26 2007, 06:24 pm

this is so bad. what are you thinking it doesnt sound right at all

I want to post or [tab]
guest
You may want to rate the tab now too:
select rating
Please do not post tabs as comments. Select "correction" instead!