Oops, an error
Loading. Please wait.

Beer Beer Bass Tab

ver1
ver1

Whole song

Interactive

More versions @911Tabs.com
3,179 views 9 this week
no commentswrite comment
1 2 3 4 5
please rate
Autoscroll
+/-
esc
set tempo
stop
Difficulty
novice
Hey! There's an official Ultimate Guitar app which is ideal
for learning songs when you're away from computer. Get the app
WARNING: You are trying to view
                                    content from Ultimate-Guitar.com
                                    in an unauthorized application,
                                    which is prohibited.

                                    Please use an official Ultimate
                                    Guitar Tabs application for iPhone,
                                    iPad or Android to access legitimate
                                    chords, guitar, bass, and drum tabs
                                    from Ultimate-Guitar.com database.

                                    Type "ultimate guitar tabs" in Apple
                                    App Store's or Android Market's
                                    search to find the application.
                                  Beer Beer                                     


                                                                     Korpiklaani
Bass



     Q       W                   W                   W                 
F||-------|-------------------|-------------------|-------------------|
C||-------|-------------------|-------------------|-------------------|
G||-------|-------------------|-------------------|-------------------|
D||-------|-------------------|-------------------|-------------------|


  W                   W                   H        Q    Q     
-------------------|-------------------|---------------------|
-------------------|-------------------|---------------------|
-------------------|-------------------|---------------------|
-------------------|--0----------------|--3--------5----3----|


  W                   Q    Q    Q    Q       E  E  Q    Q    E  E   
-------------------|----------------------|------------------------|
-------------------|----------------------|------------------------|
-------------------|----------------------|------------------------|
--0----------------|--5----3----0---------|--0-----0----3----0--3--|


  E  E  E  E  Q    Q       E  E  Q    Q    E  E     Q    Q    Q    Q     
------------------------|------------------------|----------------------|
------------------------|------------------------|----------------------|
------------------------|------------------------|----------------------|
--5-----3--5--7----7----|--0-----0----3----0--3--|--5----7----0----0----|


  E  E  Q    Q    E  E     E  E  E  E  Q    Q       E  E  Q    Q    E  E   
------------------------|------------------------|------------------------|
------------------------|------------------------|------------------------|
------------------------|------------------------|------------------------|
--0-----0----3----0--3--|--5-----3--5--7----7----|--0-----0----3----0--3--|


  Q    Q    Q    Q       E  E  Q    Q    E  E     E  E  E  E  Q    E  E   
----------------------|------------------------|-------------------------|
----------------------|------------------------|-------------------------|
----------------------|------------------------|-------------------5--7--|
--5----7----0----0----|--0-----0----3----0--3--|--5-----3--5--7----------|


  E  E  Q    Q    E  E     Q    Q    Q    Q       E  E  Q    Q    E  E   
------------------------|----------------------|------------------------|
------------------------|----------------------|------------------------|
------------------------|----------------------|------------------------|
--0-----0----3----0--3--|--5----3----0----0----|--0-----0----3----0--3--|


  E  E  E  E  Q    E  E     E  E  Q    Q    E  E     Q    Q    Q    Q     
-------------------------|------------------------|----------------------|
-------------------------|------------------------|----------------------|
-------------------5--7--|------------------------|------------7----7----|
--5-----3--5--7----------|--0-----0----3----0--3--|--5----3--------------|


  E  Q.     S S S S S S S S    S S S S S S S S S S S S S S S S  
----------------------------|----------------------------------|
----------------------------|----------------------------------|
----------------------------|----------------------------------|
--0---------7-7-7-7-0-0-3-3-|--6-6-6-6-3-3-5-5-7-7-7-7-7-7-7-7-|


  E  Q.     S S S S S S S S    S S S S S S S S S S S S S S S S  
----------------------------|----------------------------------|
----------------------------|----------------------------------|
----------------------------|----------------------------------|
--5---------7-7-7-7-0-0-3-3-|--5-5-5-5-3-3-3-3-0-0-0-0-0-0-0-0-|


  E  Q.     S S S S S S S S    S S S S S S S S S S S S S S S S  
----------------------------|----------------------------------|
----------------------------|----------------------------------|
----------------------------|----------------------------------|
--5---------7-7-7-7-0-0-3-3-|--6-6-6-6-3-3-5-5-7-7-7-7-7-7-7-7-|


  E  Q.     S S S S S S S S    S S S S S S S S Q    Q       H        Q.     E   
----------------------------|----------------------------|---------------------|
----------------------------|----------------------------|---------------------|
----------------------------|----------------------------|---------------------|
--5---------7-7-7-7-0-0-3-3-|--5-5-5-5-3-3-3-3-0----0----|--0--------0------0--|


  H        Q.     E     H        Q.     E     H        Q.     E   
---------------------|---------------------|---------------------|
---------------------|---------------------|---------------------|
---------------------|---------------------|---------------------|
--0--------0------0--|--0--------0------0--|--0--------0------0--|


  H        Q.     E     H        Q.     E     H        Q.     E   
---------------------|---------------------|---------------------|
---------------------|---------------------|---------------------|
---------------------|---------------------|---------------------|
--0--------0------0--|--0--------0------0--|--0--------0------0--|


  H        Q.     E     E  E  Q    Q    E  E     E  E  E  E  Q    Q     
---------------------|------------------------|------------------------|
---------------------|------------------------|------------------------|
---------------------|------------------------|------------------------|
--0--------0------0--|--0-----0----3----0--3--|--5-----3--5--7----7----|


  E  E  Q    Q    E  E     Q    Q    Q    Q       E  E  Q    Q    E  E   
------------------------|----------------------|------------------------|
------------------------|----------------------|------------------------|
------------------------|----------------------|------------------------|
--0-----0----3----0--3--|--5----7----0----0----|--0-----0----3----0--3--|


  E  E  E  E  Q    Q       E  E  Q    Q    E  E     Q    Q    Q    Q     
------------------------|------------------------|----------------------|
------------------------|------------------------|----------------------|
------------------------|------------------------|----------------------|
--5-----3--5--7----7----|--0-----0----3----0--3--|--5----7----0----0----|


  E  E  Q    Q    E  E     E  E  E  E  Q    E  E     E  E  Q    Q    E  E   
------------------------|-------------------------|------------------------|
------------------------|-------------------------|------------------------|
------------------------|-------------------5--7--|------------------------|
--0-----0----3----0--3--|--5-----3--5--7----------|--0-----0----3----0--3--|


  Q    Q    Q    Q       E  E  Q    Q    E  E     E  E  E  E  Q    E  E   
----------------------|------------------------|-------------------------|
----------------------|------------------------|-------------------------|
----------------------|------------------------|-------------------5--7--|
--5----3----0----0----|--0-----0----3----0--3--|--5-----3--5--7----------|


  E  E  Q    Q    E  E     Q    Q    Q    Q       E  Q.     S S S S S S S S  
------------------------|----------------------|----------------------------|
------------------------|----------------------|----------------------------|
------------------------|------------7----7----|----------------------------|
--0-----0----3----0--3--|--5----3--------------|--0---------7-7-7-7-0-0-3-3-|


  S S S S S S S S S S S S S S S S    E  Q.     S S S S S S S S  
----------------------------------|----------------------------|
----------------------------------|----------------------------|
----------------------------------|----------------------------|
--6-6-6-6-3-3-5-5-7-7-7-7-7-7-7-7-|--5---------7-7-7-7-0-0-3-3-|


  S S S S S S S S S S S S S S S S    E  Q.     S S S S S S S S  
----------------------------------|----------------------------|
----------------------------------|----------------------------|
----------------------------------|----------------------------|
--5-5-5-5-3-3-3-3-0-0-0-0-0-0-0-0-|--5---------7-7-7-7-0-0-3-3-|


  S S S S S S S S S S S S S S S S    E  Q.     S S S S S S S S  
----------------------------------|----------------------------|
----------------------------------|----------------------------|
----------------------------------|----------------------------|
--6-6-6-6-3-3-5-5-7-7-7-7-7-7-7-7-|--5---------7-7-7-7-0-0-3-3-|


  S S S S S S S S Q    Q       H        Q.     E     H        Q.     E   
----------------------------|---------------------|---------------------|
----------------------------|---------------------|---------------------|
----------------------------|---------------------|---------------------|
--5-5-5-5-3-3-3-3-0----0----|--0--------0------0--|--0--------0------0--|


  H        Q.     E     H        Q.     E     H        Q.     E   
---------------------|---------------------|---------------------|
---------------------|---------------------|---------------------|
---------------------|---------------------|---------------------|
--0--------0------0--|--0--------0------0--|--0--------0------0--|


  H        Q.     E     H        Q.     E     H        Q.     E   
---------------------|---------------------|---------------------|
---------------------|---------------------|---------------------|
---------------------|---------------------|---------------------|
--0--------0------0--|--0--------0------0--|--0--------0------0--|


  E  E  Q    Q    E  E     E  E  E  E  Q    Q       E  E  Q    Q    E  E   
------------------------|------------------------|------------------------|
------------------------|------------------------|------------------------|
------------------------|------------------------|------------------------|
--0-----0----3----0--3--|--5-----3--5--7----7----|--0-----0----3----0--3--|


  Q    Q    Q    Q       E  E  Q    Q    E  E     E  E  E  E  Q    Q     
----------------------|------------------------|------------------------|
----------------------|------------------------|------------------------|
----------------------|------------------------|------------------------|
--5----7----0----0----|--0-----0----3----0--3--|--5-----3--5--7----7----|


  E  E  Q    Q    E  E     Q    Q    Q    Q       E  E  Q    Q    E  E   
------------------------|----------------------|------------------------|
------------------------|----------------------|------------------------|
------------------------|----------------------|------------------------|
--0-----0----3----0--3--|--5----7----0----0----|--0-----0----3----0--3--|


  E  E  E  E  Q    Q       E  E  Q    Q    E  E     Q    Q    Q    Q     
------------------------|------------------------|----------------------|
------------------------|------------------------|----------------------|
------------------------|------------------------|----------------------|
--5-----3--5--7----7----|--0-----0----3----0--3--|--5----7----0----0----|


  E  E  Q    Q    E  E     E  E  E  E  Q    Q       E  E  Q    Q    E  E   
------------------------|------------------------|------------------------|
------------------------|------------------------|------------------------|
------------------------|------------------------|------------------------|
--0-----0----3----0--3--|--5-----3--5--7----7----|--0-----0----3----0--3--|


  Q    Q    Q    Q       E  Q.     S S S S S S S S  
----------------------|----------------------------|
----------------------|----------------------------|
----------------------|----------------------------|
--5----7----0----0----|--0---------7-7-7-7-0-0-3-3-|


  S S S S S S S S S S S S S S S S    E  Q.     S S S S S S S S  
----------------------------------|----------------------------|
----------------------------------|----------------------------|
----------------------------------|----------------------------|
--6-6-6-6-3-3-5-5-7-7-7-7-7-7-7-7-|--5---------7-7-7-7-0-0-3-3-|


  S S S S S S S S S S S S S S S S    E  Q.     S S S S S S S S  
----------------------------------|----------------------------|
----------------------------------|----------------------------|
----------------------------------|----------------------------|
--5-5-5-5-3-3-3-3-0-0-0-0-0-0-0-0-|--5---------7-7-7-7-0-0-3-3-|


  S S S S S S S S S S S S S S S S    E  Q.     S S S S S S S S  
----------------------------------|----------------------------|
----------------------------------|----------------------------|
----------------------------------|----------------------------|
--6-6-6-6-3-3-5-5-7-7-7-7-7-7-7-7-|--5---------7-7-7-7-0-0-3-3-|


  S S S S S S S S Q    Q       H        Q.     E     H        Q.     E   
----------------------------|---------------------|---------------------|
----------------------------|---------------------|---------------------|
----------------------------|---------------------|---------------------|
--5-5-5-5-3-3-3-3-0----0----|--0--------0------0--|--0--------0------0--|


  H        Q.     E     H        Q.     E     H        Q.     E   
---------------------|---------------------|---------------------|
---------------------|---------------------|---------------------|
---------------------|---------------------|---------------------|
--0--------0------0--|--0--------0------0--|--0--------0------0--|


  H        Q.     E     H        Q.     E     H        Q.     E   
---------------------|---------------------|---------------------|
---------------------|---------------------|---------------------|
---------------------|---------------------|---------------------|
--0--------0------0--|--0--------0------0--|--0--------0------0--|


  Q    Q    Q    Q       Q    Q.     Q.          Q     E  E  E  E  E  E   
----------------------|----------------------|---------------------------|
----------------------|----------------------|---------------------------|
----------------------|----------------------|--(x)----------------------|
--0----0----0----0----|--0----0------7S------|---0-----0--0--0--0--0--0--|


  Q    E  E  E  E  E  E     Q    E  E  E  E  E  E     Q    E  E  E  E  E  E   
-------------------------|-------------------------|-------------------------|
-------------------------|-------------------------|-------------------------|
-------------------------|-------------------------|-------------------------|
--0----0--0--0--0--0--0--|--0----0--0--0--0--0--0--|--0----0--0--0--0--0--0--|


  Q    E  E  E  E  E  E     Q    E  E  E  E  E  E     Q    E  E  E  E  E  E   
-------------------------|-------------------------|-------------------------|
-------------------------|-------------------------|-------------------------|
-------------------------|-------------------------|-------------------------|
--0----0--0--0--0--0--0--|--0----0--0--0--0--0--0--|--0----0--0--0--0--0--0--|


  Q    E  E  E  E  E  E     W                   W                 
-------------------------|-------------------|-------------------|
-------------------------|-------------------|-------------------|
-------------------------|-------------------|-------------------|
--0----0--0--0--0--0--0--|--0----------------|--L----------------|


  W                   W                   W                   W                 
-------------------|-------------------|-------------------|-------------------|
-------------------|-------------------|-------------------|-------------------|
-------------------|-------------------|-------------------|-------------------|
--L----------------|--L----------------|--L----------------|--L----------------|


  W                   W                   W                   W                 
-------------------|-------------------|-------------------|-------------------|
-------------------|-------------------|-------------------|-------------------|
-------------------|-------------------|-------------------|-------------------|
--L----------------|--L----------------|--L----------------|--L----------------|


  W                   W                   W                  
-------------------|-------------------|-------------------||
-------------------|-------------------|-------------------||
-------------------|-------------------|-------------------||
-------------------|-------------------|-------------------||




Duration Legend
---------------
W - whole
H - half
Q - quarter
E - 8th
S - 16th
T - 32nd
X - 64th
. - note dotted
|-n-|  - n-tuplets


Tablature Legend
----------------
L - tied note
x - dead note
g - grace note
(n) - ghost note
> - accentuded note
NH - natural harmonic
AH - artificial harmonic
TH - tapped harmonic
SH - semi harmonic
PH - pitch harmonic
h - hammer on
p - pull off
b - bend
br - bendRelease
pb - preBend
pbr - preBendRelease
brb - bendReleaseBend
\n/ - tremolo bar dip
\n - tremolo bar dive
-/n - tremolo bar Release up
/n\ - tremolo bar inverted dip
/n - tremolo bar return
-\n - tremolo bar Release down
S - shift slide
s - legato slide
/ -  slide into from below or out of upwards
\ -  slide into from above or out of downwards
~ - vibrato
W - wide vibrato
tr - trill
TP - tremolo picking
T - tapping
S - slap
P - pop
< - fade in
^ - brush up
v - brush down
comments
We did not receive enough feedback on this tab! Please rate:
print report bad tab
1 2 3 4 5
I want to post or [tab]
guest
You may want to rate the tab now too:
select rating
Please do not post tabs as comments. Select "correction" instead!