Oops, an error
Loading. Please wait.

Brand New Wings Tab

11,960 views 30 this week
3 commentsread comments
1 2 3 4 5
excellent!
x 2
add to favorites launch autoscroll
font size
0
reset
Autoscroll
+/-
esc
set tempo
stop
Contributor
Difficulty
intermediate
WARNING: You are trying to view
                                    content from Ultimate-Guitar.com
                                    in an unauthorized application,
                                    which is prohibited.

                                    Please use an official Ultimate
                                    Guitar Tabs application for iPhone,
                                    iPad or Android to access legitimate
                                    chords, guitar, bass, and drum tabs
                                    from Ultimate-Guitar.com database.

                                    Type "ultimate guitar tabs" in Apple
                                    App Store's or Android Market's
                                    search to find the application.
Title: Brand New Wings
Artist: Kotaro Oshio
Album: Hand to Hand
Tabber: xsymphonyx
Tempo = 125
Steel Guitar

Legend
L - tied note
x - dead note
h - hammer on/pull off
b - bend
s - slide
~ - vibrato
g - ghost note
> - accentuated note
t - trill
M - palm mute
. - staccato
P - popping (bass)
S - slapping (bass)
+ - tapping
W - wide vibrato
< - fade in
w - whammy bar
= - tremolo picking
v - brush up
^ - brush down
V - pick stroke up
n - pick stroke down

        ^
E |-----7----------|
B |-----7----------|
F#|-----7----------|
E |-----7----------|
G#|-----7----------|
C#|-----7----------|

           ^
-----------------------------------------------------------------12L--------|
-----------------------------------------------------------------12L--------|
-----------------------------------------------------------------12L--------|
--9--------9.-9--9--9--------------------------0h-------5--------12L--------|
--8--------8.-8--8--8--------x--------x--------0h-------5--------12L--------|
--8--------8--8--8--8--------x--------x--------0h-------5-------------------|

                                                                   ^
--12----------------------------------------------------------------------------|
--12----------------------------------------------------------------------------|
--12----------------------------------------------------------------------------|
--12----12----12-12----12-------12----12----5L----------------------7-----------|
--12----------------------------------------5L-------------5L-5--------------5--|
--------------------------12----------------5L----------------------------------|

          ^                      ^
-----------|--------------0-------------|--x-----7-----------0-------||
-----------|--------------0--------12---|--x-----7--------0----------||
-----------|--------------------x-------|--x-----7-------------------||
-----------|--5--5--7-----9--9--x--11---|-----7--7-------------------||
---7-------|--5--5--7-----8--------10---|-----7----------------------||
-----------|--5--5--7-----8--------10---|----------------------------||


-0h-2-----------------2-----x-----------0-----------2-----------------------x---|
----0-----------------0-----x-----------0-----------0-----------------------x---|
o---------------------0-----x-----------------------------------------------x---|
o---4-----------------------------------------------4-----------------4---------|
----3---------------------------------------------------------------------------|
----3---------------------------------------------------------------------------|


----------------------|
----------------------|
----------------------|
--------4-------------|
--------3-------------|
--------3-------------|


--------------------------x-----------0-----------0h-2-----------------2-----x--|
--------------------------x-----------0--------------0-----------------0-----x--|
--------------------------x--------------------------------------------------x--|
--4-----------4-----------------------4--------------4--------------------------|
--3-----------3-----------------------3--------------3--------------------------|
--3-----------3-----------------------3--------------3--------------------------|

                       ^
---------0-------------|--------------------------------------12----0L------|
---------0-------------|-----------0--------0-----0-----------12----0L------|
-----------------------|--9--------9--x-----7-----9-----------12------------|
---------0-------------|--11-------11-x-----9-----11----------12------------|
-----------------------|--0-----------x-----0-----10----------12------------|
-----------------------|--0-----------------0-------------------------------|


--0-----------------x--0----|
--0--------0--------x--0----|
-----9--x--10-12-12-x-------|
-----11-x--12-14-14----0----|
-----0--------0--0-----0----|
-----0-----------0----------|


--0--------0--x-----0L----0-----------x-----0-------|
--9--------9--x-----0L----0-----------x-----0-------|
--------------x-----------------------x-------------|
--9-----------------9L----9-----9-----x-----9-------|
--8-----------------8L----8-----8-----x-----8-------|
--8-----------------8L----8-----8-----x-----8-------|


--------------x-----0-----0--------0--x-----0-------|
--------------x-----0-----10-------9--x-----0-------|
--------------x-----------------------x-------------|
--9-----9-----------9-----9-----------------0-------|
--8-----8-----------8-----8-----------------0-------|
--8-----8-----------8-----8-----------------0-------|

                      ^
--2--------2--------0L----0-------------------------|
--2--------2--------0L----0-------------------------|
----------------------------------------------------|
--2--------2--------2L----2-----------------11------|
--------------------------------------------10------|
--1-----------1-----------------1s----10----10------|


--------7-----------0------||
--------7-----------0------||
--------7-----------------o||
--------7--------7--------o||
-----7---------------------||
---------------------------||


--0--------0--x-----0L----0-----------x-----0-------|
--9-----------x-----0L----0-----------x-----0-------|
--------------x-----------------------x-------------|
--9-----------------9L----9-----9-----------0-------|
--8-----------------------------8-----------0-------|
--8-----------------------------8-------------------|


-----------0--x-----0L----0-----------x-----0-------|
--7--------7--x-----5L----5-----------x-----0-------|
--------------x-----------------------x-------------|
--7-----------------6L----6-----------------0-------|
--7-----------------------------6-----------0-------|
--------------------6L----6-----6-----------0-------|


--0--------0--x-----0L----0-----0-----x-----0L------|
--5--------5--x-----5L----5-----5-----x-----5L------|
--------------x-----------------------x-------------|
--6-----------------5L----5-----------------4L------|
--5-----------------------------------------3L------|
--5-----------------4L----4-----------------3L------|


--0--------------------0----|--------------------0-------|
--5-------------------------|--------------0-------------|
-----------------0--0-------|-----------------------9L---|
--4--------4----------------|--9--------------9----------|
--3--3-----3--3-------------|-----------8----------------|
--3--3-----3--3-------------|--8-------------------------|


--------------0-------------|-----------------------0L---|
--------0--------------0L---|--0-----------0--2s-4-------|
--9--------9-----9----------|----------------------------|
----------------------------|-----0--0-------------------|
-----8--------------8-------|--0L-0L-0--0L-0-------------|
--8-------------------------|----------------------------|


--0-----------0-----x--0L---|
-----------------x--x--0L---|
-----0--0--------x--x-------|
-----------------------5L---|
-----------------------5L---|
--7--------7L-7--------5L---|


--0-------------------------------------------------------------------------|
--0-----------------------------------0--------0--------x--------0----------|
-----------------------------------------------0--------x-------------------|
--5--------------------------9--9--9--9-----------------x--------9----------|
--5-----------------7--------8--8--8--8-----------------x--------8----------|
--5--------5--------7--------8--8--8--8--------------------------8----------|


-----------------------------------------------------------------7----------|
-----------------------------------------------7--------x--------0----------|
-----------------------------------------------7--------x-------------------|
-----------9--------11----------------------------------x--------5----------|
-----------8--------10----------------------------------x--------5----------|
--8--------8--------10-------7--7--7--7--------------------------5----------|


-----7-----7-----7-----0L---|--0--------------0--7h-0----||
-----0--x--0--x--0--x--12L--|--12----12----12------------||
--------x-----x-----x-------|----------------------------||
--------x--7--x--9--x--11L--|--11-11-11-11-11-0--7h-0----||
-----------7-----8-----10L--|--10-10-10-10-10------------||
--5--------7-----8-----10L--|--10-10-10-10-10------------||


-9-----------9-----0-----11-------11-x-----12------|
-------------------------0-----------x-----0-------|
o------------------------------------x-------------|
o9L----------9L----9-----11----------------12------|
-8L----------8L----8-----10----------------0-------|
-8L----------8L----8-----10----------------0-------|


-----0--x--0--------x-------|
-----0--x--0--------x--0----|
--------x-----------x-------|
-----0-----6-----6-----6----|
-----0-----5--5--5-----5----|
-----0h-5--5--5--5-----5----|


--------------------0-----5--------4--x-----2L------|
--------------x-----------0--------0--x-----0L------|
--------------x-----------------------x-----0L------|
--5-----5-----x-----------------------------3L------|
--5-----5-----------------3-------------------------|
--5-----5-----------------------------------3L------|


--2--4--x--5-----7-----9----|
--0--0--x--0-----0--x-------|
--0--0--x-----------x-------|
--3--------5-----7--x--9----|
-----3-----5-----7-----8----|
--3--3-----5-----7-----8----|


--9-----------------11----11-------14-x-----12L-----|
--------------------0-----0-----------x-------------|
--------------------------------------x-------------|
--9-----------9-----11----11-------14-------12L-----|
--8-----------------10----10-------0--------0L------|
--8-----------------10----10-------0--------0L------|


--12-0--x--0--------x--0----|
-----0--x--0--------x--0----|
--------x-----------x-------|
--12-0-----6-----6-----5----|
--0--0-----5-----5-----5----|
--0--0-----5-----5-----5----|


--------------------------------------x-------------|
--------------------------10-------9--x-----12------|
--------------------------------------x-------------|
--------------7-----------9--------9--------11------|
--5-----5-----7-----------8-----------------10------|
--5-----5-----7-----------8-------------------------|


-----0--x--5--x--7--x--9---||
-----0--x-----x-----x------||
--------x-----x-----x-----o||
-----0-----5-----7-----9--o||
-----0-----------------8---||
-----0-----5-----------8---||


--------0-----7-----0-----5--------4--------0L------||
--12g-----------------------------------------------||
----------------------------------------------------||
--11g---0-----7-----0-----5--------4--------0L------||
--10g-----------------------------------------------||
--10g-----------------------------------------------||


-0-----------4-------------|--4-----------4-------------|
-------0--------0----------|-----0-----------0----------|
o------------------0-------|--------0-----------0-------|
o0--5-----------------5----|-----------5-----------5----|
---------------------------|----------------------------|
-5--------5----------------|----------------------------|


--------------2-------------|--2-----------2------------||
--------0--------0----------|-----0-----------0---------||
--------------------0-------|--------0-----------0-----o||
-----4-----4-----------4----|-----------4-----------4--o||
----------------------------|---------------------------||
--3-------------------------|---------------------------||


--2-----------2-------------|
-----0-----------0--x-------|
--------0-----------x-------|
-----------4--------x-------|
-----------------------0----|
-----------------------0----|


----------------------------------------------------|
--------------------------------------x-------------|
--------------------------------------x-------------|
--5-----------5--------5--5-----5-----x-----7L------|
--5-----------5--------5--5-----5-----------7L------|
--5-----------5--------5--5-----5-----------7L------|


----------------------------------------------------|
--------------------------------------x-------------|
--------------------------------------x-------------|
--7-----------7--------7--7-----7-----x-----9L------|
--7-----------7--------7--7-----7-----------8L------|
--7-----------7--------7--7-----7-----------8L------|


----------------------------------------------------|
--------------------------------------x-----12L-----|
--------------------------------------x-----x-------|
--9-----------9--------9--9-----9-----x-----11L-----|
--8-----------8--------8--8-----8-----------10L-----|
--8-----------8--------8--8-----8-----------10L-----|


-----------------0--7h-0----||
--12----12----12------------||
----------------------------||
--11-11-11-11-11-0--7h-0----||
--10-10-10-10-10------------||
--10-10-10-10-10------------||


-9-----------9-----0-----11-------11-x-----12------|
-------------------------0-----------x-----0-------|
o------------------------------------x-------------|
o9L----------9L----9-----11----------------12------|
-8L----------8L----8-----10----------------0-------|
-8L----------8L----8-----10----------------0-------|


-----0--x--0--------x-------|
-----0--x--0--------x--0----|
--------x-----------x-------|
-----0-----6-----6-----6----|
-----0-----5--5--5-----5----|
-----0h-5--5--5--5-----5----|


--------------------0-----5--------4--x-----2L------|
--------------x-----------0--------0--x-----0L------|
--------------x-----------------------x-----0L------|
--5-----5-----x-----------------------------3L------|
--5-----5-----------------3-------------------------|
--5-----5-----------------------------------3L------|


--2--4--x--5-----7-----9----|
--0--0--x--0-----0--x-------|
--0--0--x-----------x-------|
--3--------5-----7--x--9----|
-----3-----5-----7-----8----|
--3--3-----5-----7-----8----|


--9-----------------11----11-------14-x-----12L-----|
--------------------0-----0-----------x-------------|
--------------------------------------x-------------|
--9-----------9-----11----11-------14-------12L-----|
--8-----------------10----10-------0--------0L------|
--8-----------------10----10-------0--------0L------|


--12-0--x--0--------x--0----|
-----0--x--0--------x--0----|
--------x-----------x-------|
--12-0-----6-----6-----5----|
--0--0-----5-----5-----5----|
--0--0-----5-----5-----5----|


--------------------------------------x-------------|
--------------------------10-------9--x-----12------|
--------------------------------------x-------------|
--------------7-----------9--------9--------11------|
--5-----5-----7-----------8-----------------10------|
--5-----5-----7-----------8-------------------------|


-----0--x--5--x--7--x--9---||
-----0--x-----x-----x------||
--------x-----x-----x-----o||
-----0-----5-----7-----9--o||
-----0-----------------8---||
-----0-----5-----------8---||

                         ^
--------0-----7-----0-----5--------4--------0-------|
--12g-----------------------------------------------|
----------------------------------------------------|
--11g---0-----7-----0-----5--------4--------0-------|
--10g-----------------------------------------------|
--10g-----------------------------------------------|


-----------------------------------------------------------------12L--------|
-----------------------------------------------------------------12L--------|
-----------------------------------------------------------------12L--------|
--9--------9.-9--9--9--------------------------0h-------5--------12L--------|
--8--------8.-8--8--8--------x--------x--------0h-------5--------12L--------|
--8--------8--8--8--8--------x--------x--------0h-------5-------------------|

                            ^
--12----------------------------------------------------------------------------|
--12----------------------------------------------------------------------------|
--12----------------------------------------------------------------------------|
--12----12----12-12----12-------12----12----5L----------------------7-----------|
--12----------------------------------------5L-------------5L-5--------------5--|
--------------------------12----------------5L----------------------------------|


-----------|--------------0-------------|
-----------|--------------0--------12---|
-----------|--------------------x-------|
-----------|--5--5--7-----9--9--x--11---|
---7-------|--5--5--7-----8--------10---|
-----------|--5--5--7-----8--------10---|

           ^
--------------0-----------7-----------0-----------5-----------------4--------x--|
-----------------------------------------------------------------------------x--|
-----------------------------------------------------------------------------x--|
--------------0-----------7-----------0-----------5-----------------4-----------|
--------------------------------------------------------------------------------|
--------------------------------------------------------------------------------|


---------0L-0L------|--0----||
---------0L-0L------|--0----||
---------0L-0L------|--0----||
---------4L-4L------|--4----||
---------3L-3L------|--3----||
---------3L-3L------|--3----||
comments
We did not receive enough feedback on this tab! Please rate:
print report bad tab
1 2 3 4 5
3 comments total.
0 reply
blo0dthirst wrote on March 29 2011, 10:02 am

what is the tuning bro? btw very nice work, appreciated by all kotaro fans :D

0 reply
sobapan wrote on April 6 2011, 06:02 pm

i'm new to this kind of playing but i love the sound so i'm trying to learn. so thanks for the tab. but man this is ranked intermediate? i'd hate to learn an advanced one then =P

0 reply
sobapan wrote on April 6 2011, 06:04 pm

blo0dthirst:
you can see the tuning is defined on the first line of the tab
E |-----7----------|
B |-----7----------|
F#|-----7----------|
E |-----7----------|
G#|-----7----------|
C#|-----7----------|

I want to post or [tab]
guest
You may want to rate the tab now too:
select rating
Please do not post tabs as comments. Select "correction" instead!