Oops, an error
Loading. Please wait.

Destiny Tab

ver1
ver1

Whole song

Interactive

More versions @911Tabs.com
3,340 views 3 this week
no commentswrite comment
1 2 3 4 5
excellent!
x 1
Autoscroll
+/-
esc
set tempo
stop
Contributor
Hey! There's an official Ultimate Guitar app which is ideal
for learning songs when you're away from computer. Get the app
WARNING: You are trying to view
                                    content from Ultimate-Guitar.com
                                    in an unauthorized application,
                                    which is prohibited.

                                    Please use an official Ultimate
                                    Guitar Tabs application for iPhone,
                                    iPad or Android to access legitimate
                                    chords, guitar, bass, and drum tabs
                                    from Ultimate-Guitar.com database.

                                    Type "ultimate guitar tabs" in Apple
                                    App Store's or Android Market's
                                    search to find the application.
Destiny - Kotaro Oshio - Starting Point
Standard Tuning
BPM = 155

           Brushing
     ^     >              >     ^     >        >           v
     Q     E        E  E  E  E  E     E  E  E  E  E  E  E  E
E||--0-----------------------------|--------------------------|
B||--0-----------------------------|--------------------------|
G||--9\----x--------x--x--x--x--x--|--x--x--x--x--x--x--x--x--|
D||--9\----x--------x--x--x--x--x--|--x--x--x--x--x--x--x--x--|
A||--7\----------------------------|--------------------------|
E||--0-----------------------------|--------------------------|


  >        >           v     >        >
  E  E  E  E  E  E  E  E     E  E  E  E  E  E  Q       Q    E  E  E  E  Q
--------------------------|-------------------------|------------------------|
--------------------------|-------------------------|--0----0--0--L--0--0----|
--x--x--x--x--x--x--x--x--|--x--x--x--x--x--x-------|--2----2--2--L--2--2----|
--x--x--x--x--x--x--x--x--|--x--x--x--x--x--x--0----|--1----1--1--L--1--1----|
--------------------------|--------------------0----|--2----2--0--L--0-------|
--------------------------|-------------------------|-------------------3----|


                                                ^
  Q    E  E  E  E  Q       E  E  E  E  E  E  E  E
------------------------|-----------------------0--|
--0----0--0--L--0--0----|-----0--0--0--0--0--0--0--|
--2----2--2-----2--2----|-----2--2--2--2--2--2--2--|
--1----1--1--L--1--1----|--------------1--1--1--1--|
-------------------0----|--2-----------------------|
--2----2--3--L--3-------|--------------------------|


  Body Hit
                       v
  E        E  E  E  E  E  Q       Q    E  E  E  E  E  E
-------------------------------|-------x-----------------|
--------------x--x--x--x--x----|--8-------7--L-----------|
--------------x--x--x--x--x----|----------------9--------|
--L-----------------------x----|----------------------7--|
-----------x-------------------|-------------------------|
-----------x-------------------|--0-------0--L-----0-----|


                                                   |--3--|
  E  E  E  E  E  E  E  E     E  E  E   E  E  E  E  S  S  S
--------------------------|------------------8-----7h-8p-7-|
-----8-----7--L-----------|--0-----7--10--L----------------|
-----------------9-----9--|-----8--------------------------|
--L-----------------------|--------------------------------|
--------------------------|--------------------------------|
--0-----0--0--L-----0-----|--0---------0--L-----0----------|


            |--3--|
  E   E  E  S  S  S E  E  E   E     Q    E  E  E  E  E  E
--L------------------------------|-------x-----------------|
-----10--8--7h-8p-7-L------------|--8-------7--L-----------|
-----------------------9--8h--9--|----------------9--------|
---------------------------------|----------------------7--|
---------------------------------|-------------------------|
--0---------0-------L------------|--0-------0--L-----0-----|


                                                   |--3--|
  E  E  E  E  E  E  E  E     E  E  E   E  E  E  E  S  S  S
--------------------------|--------------------------------|
-----8-----7--L-----------|--0-----7--10--L--8-----7h-8p-7-|
-----------------9-----9--|-----8--------------------------|
--L-----------------------|--------------------------------|
--------------------------|--------------------------------|
--0-----0--0--L-----0-----|--0---------0--L-----0----------|


  E  E  E  E  E  E  E  E     Q    E  E  E  E  E  E     E  E  E  E  E  E  E  E
--------------------------|-------x-----------------|--------------------------|
--L--------------x--x--x--|--8-------7--L-----------|-----8-----7--L-----------|
-----9--8--9--L--x--x--x--|----------------9--------|-----------------9-----9--|
--------------------------|----------------------7--|--L-----------------------|
--------------------------|-------------------------|--------------------------|
--0--------0--L--------0--|--0-------0--L-----0-----|--0-----0--0--L-----0-----|


                        |--3--|              |--3--|
  E  E  E   E  E  E  E  S  S  S    E   E  E  S  S  S E  E  E   E
------------------8-----7h-9p-7-|--L------------------------------|
--0-----7--10--L----------------|-----10--8--7h-8p-7-L------------|
-----8--------------------------|-----------------------9--8h--9--|
--------------------------------|---------------------------------|
--------------------------------|---------------------------------|
--0---------0--L-----0----------|--0---------0-------L------------|


  Q    E  E  E  E  E  E     E  E  E  E  E  E  E  E
-------x-----------------|--------------------------|
--8-------7--L-----------|-----8-----7--L-----------|
----------------9--------|-----------------9-----9--|
----------------------7--|--L-----------------------|
-------------------------|--------------------------|
--0-------0--L-----0-----|--0-----0--0--L-----0-----|


                                                        ^
                        |--3--|
  E  E  E   E  E  E  E  S  S  S    E  E  E  E  E  E  E  E
--------------------------------|-----------------------0--|
--0-----7--10--L--8-----7h-8p-7-|--L--------------x--x--0--|
-----8--------------------------|-----9--8--9--L--x--x--0--|
--------------------------------|-----------------------0--|
--------------------------------|-----------------------0--|
--0---------0--L-----0----------|--0--------0--L--------0--|


        >
  Q     E  E   Q     E  E      E   E  E   E  E   E   E  E
--0----12-----11-----------|--10------x---9--L-------------|
--0----12-----12----12-----|--12--12-----12--L--12--12--0--|
--9----12-----12----12-----|--12--12-----12--L--12--12--0--|
--9------------------------|-------------------------------|
--7------------------------|-------------------------------|
--0--------0---0-----0--0--|---0---0------0--L-------------|


  E  S S E  E  E  E  E  E     E  E  E  E  E  E  E  E
-----8-8-8--8--8--7--5--0--|--0-----0-----------x-----|
-----5-5-5--5--5--5--5--0--|-----0-----------0--------|
---------------------------|-----------8--L--9--------|
---------------------------|--------------------------|
--0------------------------|--9-----------------------|
---------------------------|-----------7--7--------0--|


  Q     E  E   Q     E  E      E   E  E   E  E   E  E  E
--0----12-----11-----------|--10------x---9--L------0-----|
--0----12-----12----12-----|--12--12-----12--L--12-----0--|
--0----12-----12----12-----|--12--12-----12--L--12--------|
---------------------------|------------------------------|
---------------------------|------------------------------|
--0--------0---0--------0--|---0-------------0------------|


  E  S S E  E  E  E  E  E     E  Q    E  E  E  E  E     Q.     E  E  Q    E
-----8-8-8--8--8--7--5--0--|-----7----7--7--0-----2--|--3--------------------|
-----5-5-5--5--5--5--5--0--|-----7----7--7-----------|---------1--1--1----1--|
---------------------------|-----8----8--8-----------|---------0--0--0----0--|
---------------------------|--7--7----7--7-----------|------------2----------|
--0------------------------|--9--9----9--9-----------|--0--------------------|
---------------------------|--7--7----7--7-----------|-----------------------|


  E  Q    E  E   E  Q       Q    E  E  E  E  E  E     E  E  E  E  E  E  E  E
--L----------3S--5--5----|--2-------2--L-----------|--L--------2--L-----------|
--1-------1--L-----------|--3-------3--L-----------|-----------3--L--3--------|
--0-------0--L-----------|--2-------------2-----2--|--------2--2--L-----------|
--2----------------------|--4----4-----------4-----|-----4--------------0-----|
-----0-------------------|--2----------------------|--2--------------------0--|
-------------------------|-------------------------|--------------------------|


  Q    E  E  E  E  E  E     Q    E  E  E  E  E  E     Q    E  E  E  E  E  E
--0-------2--L-----3-----|--0-------2--L-----3-----|--7----------------------|
-------0-----------------|-------------------------|----------8--L-----0-----|
----------------0-----0--|-------0--------0-----0--|-------7--7--L--7-----0--|
-------------------------|-------------------------|--0----------------------|
--3----------------------|--4----------------------|-------------------------|
-------------------------|-------------------------|-------------------------|


  E  S S E  E  E  E  E  E     Q    E  E  E  E  E  E
-----7-7-7--7--7--7--7--7--|-------x-----------------|
-----7-7-7--7--7--7--7--7--|--8-------7--L-----------|
-----8-8-8--8--8--8--8--8--|----------------9--------|
-----7-7-7--7--7--7--7--7--|----------------------7--|
-----9-9-9--9--9--9--9--9--|-------------------------|
--7------------------------|--0-------0--L-----0-----|


                                                   |--3--|
  E  E  E  E  E  E  E  E     E  E  E   E  E  E  E  S  S  S
--------------------------|------------------8-----7h-8p-7-|
-----8-----7--L-----------|--0-----7--10--L----------------|
-----------------9-----9--|-----8--------------------------|
--L-----------------------|--------------------------------|
--------------------------|--------------------------------|
--0-----0--0--L-----0-----|--0---------0--L-----0----------|


            |--3--|
  E   E  E  S  S  S E  E  E   E     Q    E  E  E  E  E  E
--L------------------------------|-------x-----------------|
-----10--8--7h-8p-7-L------------|--8-------7--L-----------|
-----------------------9--8h--9--|----------------9--------|
---------------------------------|----------------------7--|
---------------------------------|-------------------------|
--0---------0-------L------------|--0-------0--L-----0-----|


  E  E  E  E  E  E  E  E     E  E  E   E  E  E  E  E
--------------------------|---------------------------|
-----8-----7--L-----------|--0-----7--10--L--8-----7--|
-----------------9-----9--|-----8---------------------|
--L-----------------------|---------------------------|
--------------------------|---------------------------|
--0-----0--0--L-----0-----|--0---------0--L-----0-----|


     ^
  E  S S E  E  E  E  Q       Q    E  E  Q    E  E     Q    E  E  E  E  E  E
-----0-0-0--0--0--0--0----|-------0----------0-----|--7-------5--L-----------|
-----0-0-0--0--0--0--0----|--6---------------------|--5----x--5--L--x--x--x--|
-----9-9-9--9--9--9--9----|--7----------8----------|--5----x--5--L--x--x--x--|
-----9-9-9--9--9--9--9----|-------------6----------|-------------------------|
-----7-7-7--7--7--7--7----|------------------------|--0-------0--0-----------|
--0-----------------------|--0-------0--0-------0--|-------------------------|


                                            |---3---|
  Q    E  E  Q    E  E     Q    E  E  E  E  E   E   E
-------0----------------|------------------------------|
--7----------3----1-----|--1-------0--L--0--0h--1h--3--|
--5---------------2-----|-------x--0--L----------------|
--0---------------------|-------x----------------------|
----------0--0-------0--|------------------------------|
------------------------|--3-------3--L----------------|


  Q    E  E  Q    E  E     Q    E  E  E  E  E  E     E  S S E  E   E  E  E  E
--0---------------------|----------------0--0--0--|-----2-2-2--2S--3--3--3--3--|
-------3-----1----0-----|----------2--L--2--2--2--|-----0-0-0--0S--0--0--0--0--|
-------0----------0-----|--3----3--3--L--3--3--3--|--2--2-2-2--2S--3--3--3--3--|
------------------------|-------------------------|--1--1-1-1--1S--2--2--2--2--|
--3-------3--3----------|-------------------------|--2--2-2-2--2---3--3--3--3--|
---------------------0--|--2-------2--L-----------|----------------------------|


     Body Hit
                    v
  E  E        E  E  E  E  E  E     Q    E  E  E  E  E  E
--2-----------------------------|-------x-----------------|
--0-----------------------------|--8-------7--L-----------|
--2-----------------------------|----------------9--------|
--1-----------x--x--x--x--x--x--|----------------------7--|
--2--x--------x--x--x--x--x--x--|-------------------------|
-----x--------------------------|--0-------0--L-----0-----|


                                                   |--3--|
  E  E  E  E  E  E  E  E     E  E  E   E  E  E  E  S  S  S
--------------------------|------------------8-----7h-8p-7-|
-----8-----7--L-----------|--0-----7--10--L----------------|
-----------------9-----9--|-----8--------------------------|
--L-----------------------|--------------------------------|
--------------------------|--------------------------------|
--0-----0--0--L-----0-----|--0---------0--L-----0----------|


            |--3--|
  E   E  E  S  S  S E  E  E   E     Q    E  E  E  E  E  E
--L------------------------------|-------x-----------------|
-----10--8--7h-8p-7-L------------|--8-------7--L-----------|
-----------------------9--8h--9--|----------------9--------|
---------------------------------|----------------------7--|
---------------------------------|-------------------------|
--0---------0-------L------------|--0-------0--L-----0-----|


  E  E  E  E  E  E  E  E     E  E  E   E  E  E  E  E
--------------------------|---------------------------|
-----8-----7--L-----------|--0-----7--10--L--8-----7--|
-----------------9-----9--|-----8---------------------|
--L-----------------------|---------------------------|
--------------------------|---------------------------|
--0-----0--0--L-----0-----|--0---------0--L-----0-----|


     ^
  E  S S E  E  E  E  Q       Q.     E  E  E  E  E     Q    E  E  E  E  E   E
-----0-0-0--0--0--0--0----|------------------------|--------------------------|
-----0-0-0--0--0--x--x----|---------------------5--|--L----x--7--L--8-----10--|
-----9-9-9--9--9--x--x----|--7------6--L--7--------|--------------------------|
-----9-9-9--9--9--9--9----|---------------------5--|--L----x--7--L--9-----11--|
-----7-7-7--7--7--7--7----|------------------------|--------------------------|
--0-----------------------|--0---------0-----0-----|--0----------0-----0------|


  Q    E  E  E  E  E  E     Q    E  E  E  E  E   E
-------------------------|-------x--7--L--9-----10--|
--L-------8--L--7-----5--|--L--------------------8--|
-------------------------|----------7--L--9------9--|
--L-------9--L--7-----5--|--L-----------------------|
-------------------------|--------------------------|
--0----0-----0-----0-----|--0----------0-----0------|


  Q    E  E  E   E  E   E     Q    E   E  E   E  Q
--L-------9--L--10-----12--|--L-------14--L--15-------|
--L-------8--L---8---------|-----------------12-------|
--L-------9--L---9-----12--|--L-------14--L-----------|
---------------------------|--------------------------|
---------------------------|--------------------------|
--0----0-----0------0------|--0----0------0------0----|


   Q     E  E  E   Q.         Q    E  E  E  E  E  E     Q.     E  Q    E  S S
---9---------------9\------|--7-------------7--------|--7--------------7--8-8-|
--10----10--------10\------|--8-------8--L--8--------|------------------------|
---9--------9--L---9\------|--7----7-----------7-----|--0---------0-----------|
---------------------------|-------------------------|--0------0--------------|
---------------------------|-------------------------|------------------------|
---0-----------------------|--0----------------------|--8--------------0------|


  E  E  E  E   E   E  E   E     Q    E  E  E  E  Q
--8--7--7--5-----------------|------------------------|
--------------10p--8--8p--7--|--7-------------7--7----|
-----------------------------|-------7--7--L--7--7----|
-----------------------------|----------7--L----------|
-----------------------------|------------------------|
-----------------------------|--7----7--7--L--7--7----|


  E  E  E  E  E  E  E  E     E   E  E  E  E   Q    S  S
--------------------------|---------------7--10----8p-7-|
-----------7--L-----------|------------8----------------|
--------7--------7-----7--|---------9-------------------|
-----7--------------7-----|-----10----------------------|
--9-----------------------|--0--------------------------|
--7-----------------------|-----------------------------|


  Q.     E   E  E  E  E     E  S S E  E  E  E  E  E     E  E  E  E  E  E  Q
--8------7---------------|-----7-7-7--7--L--7--7--7--|--7--7--7--7--7--7-------|
------------10--8--7-----|-----7-7-7--7--L--7--7--7--|--7--7--7--7--7--7--x----|
----------------------9--|-----8-8-8--8--L--8--8--8--|--8--x--x--x--x--x--x----|
-------------------------|-----7-7-7--7--L--7--7--7--|--7--x--x--x--x--x--x----|
-------------------------|--9--9-9-9--9--L--9--9--9--|--9--x--x--x--x--x--x----|
-------------------------|--7--7-7-7--7--L--7--7--7--|--7--7--7--7--7--7-------|


  Q    E  E  E  E  E  E     E  E  E  E  E  E  E  E
-------x-----------------|--------------------------|
--8-------7--L-----------|-----8-----7--L-----------|
----------------9--------|-----------------9-----9--|
----------------------7--|--L-----------------------|
-------------------------|--------------------------|
--0-------0--L-----0-----|--0-----0--0--L-----0-----|


                        |--3--|              |--3--|
  E  E  E   E  E  E  E  S  S  S    E   E  E  S  S  S E  E  E   E
------------------8-----7h-8p-7-|--L------------------------------|
--0-----7--10--L----------------|-----10--8--7h-8p-7-L------------|
-----8--------------------------|-----------------------9--8h--9--|
--------------------------------|---------------------------------|
--------------------------------|---------------------------------|
--0---------0--L-----0----------|--0---------0-------L------------|


  Q    E  E  E  E  E  E     E  E  E  E  E  E  E  E
-------x-----------------|--------------------------|
--8-------7--L-----------|-----8-----7--L-----------|
----------------9--------|-----------------9-----9--|
----------------------7--|--L-----------------------|
-------------------------|--------------------------|
--0-------0--L-----0-----|--0-----0--0--L-----0-----|


                                 ^
  E  E  E   E  E  E  E  E     E  S S E  E  E  E  Q       Q    E  E  Q    E  E
---------------------------|-----0-0-0--0--0--0--0----|-------0----------0-----|
--0-----7--10--L--8-----7--|-----0-0-0--0--0--0--0----|--6---------------------|
-----8---------------------|-----9-9-9--9--9--9--9----|--7----------8----------|
---------------------------|-----9-9-9--9--9--9--9----|-------------6----------|
---------------------------|-----7-7-7--7--7--7--7----|------------------------|
--0---------0--L-----0-----|--0-----------------------|--0-------0--0-------0--|


  Q    E  E  E  E  E  E     Q    E  E  Q    E  E
--7-------5--L-----------|-------0----------------|
--5----x--5--L--x--x--x--|--7----------3----1-----|
--5----x--5--L--x--x--x--|--5---------------2-----|
-------------------------|--0---------------------|
--0-------0--0-----------|----------0--0-------0--|
-------------------------|------------------------|


                   |---3---|
  Q    E  E  E  E  E   E   E     Q    E  E  Q    E  E
------------------------------|--0---------------------|
--1-------0--L--0--0h--1h--3--|-------3-----1----0-----|
-------x--0--L----------------|-------0----------0-----|
-------x----------------------|------------------------|
------------------------------|--3-------3--3----------|
--3-------3--L----------------|---------------------0--|


  Q    E  E  E  E  E  E     E  S S E  E   E  E  E  E
----------------0--0--0--|-----2-2-2--2S--3--3--3--3--|
----------2--L--2--2--2--|-----0-0-0--0S--0--0--0--0--|
--3----3--3--L--3--3--3--|--2--2-2-2--2S--3--3--3--3--|
-------------------------|--1--1-1-1--1S--2--2--2--2--|
-------------------------|--2--2-2-2--2---3--3--3--3--|
--2-------2--L-----------|----------------------------|


     Body Hit
                    v
  E  E        E  E  E  E  E  E     Q    E  E  E  E  E  E
--2-----------------------------|-------x-----------------|
--0-----------------------------|--8-------7--L-----------|
--2-----------------------------|----------------9--------|
--1-----------x--x--x--x--x--x--|----------------------7--|
--2--x--------x--x--x--x--x--x--|-------------------------|
-----x--------------------------|--0-------0--L-----0-----|


                                                   |--3--|
  E  E  E  E  E  E  E  E     E  E  E   E  E  E  E  S  S  S
--------------------------|------------------8-----7h-8p-7-|
-----8-----7--L-----------|--0-----7--10--L----------------|
-----------------9-----9--|-----8--------------------------|
--L-----------------------|--------------------------------|
--------------------------|--------------------------------|
--0-----0--0--L-----0-----|--0---------0--L-----0----------|


            |--3--|
  E   E  E  S  S  S E  E  E   E     Q    E  E  E  E  E  E
--L------------------------------|-------x-----------------|
-----10--8--7h-8p-7-L------------|--8-------7--L-----------|
-----------------------9--8h--9--|----------------9--------|
---------------------------------|----------------------7--|
---------------------------------|-------------------------|
--0---------0-------L------------|--0-------0--L-----0-----|


                                                   |--3--|
  E  E  E  E  E  E  E  E     E  E  E   E  E  E  E  S  S  S
--------------------------|--------------------------------|
-----8-----7--L-----------|--0-----7--10--L--8-----7h-8p-7-|
-----------------9-----9--|-----8--------------------------|
--L-----------------------|--------------------------------|
--------------------------|--------------------------------|
--0-----0--0--L-----0-----|--0---------0--L-----0----------|


  E  E  E  E  E  E  E  E     Q    E  E  E  E  E  E     E  E  E  E  E  E  E  E
--------------------------|-------x-----------------|--------------------------|
--L--------------x--x--x--|--8-------7--L-----------|-----8-----7--L-----------|
-----9--8--9--L--x--x--x--|----------------9--------|-----------------9-----9--|
--------------------------|----------------------7--|--L-----------------------|
--------------------------|-------------------------|--------------------------|
--0--------0--L--------0--|--0-------0--L-----0-----|--0-----0--0--L-----0-----|


                        |--3--|              |--3--|
  E  E  E   E  E  E  E  S  S  S    E   E  E  S  S  S E  E  E   E
------------------8-----7h-9p-7-|--L------------------------------|
--0-----7--10--L----------------|-----10--8--7h-8p-7-L------------|
-----8--------------------------|-----------------------9--8h--9--|
--------------------------------|---------------------------------|
--------------------------------|---------------------------------|
--0---------0--L-----0----------|--0---------0-------L------------|


  Q    E  E  E  E  E  E     E  E  E  E  E  E  E  E     E  E  E   E  E  Q    E
-------x-----------------|--------------------------|--------------------------|
--8-------7--L-----------|-----8-----7--L-----------|--0-----7--10--L--8----7--|
----------------9--------|-----------------9-----9--|-----8--------------------|
----------------------7--|--L-----------------------|--------------------------|
-------------------------|--------------------------|--------------------------|
--0-------0--L-----0-----|--0-----0--0--L-----0-----|--0---------0--L--0----0--|


  E  S S E  E  Q    Q
-----0-0-0--0--0---------||
-----0-0-0--0--0---------||
-----9-9-9--9--9---------||
-----9-9-9--9--9---------||
-----7-7-7--7--7---------||
--0----------------------||


Duration Legend
---------------
W - whole
H - half
Q - quarter
E - 8th
S - 16th
T - 32nd
X - 64th
. - note dotted
|-n-|  - n-tuplets


Tablature Legend
----------------
L - tied note
x - dead note
g - grace note
(n) - ghost note
> - accentuded note
NH - natural harmonic
AH - artificial harmonic
TH - tapped harmonic
SH - semi harmonic
PH - pitch harmonic
h - hammer on
p - pull off
b - bend
br - bendRelease
pb - preBend
pbr - preBendRelease
brb - bendReleaseBend
\n/ - tremolo bar dip
\n - tremolo bar dive
-/n - tremolo bar Release up
/n\ - tremolo bar inverted dip
/n - tremolo bar return
-\n - tremolo bar Release down
S - shift slide
s - legato slide
/ -  slide into from below or out of upwards
\ -  slide into from above or out of downwards
~ - vibrato
W - wide vibrato
tr - trill
TP - tremolo picking
T - tapping
S - slap
P - pop
< - fade in
^ - brush up
v - brush down
comments
We did not receive enough feedback on this tab! Please rate:
print report bad tab
1 2 3 4 5
I want to post or [tab]
guest
You may want to rate the tab now too:
select rating
Please do not post tabs as comments. Select "correction" instead!