Oops, an error
Loading. Please wait.

Landscape Tab

ver1
ver1

Whole song

Interactive

More versions @911Tabs.com
5,099 views 3 this week
no commentswrite comment
1 2 3 4 5
excellent!
x 2
Autoscroll
+/-
esc
set tempo
stop
Contributor
Difficulty
intermediate
Hey! There's an official Ultimate Guitar app which is ideal
for learning songs when you're away from computer. Get the app
WARNING: You are trying to view
                                    content from Ultimate-Guitar.com
                                    in an unauthorized application,
                                    which is prohibited.

                                    Please use an official Ultimate
                                    Guitar Tabs application for iPhone,
                                    iPad or Android to access legitimate
                                    chords, guitar, bass, and drum tabs
                                    from Ultimate-Guitar.com database.

                                    Type "ultimate guitar tabs" in Apple
                                    App Store's or Android Market's
                                    search to find the application.
Title: Landscape
Artist: Kotaro Oshio
Album: Eternal Chain
Music: Kotaro Oshio
Tabber: edited by symphony and knight zero
Tempo = 120
Untitled

Legend
L - tied note
x - dead note
h - hammer on/pull off
b - bend
s - slide
~ - vibrato
g - ghost note
> - accentuated note
t - trill
M - palm mute
. - staccato
P - popping (bass)
S - slapping (bass)
+ - tapping
W - wide vibrato
< - fade in
w - whammy bar
= - tremolo picking
v - brush up
^ - brush down
V - pick stroke up
n - pick stroke down


D |--0g-0-----0L-0--0-----0L-0-----------x-------------||
B |--0--0-----0L-0--0-----0L-0-------------------------||
G |--0--0-----0L-0--0-----0L-0-------------------------||
D |--4--0h-4--4L-4--0-----2L-2-------------------------||
G |--4--0h-4--4L-4--0-----2L-2-------------------------||
C |--4--0h-4--4L-4--0-----2L-2--------x----------------||


-0L-------0--x-----------------------x--0--0--0----|
-5L-------5--x-----------------------x--5--5--5----|
o0L-------0--x--0--0-----0--0--0--0--x--0--0--0----|
o5--------5--x--5--5-----5--5--5--5--x--5----------|
-4--------4--x--4--4L----4L-4L-4L-4--x--4----------|
-4--------4--x--4--4L----4L-4L-4L-4--x--4----------|


--0L-------0--x-----------------------x--0-----0----|
--3L-------3--x-----------------------x--3-----0----|
--0L-------0--x--0--0-----0--0--0--0--x--0-----0----|
--4--------4--x--4--4-----4--4--4--4--x--4-----0----|
--2--------2--x--2--2L----2L-2L-2L-2--x-------------|
--2--------2--x--2--2L----2L-2L-2L-2--x-------------|


--0L-------0--x-------------------------------------|
--1L-------1--x--1--1L----1L-1L-1L-1--x--1--1--1----|
--0L-------0--x--0--0-----0--0--0--0--x--0--0--0----|
--2--------2--x--2--2-----2--2--2--2--x--2--2--2----|
--0--------0--x--0L-0L----0L-0L-0L-0--x--0L-0L-0----|
--0--------0--x--0L-0L----0L-0L-0L-0--x--0L-0L-0----|


---------------------------------------------------||
--1--1--1--1--x--3--3--3--3--3--3--3--x------------||
--0--0--0--0--x--0--0--0--0--0--0--0--x--0--0--0--o||
--2--2--2--2--x--4--4--4--4--4--4--4--x--0--0--0--o||
--0L-0L-0L-0--x--0L-0L-0--2L-2L-2L-2--x--0--0--0---||
--0L-0L-0L-0--x--0L-0L-0--2L-2L-2L-2--x------------||


--0L-------0--x-------------------------------------|
--1L-------1--x--1--1-----1--1--1--1--x-------------|
--0L-------0--x--0--0-----0--0--0--0--x--0--0--0----|
--2--------2--x--2--2-----2--2--2--2--x--0--0--0----|
--0--------0--x--0L-0L----0L-0L-0L-0--x--0--0--0----|
--0--------0--x--0L-0L----0L-0L-0L-0--x-------------|

        ^     v     ^     v     ^     v     ^     v     ^     v     ^     v
--------------------------------------------------------------------------4-----|
--5-----------------------------------5-----------------------------------4-----|
--4-----4-----4-----4-----4-----4-----4-----4-----4-----4-----4-----4-----4-----|
--4-----4-----4-----4-----4-----4-----4-----4-----4-----4-----4-----4-----4-----|
--4-----4-----4-----4-----4-----4-----4-----4-----4-----4-----4-----4-----4-----|
--4-----------------------------------4-----------------------------------4-----|


---------------------0--------5-----------------4-------------------||
---------------------0--------0-----------------0-------------------||
--------------------------------------------------------------------||
--------------------------------------------------------------------||
--------------------------------------------------------------------||
--------------------------------------------------------------------||


-0--------0--x--0L-0-----------0--5--x--4--x--0----|
-0--------0--x--0L-0-----------0--0--x--0--x--0----|
o0--------0--x--0--0-----0--0--0--0--x--0--x--0----|
o5--------5--x--5--5-----5--5L-5-------------------|
-4--------4--x--4--4L----4L-4L-4L-4----------------|
-4--------4--x--4--4L----4L-4L-4L-4----------------|


--0--------0--x--0L-0-----------0--5--x--4--x--0----|
--3--------3--x--3--------------0--0--x--0--x--1----|
--0--------0--x--0--0-----0--0--0--0--x--0--x--0----|
--4--------4--x--4--4-----4--4--4-------------------|
--2--------2--x--2--2L----2L-2L-2L-2----------------|
--2--------2--x--2--2L----2L-2L-2L-2----------------|


--0--------2--x--2--2-----2--2--2--0--x-------------|
--1--------1--x--1--1-----1--1--1--1--x--1--1--1----|
--0--------0--x--0--0-----0--0--0--0--x--0--0--0----|
--2--------2--x--2--2-----2--2--2-----x--2--2--2----|
--0--------0--x--0--0L----0L-0L-0L-0L-0--0--0--0----|
--0--------0--x--0--0L----0L-0L-0L-0L-0--0--0--0----|


--0--------0--x--------------------5--x--4--x------||
--1--------1--x--0--0L----0L-0L-0--0--x--0--x------||
--0--------0--x--0--0-----0--0--0--0--x--0--x-----o||
--2--------2--x--0--0-----0--0--0--------------5--o||
--0--------0--x--0--0L----0L-0L-0L-0-----------4---||
--0--------0--x--------------------------------4---||


--0--------0--x-------------------------------------|
--1--------1--x--0--0-----0--0--0--0--x--0--0-------|
--0--------0--x--0--0-----0--0--0--0--x--0--0--0----|
--2--------2--x--0--0-----0--0--0--0--x--0--0--0----|
--0--------0--x--0--0L----0L-0L-0L-0L-0L-0L-0--2----|
--0--------0--x--------------------------------0----|


--0--------0L-0L-0L-0-----0--------0--x-----0-------|
--0--------1L-1L-1L-1s----8--------10-x-----7-------|
--0--------0L-0L-0L-0-----0--------0--x-----0-------|
--0L-------0--x--0--0-----10L------10-x-----7-------|
--2L-------2--x--0--0-----0L-------0--x-------------|
--0L-------0--x--2--2s----9L-------9--x-------------|


--0L-------0L-0L-0L-0L----0L-0L-0L-0--x-------------|
--7L-------7L-7L-7L-7L----7L-7L-7L-7--x-------------|
--0--------0--x--0--0-----0--0--0--0--x--0--0--0----|
--7--------7--x--7--7-----7--7--7--7--x--0--0--0----|
--4--------4--x--4--4L----4L-4L-4L-4--x--0L-0L-0----|
--4--------4--x--4--4L----4L-4L-4L-4--x-------------|


--0--------0L-0L-0L-0-----0--------0--x-----9-------|
--0--------1L-1L-1L-1s----8--------10-x-----8-------|
--0--------0L-0L-0L-0-----0--------0--x-----7-------|
--0L-------0--x--0--0-----10L------10-x-------------|
--2L-------2--x--0--0-----0L-------0--x-------------|
--0L-------0--x--2--2s----9L-------9--x-------------|


--9L-------9L-9--9--9-----10-10-10-9--x-------------|
--8L-------8L-8--8--8-----8--8--8--8--x-------------|
--7--------7--x--7--7-----7--7--7--7--x--0--0--0----|
--0--------0--x--0--0-----0--0--0--0--x--0--0--0----|
--0--------0--x--0--0-----0L-0L-0L-0--x--0L-0L-0----|
----------------------------------------------------|


--0L-------0L-0L-0L-0-----0--------0--x-----0-------|
--0h-------1L-1L-1L-1s----8--------10-x-----7-------|
--0L-------0L-0L-0L-0-----0--------0--x-----0-------|
--0L-------0--x--0--0-----10L------10-x-----7-------|
--2L-------2--x--0--0-----0L-------0--x-------------|
--0L-------0--x--2--2s----9L-------9--x-------------|


--0L-------0--x-----5L----5L-5L-5L-5--7L----7-------|
--7L-------7--x-----5L----5L-5L-5L-5--7L----7-------|
--0--------0--x-----5-----5--5--5--5--7-----7-------|
--7--------7--x-----5-----5--5--5--5--7-----7-------|
--4--------4--x-----0L----0L-0L-0L-0--0-----x-------|
--4--------4--x-------------------------------------|


-----------------------------------0--------4-------|
--12L------12-10L------10-8--------10-x-----7-------|
--0L-------0--0L-------0--0--------0--x-----4-------|
--10-------x--10-------x--10-------10-x-----4-------|
--------------------------0--------0--------4-------|
--9L-------9--9L-------9--9-----------------4-------|


--4--------x--------x--------5--------x--------x--------7-----------------7-----|
--7--------x--------x--------8--------x--------x--------10----------------------|
--4--------x--------x--------5--------x--------x--------7-----------------------|
--4--------x--------x--------5--------x--------x--------7-----------------------|
--4--------x--------x--------5--------x--------x--------7-----------------------|
--------------------------------------------------------------------------------|


--------------------------------------------------------------------|
7-----------------------7-----7-------------------------------------|
------7-----------7-----------7-------------------------------------|
------------7-------------------------------------------------------|
--------------------------------------------------------------------|
--------------------------------------------------------------------|


--5L-------5--x-----5L----5L-5L-5L-5--7L----7-------|
--5--------7--x-----5L----5L-5L-5L-5--7L----7-------|
--5--------5--x-----5-----5--5--5--5--7L----7-------|
--5--------5--x-----5-----5--5--5--5--7-----7-------|
--0--------0--x-----0-----0--0--0--0--0-----0-------|
----------------------------------------------------|


--9--------9--x-----9L----9L-9L-9L-9--x--9--9--9----|
--0--------0--x-----0L----0L-0L-0L-0--x--0--0--0----|
--0--------0--x-----0-----0--0--0--0--x--0--0--0----|
--0--------0--x-----0-----0--0--0--0--x--0--0--0----|
----------------------------------------------------|
--4--------4--x-----4-----4L-4L-4L-4--4L-4L-4L-4----|


--9L-------9--7L----7-----5--------4--x-----7L------|
--0--------0--0-----0-----4--------4--x-----0L------|
--0--------0--0-----0-----4--------4--x-----0L------|
--7L-------7--7-----------4L-------4--x-----4L------|
--6L-------6--6-----------4L-------4--x-----4L------|
--6L-------6--6-----------4L-------4--x-----4L------|


--7L----7-----5-----5-----4--------5--x-----0-------|
--0L----0-----0-----0-----0--------0--x-----0-------|
--0L----0-----0-----0-----0--------0--x-----0-------|
--4-----4L----4L----4-----2L-------2--x-----2-------|
--4-----4L----4L----4-----2L-------2--x-----2-------|
--4-----4L----4L----4-----2L-------2--x-----2-------|


--2L-------2--4L----4-----5--------7--x-----9-------|
--1L-------1--3L----3-----5--------7--x-----0-------|
--0--------0--0-----0-----5--------7--x-----0-------|
--2--------2--5-----5-----5--------7--x-----0-------|
--0L-------0--0L----0-----0L-------0--x-------------|
--------------------------0L-------0--x-----4-------|


--9--------9--x-----9L----9L-9L-9L-9L-9L-9L-9L-9----|
--0--------0--x-----0L----0L-0L-0L-0L-0L-0L-0L-0----|
--0--------0--x-----0-----0--0--0--0--0--0--0--0----|
--0--------0--x-----0-----0--0--0--0--0--0--0--0----|
----------------------------------------------------|
--4--------4--x-----4-----4L-4L-4L-4--4L-4L-4L-4----|


--9--------7--x-----10L---10L10L10L10L10L10L10L10---|
--0--------0--x-----10L---10L10L10L10L10L10L10L10---|
--0--------0--x-----0-----0--0--0--0--x--0--0--0----|
--5L-------5--x-----5-----5--5--5--5--x--5--5--5----|
--5L-------5--x-----5-----5--5--5--5--x--5--5--5----|
--5L-------5--x-----5-----5L-5L-5L-5--x--5L-5L-5----|


--7L-------7--5L----5-----4--------5--x-----0-------|
--0L-------0--0L----0-----0--------0--x-----0-------|
--0--------0--0-----0-----0--------0--x-----0-------|
--4--------4--4-----4-----2L-------2--x-----2-------|
--4L-------4--4L----4-----2L-------2--x-----2-------|
--4L-------4--4L----4-----2L-------2--x-----2-------|


--2L-------2L-2-----2L----2--2--2-----2L----2-------|
--1--------1L-1-----1-----1--1--1-----1-----1-------|
--0--------0L-0-----0-----0--0--0-----0-----0-------|
--2--------2--2-----2-----2--2--2-----2-----2-------|
--0L-------0--0-----0-----0--0--0-----0-----0-------|
--0L-------0--0-----0-----0--0--0-----0-----0-------|


--2L-------2--0L----0-----0L-------0--4L----4-------|
--1L-------1--0L----0-----3L-------3--3L----3-------|
--0--------0--0-----0-----0--------0--0-----0-------|
--2--------2--0-----0-----4--------4--4-----4-------|
--0L-------0--0L----0-----2L-------2--2L----2-------|
--0L-------0--------------2L-------2--2L----2-------|


--0L-------0--x-----------------------x--0--0--0----|
--5L-------5--x-----------------------x--5--5--5----|
--0L-------0--x--0--0-----0--0--0--0--x--0--0--0----|
--5--------5--x--5--5-----5--5--5--5--x--5----------|
--4--------4--x--4--4L----4L-4L-4L-4--x--4----------|
--4--------4--x--4--4L----4L-4L-4L-4--x--4----------|


--0L-------0--x-----------------------x--0-----0----|
--3L-------3--x-----------------------x--3-----0----|
--0L-------0--x--0--0-----0--0--0--0--x--0-----0----|
--4--------4--x--4--4-----4--4--4--4--x--4-----0----|
--2--------2--x--2--2L----2L-2L-2L-2--x-------------|
--2--------2--x--2--2L----2L-2L-2L-2--x-------------|


--0--0--0--0--------------x-----------x-------------|
--5--5--5--5----------------------------------------|
--0--0--0--0----------------------------------------|
--5--5--5--5----------------------------------------|
--4--4--4--4----------------------------------------|
--4--4--4--4--------x--------x-----x----------------|


--0-----------------0-----------------------------x--x--x--x--x--x--x--x--x-----|
--3-----------------3-----------------------------x--x--x--x--x--x--x--x--x-----|
--0-----------------0-----------------------------------------------------------|
--4-----------------4-----------------------------------------------------------|
--2-----------------2-----------------------------------------------------------|
--2-----------------2-----------------------------------------------------------|


--------------------|--2--------2L-2-----2L----2-----2-----2-----2-------|
--------------------|--1--------1L-1-----1L----1-----1-----1-----1-------|
--------------------|--0--------0L-0-----0L----0-----0-----0-----0-------|
--------------------|--2--------2L-2-----2L----2-----2-----2-----2-------|
--------------------|--0--------0L-0-----0L----0-----0-----0-----0-------|
--------------------|----------------------------------------------------|


--2--------------------------0--------------------------------------------4-----|
--1--------------------------0--------------------------------------------4-----|
--0--------------------------0--------------------------------------------4-----|
--2--------------------------0--------------------------------------------4-----|
--0--------------------------0--------------------------------------------4-----|
--------------------------------------------------------------------------4-----|


4-----4-----4-----4-----4-----4-------------------------------------|
4-----4-----4-----4-----4-----4-------------------------------------|
4-----4-----4-----4-----4-----4-------------------------------------|
4-----4-----4-----4-----4-----4-------------------------------------|
4-----4-----4-----4-----4-----4-------------------------------------|
4-----4-----4-----4-----4-----4-------------------------------------|


--0--0--0--0--------0-----12b-----------------------|
--5--5--5--5----------------------------------------|
--0--0--0--0----------------------------------------|
--5--5--5--5----------------------------------------|
--4--4--4--4----------------------------------------|
--4--4--4--4----------------------------------------|


--0--------0--------9h-7h-0-------------------------|
--3--------3-----------------8h-7h-0----------------|
--0--------0--------------------------9h-7h-0-------|
--4--------4----------------------------------------|
--2--------2----------------------------------------|
--2--------2----------------------------------------|


--2--------2L-2-----2L----2-----2-----2-----2-------|
--1--------1L-1-----1L----1-----1-----1-----1-------|
--0--------0L-0-----0L----0-----0-----0-----0-------|
--2--------2L-2-----2L----2-----2-----2-----2-------|
--0--------0L-0-----0L----0-----0-----0-----0-------|
----------------------------------------------------|


--2--------------------------0--------------------------------------------------|
--1--------------------------0--------------------------------------------------|
--0--------------------------0--------------------------------------------------|
--2--------------------------0--------------------------------------------------|
--0--------------------------0--------------------------------------------------|
--------------------------------------------------------------------------------|


------------------------------------------------------4-------------|
------------------------------4-----------5-------------------------|
------------------5-------------------------------------------------|
------4-------------------------------------------------------------|
--------------------------------------------------------------------|
--------------------------------------------------------------------|


--5--------5--------------------5-----4-------------|
--------------------------------------------5-------|
----------------------------------------------------|
----------------------------------------------------|
----------------------------------------------------|
----------------------------------------------------|


-----------------4----------------------------------|
--5--------5--------3L----------------3-------------|
--------------------------------------------4-------|
----------------------------------------------------|
----------------------------------------------------|
----------------------------------------------------|


--------------------0--------2-----------------4--------5-----------------7-----|
--------------------------------------------------------------------------------|
--5L----------------5L-------5--------------------------------------------------|
--------------------------------------------------------------------------------|
--------------------------------------------------------------------------------|
--------------------------------------------------------------------------------|


------------------5-----------------------4-------------------------|
--------------------------------------------------------------------|
--------------------------------------------------------------------|
--------------------------------------------------------------------|
--------------------------------------------------------------------|
--------------------------------------------------------------------|


-----------------------------------4----|
--5--------------------------4--5-------|
--------------------------5-------------|
-----------------------4----------------|
----------------------------------------|
----------------------------------------|


--5--------5L-5L-5L-5-----0--------0--x-----0-------|
--0--------1L-1L-1L-1s----8--------10-x-----7-------|
--0--------0L-0L-0L-0-----0--------0--x-----0-------|
--0L-------0--x--0--0-----10L------10-x-----7-------|
--2L-------2--x--0--0-----0L-------0--x-------------|
--0L-------0--x--2--2s----9L-------9--x-------------|


--0L-------0L-0L-0L-0L----0L-0L-0L-0--x-------------|
--7L-------7L-7L-7L-7L----7L-7L-7L-7--x-------------|
--0--------0--x--0--0-----0--0--0--0--x--0--0--0----|
--7--------7--x--7--7-----7--7--7--7--x--0--0--0----|
--4--------4--x--4--4L----4L-4L-4L-4--x--0L-0L-0----|
--4--------4--x--4--4L----4L-4L-4L-4--x-------------|


--0--------0L-0L-0L-0-----0--------0--x-----9-------|
--0--------1L-1L-1L-1s----8--------10-x-----8-------|
--0--------0L-0L-0L-0-----0--------0--x-----7-------|
--0L-------0--x--0--0-----10L------10-x-------------|
--2L-------2--x--0--0-----0L-------0--x-------------|
--0L-------0--x--2--2s----9L-------9--x-------------|


--9L-------9L-9--9--9-----10-10-10-9--x-------------|
--8L-------8L-8--8--8-----8--8--8--8--x-------------|
--7--------7--x--7--7-----7--7--7--7--x--0--0--0----|
--0--------0--x--0--0-----0--0--0--0--x--0--0--0----|
--0--------0--x--0--0-----0L-0L-0L-0--x--0L-0L-0----|
----------------------------------------------------|


--0L-------0L-0L-0L-0-----0--------0--x-----0-------|
--0h-------1L-1L-1L-1s----8--------10-x-----7-------|
--0L-------0L-0L-0L-0-----0--------0--x-----0-------|
--0L-------0--x--0--0-----10L------10-x-----7-------|
--2L-------2--x--0--0-----0L-------0--x-------------|
--0L-------0--x--2--2s----9L-------9--x-------------|


--0L-------0--x-----5L----5L-5L-5L-5--7L----7-------|
--7L-------7--x-----5L----5L-5L-5L-5--7L----7-------|
--0--------0--x-----5-----5--5--5--5--7-----7-------|
--7--------7--x-----5-----5--5--5--5--7-----7-------|
--4--------4--x-----0L----0L-0L-0L-0--0-----x-------|
--4--------4--x-------------------------------------|


-----------------------------------0--------4-------|
--12L------12-10L------10-8--------10-x-----7-------|
--0L-------0--0L-------0--0--------0--x-----4-------|
--10-------x--10-------x--10-------10-x-----4-------|
--------------------------0--------0--------4-------|
--9L-------9--9L-------9--9-----------------4-------|


--4--------x--------x--------5--------x--------x--------7-----------------7-----|
--7--------x--------x--------8--------x--------x--------10----------------------|
--4--------x--------x--------5--------x--------x--------7-----------------------|
--4--------x--------x--------5--------x--------x--------7-----------------------|
--4--------x--------x--------5--------x--------x--------7-----------------------|
--------------------------------------------------------------------------------|


--------------------------------------------------------------------|
7-----------------------7-----7-------------------------------------|
------7-----------7-----------7-------------------------------------|
------------7-------------------------------------------------------|
--------------------------------------------------------------------|
--------------------------------------------------------------------|


--5L-------5--x-----5L----5L-5L-5L-5--7L----7-------|
--5--------7--x-----5L----5L-5L-5L-5--7L----7-------|
--5--------5--x-----5-----5--5--5--5--7L----7-------|
--5--------5--x-----5-----5--5--5--5--7-----7-------|
--0--------0--x-----0-----0--0--0--0--0-----0-------|
----------------------------------------------------|


--9--------9--x-----9L----9L-9L-9L-9L-9L-9L-9L-9----|
--0--------0--x-----0L----0L-0L-0L-0L-0L-0L-0L-0----|
--0--------0--x-----0-----0--0--0--0--0--0--0--0----|
--0--------0--x-----0-----0--0--0--0--0--0--0--0----|
----------------------------------------------------|
--4--------4--x-----4-----4L-4L-4L-4--4L-4L-4L-4----|


--9L-------9--7L----7-----5--------4--x-----7L------|
--0--------0--0-----0-----4--------4--x-----0L------|
--0--------0--0-----0-----4--------4--x-----0L------|
--7L-------7--7-----------4L-------4--x-----4L------|
--6L-------6--6-----------4L-------4--x-----4L------|
--6L-------6--6-----------4L-------4--x-----4L------|


--7L----7-----5-----5-----4--------5--x-----0-------|
--0L----0-----0-----0-----0--------0--x-----0-------|
--0L----0-----0-----0-----0--------0--x-----0-------|
--4-----4L----4L----4-----2L-------2--x-----2-------|
--4-----4L----4L----4-----2L-------2--x-----2-------|
--4-----4L----4L----4-----2L-------2--x-----2-------|


--2L-------2--4L----4-----5--------7--x-----9-------|
--1L-------1--3L----3-----5--------7--x-----0-------|
--0--------0--0-----0-----5--------7--x-----0-------|
--2--------2--5-----5-----5--------7--x-----0-------|
--0L-------0--0L----0-----0L-------0--x-------------|
--------------------------0L-------0--x-----4-------|


--9--------9--x-----9L----9L-9L-9L-9L-9L-9L-9L-9----|
--0--------0--x-----0L----0L-0L-0L-0L-0L-0L-0L-0----|
--0--------0--x-----0-----0--0--0--0--0--0--0--0----|
--0--------0--x-----0-----0--0--0--0--0--0--0--0----|
----------------------------------------------------|
--4--------4--x-----4-----4L-4L-4L-4--4L-4L-4L-4----|


--9--------7--x-----10L---10L10L10L---10L---10------|
--0--------0--x-----10L---10L10L10L---10L---10------|
--0--------0--x-----0L----0--0--0-----0-----0-------|
--5L-------5--x-----5L----5--5--5-----5-----5-------|
--5L-------5--x-----5L----5--5--5-----5-----5-------|
--5L-------5--x-----5L----5--5--5-----5-----5-------|


--7L-------7--5L----5-----4--------5--x-----0-------|
--0L-------0--0L----0-----0--------0--x-----0-------|
--0--------0--0-----0-----0--------0--x-----0-------|
--4--------4--4-----4-----2L-------2--x-----2-------|
--4L-------4--4L----4-----2L-------2--x-----2-------|
--4L-------4--4L----4-----2L-------2--x-----2-------|


--2L-------2--4L----4-----5--------7--x-----9-------|
--1L-------1--3L----3-----5--------7--x-----0-------|
--0--------0--0-----0-----5--------7--x-----0-------|
--2--------2--5-----5-----5--------7--x-----0-------|
--0L-------0--0L----0-----0L-------0--x-------------|
--------------------------0L-------0--x-----4-------|


--9--------9--x-----9L----9L-9L-9L-9L-9L-9L-9L-9----|
--0--------0--x-----0L----0L-0L-0L-0L-0L-0L-0L-0----|
--0--------0--x-----0-----0--0--0--0--0--0--0--0----|
--0--------0--x-----0-----0--0--0--0--0--0--0--0----|
----------------------------------------------------|
--4--------4--x-----4-----4L-4L-4L-4--4L-4L-4L-4----|


--9L-------9--7L----7-----5--------4--x-----7L------|
--0--------0--0-----0-----4--------4--x-----0L------|
--0--------0--0-----0-----4--------4--x-----0L------|
--7L-------7--7-----------4L-------4--x-----4L------|
--6L-------6--6-----------4L-------4--x-----4L------|
--6L-------6--6-----------4L-------4--x-----4L------|


--7L----7-----5-----5-----4--------5--x-----0-------|
--0L----0-----0-----0-----0--------0--x-----0-------|
--0L----0-----0-----0-----0--------0--x-----0-------|
--4-----4L----4L----4-----2L-------2--x-----2-------|
--4-----4L----4L----4-----2L-------2--x-----2-------|
--4-----4L----4L----4-----2L-------2--x-----2-------|


--2L-------2--4L----4-----5--------7--x-----9-------|
--1L-------1--3L----3-----5--------7--x-----0-------|
--0--------0--0-----0-----5--------7--x-----0-------|
--2--------2--5-----5-----5--------7--x-----0-------|
--0L-------0--0L----0-----0L-------0--x-------------|
--------------------------0L-------0--x-----4-------|


--9--------9--x-----9L----9L-9L-9L-9L-9L-9L-9L-9----|
--0--------0--x-----0L----0L-0L-0L-0L-0L-0L-0L-0----|
--0--------0--x-----0-----0--0--0--0--0--0--0--0----|
--0--------0--x-----0-----0--0--0--0--0--0--0--0----|
----------------------------------------------------|
--4--------4--x-----4-----4L-4L-4L-4--4L-4L-4L-4----|


--9--------7--x-----10L---10L10L10L---10L---10------|
--0--------0--x-----10L---10L10L10L---10L---10------|
--0--------0--x-----0L----0--0--0-----0-----0-------|
--5L-------5--x-----5L----5--5--5-----5-----5-------|
--5L-------5--x-----5L----5--5--5-----5-----5-------|
--5L-------5--x-----5L----5--5--5-----5-----5-------|


--7L-------7--5L----5-----4--------5--x-----0-------|
--0L-------0--0L----0-----0--------0--x-----0-------|
--0--------0--0-----0-----0--------0--x-----0-------|
--4--------4--4-----4-----2L-------2--x-----2-------|
--4L-------4--4L----4-----2L-------2--x-----2-------|
--4L-------4--4L----4-----2L-------2--x-----2-------|


--2--------2--2-----2L----2L-2L-2L-2L-2L-2L-2L-2----|
--1--------1--1-----1L----1L-1L-1L-1L-1L-1L-1L-1----|
--0--------0--0-----0-----0--0--0--0--0--0--0--0----|
--2--------2--2-----2-----2--2--2--2--2--2--2--2----|
--0L-------0--0-----0-----0--0--0--0--0--0--0--0----|
--0L-------0--0-----0-----0--0--0--0--0--0--0--0----|


--2L-------2--0L----0-----0L-------0--4L----4-------||
--1L-------1--0L----0-----3L-------3--3L----3-------||
--0--------0--0-----0-----0--------0--0-----0-------||
--2--------2--0-----0-----4--------4--4-----4-------||
--0L-------0--0L----0-----2L-------2--2L----2-------||
--0L-------0--------------2L-------2--2L----2-------||


-0L-------0--x-----------------------x--0--0--0----|
-5L-------5--x-----------------------x--5--5--5----|
o0L-------0--x--0--0-----0--0--0--0--x--0--0--0----|
o5--------5--x--5--5-----5--5--5--5--x--5----------|
-4--------4--x--4--4L----4L-4L-4L-4--x--4----------|
-4--------4--x--4--4L----4L-4L-4L-4--x--4----------|


--0L-------0--x-----------------------x-------------|
--3L-------3--x-----------------------x--3--3--0----|
--0L-------0--x--0--0-----0--0--0--0--x--0--0--0----|
--4--------4--x--4--4-----4--4--4--4--x--4--4--0----|
--2--------2--x--2--2L----2L-2L-2L-2--x-------------|
--2--------2--x--2--2L----2L-2L-2L-2--x-------------|


--0L-------0--x-------------------------------------|
--1L-------1--x--1--1L----1L-1L-1L-1--x--1--1--1----|
--0L-------0--x--0--0-----0--0--0--0--x--0--0--0----|
--2--------2--x--2--2-----2--2--2--2--x--2--2--2----|
--0--------0--x--0L-0L----0L-0L-0L-0--x--0L-0L-0----|
--0--------0--x--0L-0L----0L-0L-0L-0--x--0L-0L-0----|


--------------------------------------------------------------------------------|
--1--------------------------1--------1-----------------1-----------------3-----|
--0--------------------------0--------0-----------------0-----------------0-----|
--2--------------------------2--------2-----------------2-----------------4-----|
--0--------------------------0--------0-----------------0-----------------2-----|
--0--------------------------0--------0-----------------0-----------------2-----|


-------------------------------------------------------------------||
3-----3-----3-----3-----3-----3-----------------0------------------||
0-----0-----0-----0-----0-----0-----------------0-----------------o||
4-----4-----4-----4-----4-----4-----------------0-----------------o||
2-----2-----2-----2-----2-----2------------------------------------||
2-----2-----2-----2-----2-----2------------------------------------||


--0--------0L-0-----------0--------0L-0-------------|
--1--------1L-1-----------3--------3L-3-------------|
--0--------0L-0-----------0--------0L-0-------------|
--2--------2L-2--0--0h-2--4--------4L-4--0--0h-4----|
--0--------0L-0--0--0h-2--2--------2L-2--0--0h-4----|
--0--------0L-0--0--0h-2--2--------2L-2--0--0h-4----|


--0g-0-----0L-0-----0-------------------------------||
--0--0-----0L-0-----0-------------------------------||
--0--0-----0L-0-----0-------------------------------||
--4--0h-4--4L-4-----0-------------------------------||
--4--0h-4--4L-4-----0-------------------------------||
--4--0h-4--4L-4-----0-------------------------------||
comments
We did not receive enough feedback on this tab! Please rate:
print report bad tab
1 2 3 4 5
I want to post or [tab]
guest
You may want to rate the tab now too:
select rating
Please do not post tabs as comments. Select "correction" instead!