Oops, an error
Loading. Please wait.

Murderer Tab

ver1
ver1

Whole song

Interactive

More versions @911Tabs.com
1,162 views 3 this week
no commentswrite comment
1 2 3 4 5
please rate
Autoscroll
+/-
esc
set tempo
stop
Contributor
WARNING: You are trying to view
                                    content from Ultimate-Guitar.com
                                    in an unauthorized application,
                                    which is prohibited.

                                    Please use an official Ultimate
                                    Guitar Tabs application for iPhone,
                                    iPad or Android to access legitimate
                                    chords, guitar, bass, and drum tabs
                                    from Ultimate-Guitar.com database.

                                    Type "ultimate guitar tabs" in Apple
                                    App Store's or Android Market's
                                    search to find the application.

                               --- KRISIUN ---
                                   "Murderer"
                     From album: "Works Of Carnage"
                   
                           TABULATURE LEGEND:
                   " - tremolo             h - hammer on
                   ~ - vibrato             \ - slide down
                   p - pull off            / - slide down
                  tr - tremolo picking     ^ - pinch harmonics
                   = - sustained note      b - bend string
                p.m. - palm muting         t - tapping

TUNING: B [B, E, A, d, f#, B]

[Riff 1 (x2)]
||------------------------------------------|-
||o-----------------------------------------|-
||------------------------------------------|-
||------------------------------------------|-
||o-----------------------------------------|-
||--0-0-0-0--0-0-0-0----0-0-0-0--0-0-0-0----|-
    . . . .  . . . .    . . . .  . . . .

-|---------------------------------------||
-|--------------------------------------o||
-|---------------------------------------||
-|---------------------------------------||
-|--------------------------------------o||
-|-0-0-0-0--0-0-0-0--0-0-0-0--0-0-0-0----||
   . . . .  . . . .  . . . .  . . . .

[Riff 2 (x2)]
||---------------------------------------------------|-
||o--------------------------------------------------|-
||---------------------------------------------------|-
||--3h6p4p3-6h9p7p6----------3h6p4p3-6h9p7p6---------|-
||o--------------------------------------------------|-
||------------------0-0-0-0------------------0-0-0-0-|-
                    . . . .                  . . . .

-|---------------------------------------------||
-|--------------------------------------------o||
-|---------------------------------------------||
-|-3h6p4p3-6h9p7p6-5h8p6p5-4h7p5p4-------------||
-|--------------------------------------------o||
-|---------------------------------0-0-0-0-----||
                                   . . . .

[Riff 3 (x2)]
||---------------------------------------------------------|-
||o-9h12p10p9-8h11p9p8----------9h12p10p9-8h11p9p8---------|-
||---------------------------------------------------------|-
||---------------------------------------------------------|-
||o--------------------------------------------------------|-
||---------------------0-0-0-0---------------------0-0-0-0-|-
|                      . . . .                     . . . . |
||---------------------------------------------------------|-
||o-6h-9p-7p6-5h-8p6p5----------6h-9p-7p6-5h-8p6p5---------|-
||---------------------------------------------------------|-
||---------------------------------------------------------|-
||o--------------------------------------------------------|-
||---------------------0-0-0-0---------------------0-0-0-0-|-
                       . . . .                     . . . .

-|-------------------------------------------------||
-|-9h12p10p9-8h11p9p8-7h10p8p7-6h9p7p6------------o||
-|-------------------------------------------------||
-|-------------------------------------------------||
-|------------------------------------------------o||
-|-------------------------------------0-0-0-0-----||
 |                                     . . . .      |
-|-------------------------------------------------||
-|-6h-9p-7p6-5h-8p6p5-4h-7p5p4-3h6p4p3------------o||
-|-------------------------------------------------||
-|-------------------------------------------------||
-|------------------------------------------------o||
-|-------------------------------------0-0-0-0-----||
                                       . . . .

[RIFF 1 (x2)] [RIFF 3 (x2)] [RIFF 1 (x2)]

[Riff 4 (x2)]
||-----------------------------------------------------------|-
||o----------------------------------------------------------|-
||-----------------------------------------------------------|-
||-----------------------------------------------------------|-
||o-7-7-7-10--8-8-8-11-----------7-7-7-10--8-8-8-11----------|-
||----------------------0-0-0-0----------------------0-0-0-0-|-
    . . . .   . . . .   . . . .  . . . .   . . . .   . . . .

|---------------------------------------------------||
|--------------------------------------------------o||
|---------------------------------------------------||
|---------------------------------------------------||
|-7-7-7-10--8-8-8-11--7-7-7-10--6-6-6-9------------o||
|----------------------------------------0-0-0-0----||
  . . . .   . . . .   . . . .   . . . .  . . . .

[Riff 5 (x4)]
||--------------------------------------------------------------------------|-
||o-------------------------------------------------------------------------|-
||--------------------------------------------------------------------------|-
||--------------------------------------------------------------------------|-
||o-7-7-8-10-10-10-8-8-9-11-11-11-------7-7-8-10-10-10-8-8-9-11-11-11-------|-
||--------------------------------0-0-0-------------------------------0-0-0-|-
    . . . .  .  .  . . . .  .  .        . . . .  .  .  . . . .  .  .

-|-----------------------------------------------------------------||
-|----------------------------------------------------------------o||
-|-----------------------------------------------------------------||
-|-----------------------------------------------------------------||
-|-7-7-8-10-10-10-8-8-9-11-11-11-7-7-8-10-10-10-6-6-7-9-9-9-------o||
-|----------------------------------------------------------0-0-0--||
   . . . .  .  .  . . . .  .  .  . . . .  .  .  . . . . . .

[Riff 6 (x2)]
||----------------------------------|---------------------------------|-
||o---------------------------------|---------------------------------|-
||----------------------------------|---------------------------------|-
||----------------------------------|---------------------------------|-
||o---------------------------------|---------------------------------|-
||--0-1-2-3-1-2-3-4-0-1-2-3-1-2-3-4-|-0-1-2-3-1-2-3-4-0-3-4-5-3-4-5-6-|-
|   . . . . . . . . . . . . . . . . | . . . . . . . . . . . . . . . . |
||----------------------------------|---------------------------------|-
||o---------------------------------|---------------------------------|-
||----------------------------------|---------------------------------|-
||----------------------------------|---------------------------------|-
||o---------------------------------|---------------------------------|-
||--0-1-2-3-1-2-3-4-0-1-2-3-1-2-3-4-|-0-1-2-3-1-2-3-4-0-3-4-5-3-4-5-6-|-

-|---------------------------------|----------------------------------||
-|---------------------------------|---------------------------------o||
-|---------------------------------|----------------------------------||
-|---------------------------------|----------------------------------||
-|---------------------------------|---------------------------------o||
-|-0-1-2-3-1-2-3-4-0-1-2-3-1-2-3-4-|-0-1-2-3-1-2-3-4-0-3-4-5-3-4-5-6--||
 |                                 |                                   |
-|---------------------------------|----------------------------------||
-|---------------------------------|---------------------------------o||
-|---------------------------------|----------------------------------||
-|---------------------------------|----------------------------------||
-|---------------------------------|---------------------------------o||
-|-0-1-2-3-1-2-3-4-0-1-2-3-1-2-3-4-|-0-1-2-3-1-2-3-4-0-3-4-5-3-4-5-6--||

[Outro]
|-------------------------------------------------|
|-------------------------------------------------|
|-------------------------------------------------|
|-------------------------------------------------|
|-------------------------------------------------|
|-0-0-0-0-0-0-0-0-0-0-0-0-0-0-0-0-0-0-0-0-0-0-0-0-|
|                                                 |
|-------------------------------------------------|
|-------------------------------------------------|
|-------------------------------------------------|
|-------------------------------------------------|
|-------------------------------------------------|
|-0-0-0-0-0-0-0-0-0-0-0-0-0-0-0-0-0-0-0-0-0-0-0-0-|

[Riff 7]
|------------------------------------------------------|-
|------------------------------------------------------|-
|------------------------------------------------------|-
|-9-10-11-12-10-11-12-13-9-10-11-12-8-9-10-11-7-8-9-10-|-
|------------------------------------------------------|-
|------------------------------------------------------|-
| p.m................................................. |
|------------------------------------------------------|-
|------------------------------------------------------|-
|------------------------------------------------------|-
|------------------------------------------------------|-
|-7--8--9-10--8--9-10-11-7--8--9-10-6-7--8--9-5-6-7--8-|-
|------------------------------------------------------|-
  p.m.................................................

-|-------------------------------------------|-
-|-------------------------------------------|-
-|------------------------7-8-9-10-8-9-10-11-|-
-|-9-10-11-12-10-11-12-13--------------------|-
-|-------------------------------------------|-
-|-------------------------------------------|-
 | p.m...................................... |
-|-------------------------------------------|-
-|-------------------------------------------|-
-|-------------------------------------------|-
-|------------------------5-6-7--8-6-7--8--9-|-
-|-7--8--9-10--8--9-10-11--------------------|-
-|-------------------------------------------|-
   p.m......................................

-|------------------------------------------------------|
-|------------------------------------------------------|
-|-9-10-11-12-10-11-12-13-9-10-11-12-8-9-10-11-7-8-9-10-|
-|------------------------------------------------------|
-|------------------------------------------------------|
-|------------------------------------------------------|
 | p.m................................................. |
-|------------------------------------------------------|
-|------------------------------------------------------|
-|------------------------------------------------------|
-|------------------------------------------------------|
-|-7--8--9-10--8--9-10-11-7--8--9-10-6-7--8--9-5-6-7--8-|
-|------------------------------------------------------|
   p.m.................................................

-|---------------------------------------------|
-|------------------------8-9-10-11-9-10-11-12-|
-|-9-10-11-12-10-11-12-13----------------------|
-|---------------------------------------------|
-|---------------------------------------------|
-|---------------------------------------------|
 | p.m........................................ |
-|---------------------------------------------|
-|---------------------------------------------|
-|---------------------------------------------|
-|------------------------5-6--7--8-6--7--8--9-|
-|-7--8--9-10--8--9-10-11----------------------|
-|---------------------------------------------|
   p.m........................................

[Riff 8] /under solo/
|-------------------------------------|-------------------------6-7-8--9-|
|--------------------------9-10-11-12-|-----------------5-6-7-8----------|
|-----------------6-7-8--9------------|---------2-3-4-5------------------|
|---------4-5-6-7---------------------|-2-3-4-5--------------------------|
|-4-5-6-7-----------------------------|----------------------------------|
|-------------------------------------|----------------------------------|
| p.m................................ | p.m............................. |
|-------------------------------------|----------------------------------|
|-------------------------------------|-------------------------7-8-9-10-|
|--------------------------8--9-10-11-|-----------------5-6-7-8----------|
|-----------------7-8-9-10------------|---------3-4-5-6------------------|
|---------5-6-7-8---------------------|-3-4-5-6--------------------------|
|-5-6-7-8-----------------------------|----------------------------------|
  p.m................................   p.m.............................

[RIFF 1 (x4)] [RIFF 5 (x4)]

END OF SONG




comments
We did not receive enough feedback on this tab! Please rate:
print report bad tab
1 2 3 4 5
I want to post or [tab]
guest
You may want to rate the tab now too:
select rating
Please do not post tabs as comments. Select "correction" instead!