Oops, an error
Loading. Please wait.

De Borest Tab

151 views 1 this week
no commentswrite comment
1 2 3 4 5
please rate
Autoscroll
+/-
esc
set tempo
stop
Contributor
Hey! There's an official Ultimate Guitar app which is ideal
for learning songs when you're away from computer. Get the app
WARNING: You are trying to view
                                    content from Ultimate-Guitar.com
                                    in an unauthorized application,
                                    which is prohibited.

                                    Please use an official Ultimate
                                    Guitar Tabs application for iPhone,
                                    iPad or Android to access legitimate
                                    chords, guitar, bass, and drum tabs
                                    from Ultimate-Guitar.com database.

                                    Type "ultimate guitar tabs" in Apple
                                    App Store's or Android Market's
                                    search to find the application.
http://palcomp3.com/kuasenada/

=========================================
Artist: Kuase Nada
Song: De Borest
Tabbed by: Cifra Club
=========================================

(intro)

E|---------------------------------------------------------------|
B|---------------------------------------------------------------|
G|---------------------------------------------------------------|
D|---------------------------------------------------------------|
A|----2--2/5--5/9--9/7--7h9p7------------------------------------|
E|---------------------------------------------------------------|

E|---------------------------------------------------------------|
B|---------------------------------------------------------------|
G|---------------------------------------------------------------|
D|---------------------------------------------------------------|
A|----2--2/5--5/7-5---4-4--4-4h5-5-4-2---------------------------|
E|---------------------------------------------------------------|

(solo)

E|--3>5-5-5---5-3-3--3-2-2--2>3-2---2-0-0--0-2-2--0-0------------|
B|----------------------------------------------------3----------|
G|---------------------------------------------------------------|
D|---------------------------------------------------------------|
A|---------------------------------------------------------------|
E|---------------------------------------------------------------|

E|-----5------3/5-3-2------0---------------------------------------|
B|---3---3---3--------------3-----3-3-3-2----2>3-0-----------------|
G|-----------------------------------------------------------------|
D|-----------------------------------------------------------------|
A|-----------------------------------------------------------------|
E|-----------------------------------------------------------------|

AhhhhhhhhhhHHHHHaaaaaah
(Bm G D A)
Hoje aconteceu (o quê?), tudo que eu queria
Fiz coisa pra caralho, mas no fundo eu não sabia
Fui pro banheiro apertar um, pra começar a session,
E depois um cigarrin, só pra ficar de borest
E na sequência eu fui pra rua, com meu skatim
Enquanto eu andava, tofava meu diguizin
Chegando na casa do brother, já muito doidão
Entrei pela cozinha e senti um cheiro bom
O moleque, tava no quarto babando, no travesseiro
Eu disse: "Acorda moleque, eu já tofei o meu primeiro"
Logo depois que ele acordou vamo continuar a session
Minha mãe num tá em casa, então...

(refrão)
(Bm G D A)
Tá de boreeeeeest.....
Eu disse ôôôôôôôôô....
Tá de borest...

ô-ô-ôôô.....

Tá de boreeeeeeeest......

(Bm G D A)
Depois fomos pro posto, mata um laricão
Hot dog e um suquinho, isso aqui tá muito bom
E agora naum tem grana pa comprar o meu careta
Só tenho R$1,50 , pra comprá minha camiseta
Eu vo na casa da minha mina ,o pai dela num tá lá
Hoje o dia vai ser bom, Vai rolar o pápápá
Eu te dou minha camiseta, mas compro um cigarrin
Que depois de um rango desse, eu tou na fissura sim
E na inércia nóis vazamo, pra continuar a session
Cigarrin depois do rango então...

(refrão)
(Bm G D A)
Tá de boreeeeeest.....
Eu disse ôôôôôôôôô....
Tá de borest...

ô-ô-ôôô.....

Tá de boreeeeeeeest......

(Bm G D A)
Depois a galera foi pro garagem de baú
Mas no meio do caminho, os homi deram bacú
O gambé num achou nada, a parada tava no mato
Como o gambé num sabia ele ficou indignado
"Cadê essa Parada?", o gambé me perguntou
Eu disse "Não mexo com isso", ele naum acreditou
Comecei a disfarçar mas o gambé num percebeu
E no final das contas, o pé-de-bota se fudeu
E agora não tem Jack, que é que vamo fazê?
Que tal entrar na roda e começar,
A SE BATEEER!!!!!

E|-------------------------------------------------------|
B|-------------------------------------------------------|
G|-------------------------------------------------------|
D|-------------------------------------4-4-5-5-7-7-------|
A|-2-2-5-5-4-4---------2-2-3-3-4-4-5-5-----------------4-|
E|-------------5-5-3-3-----------------------------5-5---|

-------------------------------------------------------|
-------------------------------------------------------|
--------------------------------------------7-7-7---3-4|
---2-2--------------------------------------7-7-7-7-3-4|
4-5-----5-4-2-2-5-5-4-4---------2-2-3-3-4-4-5-5-5-7-1-2|
------------------------5-5-3-3-------------------5----|

( Bm G D A ) (mais rápido)
Saímo do garagem completamente suado
Eu tinha que admitir, que eu tava muito passado
Mas aquela noite, valeu a pena sangue bom
Além de bate cabeça, eu tava muito doidão
Então vamo pegá um atalho que eu tenho que ir pra casa
Eu só vou comprá uma breja, pegá minha parada
Mas agora fudeu, eu esqueci onde botei
Fiquei pensando e procurando até que enfim eu encontrei
Então pegua essa parada e bota logo aí no saco
Que o baú já vai passar e nóis vamo chega atrasado
Ô moleque sai dessa nóia aqui não passa mais baú
Mas no meio do caminho a gente vai levá outro bacúúúúúúúúuúú

E|----------------------------------------------------------------|
B|--000000-333333-777777-5555-77-55-000000-33333-5-333333-222>3>2-|
G|----------------------------------------------------------------|
D|----------------------------------------------------------------|
A|----------------------------------------------------------------|
E|----------------------------------------------------------------|

Só tem mais uma "fina" vamos continuar a session,
Depois q "fina" for pra mente, tá de borest!!
Só tem mais uma "fina" vamos continuar a session, (2x)
Depois q "fina" for pra mente, tá de borest!!

E|------------------------------------------------------------|
B|------------------------------------------------------------|
G|------------------------------------------------------------|
D|-------------------------------------4-4-5-5-7-7--7-5-5-5-4-|
A|-2-2-5-5-4-4---------2-2-3-3-4-4-5-5------------------------|
E|-------------5-5-2-2----------------------------------------|

 -------------------------------------------------------------|
 -------------------------------------------------------------|
 ----------------------------------------------------4~---4---|
 ------4-4-5-5-7-7--7-5-5-5-4------------------------4~---4---|
 -5-5-------------------------5>7--5--5-5-4--4>5--4--2~---2---|
 -------------------------------------------------------------|

(verso - baixo no violão) (variações)

|-----------------------------------------------|
|-----------------------------------------------|
|-----------------------------------------------|
|-----------------------------4>5>7-------------|
|-2---2-5-4--------2-4-5----5--------------0-1--|
|-------------3--3-------------------2--2-------|

|-------------------------------------------------|
|-------------------------------------------------|
|-------------------------------------------------|
|-----------------------------4>5>4---------------|
|-2---2-5-4--------2-4-5----5--------------0-1----|
|-------------3--3-------------------2--2---------|

|-------------------------------------------------|
|-------------------------------------------------|
|-------------------------------------------------|
|-----------------------------4>5>7---------------|
|-2---2-5-4--------2-4-5----5--------------4>5>4--|
|-------------3--3-------------------5--5---------|
comments
We did not receive enough feedback on this tab! Please rate:
print report bad tab
1 2 3 4 5
I want to post or [tab]
guest
You may want to rate the tab now too:
select rating
Please do not post tabs as comments. Select "correction" instead!